Site menu:

    

Browse: 0-9 A B C D E F G H I J K L N O P Q R S T U V W X Y Z

the cure - sinking:



Title: Sinking
Artist: 
Album: The Head On The Door
Author: Robert Smith


Track 1: Piano

E|-0------|-0------|-0------|-0------|-0------|-0-----0---------|--------|--------|
B|-0------|-0------|-0------|-0------|-0------|-0-----0---------|--------|--------|
G|-2------|-2------|-2------|-2------|-2------|-2-----2---------|--------|--------|
D|-2------|-2------|-2------|-2------|-2------|-2-----2---------|--------|--------|
A|-2------|-2------|-2------|-2------|-2------|-2-----2---------|--------|--------|
E|--------|--------|--------|--------|--------|-----------------|--------|--------|


E|--------|--------|--------|--------|-----------------------|--------|---------------------------|
B|--------|--------|--------|--------|-----------------------|--------|---------------------------|
G|--------|--------|--------|--------|-----------0---2---4---|-4------|-4---------4---2---4-------|
D|--------|--------|--------|--------|-------2---------------|--------|-----------------------2---|
A|--------|--------|--------|--------|-----------------------|--------|---------------------------|
E|--------|--------|--------|--------|-----------------------|--------|---------------------------|


E|--------|---------------------------|----------------|---------------------------|
B|--------|---------------------------|--------3-------|---------------------------|
G|--------|---------------0---2---4---|-4----------4---|-4---------4---2---4-------|
D|-2------|-2---------2---------------|----------------|-----------------------2---|
A|--------|---------------------------|----------------|---------------------------|
E|--------|---------------------------|----------------|---------------------------|


E|--------|---------------------------|--------|---------------------------|--------|
B|--------|---------------------------|--------|---------------------------|--------|
G|--------|---------------------------|--------|---------------------------|--------|
D|-2------|-2---------2---0---2-------|--------|---------------------------|--------|
A|--------|-----------------------3---|-3------|-3---------2---0---2-------|--------|
E|--------|---------------------------|--------|-----------------------0---|-0------|


E|---------------------------|--------|---------------------------|--------|---------------------------|
B|---------------------------|--------|---------------------------|--------|---------------------------|
G|---------------------------|--------|---------------------------|--------|---------------0---2---4---|
D|-----------2---0---2-------|--------|---------------------------|--------|-----------2---------------|
A|-----------------------3---|-3------|-3---------2---0---2-------|--------|---------------------------|
E|-0-------------------------|--------|-----------------------0---|-0------|-0-------------------------|


E|--------|---------------------------|--------|---------------------------|----------------|
B|--------|---------------------------|--------|---------------------------|--------3-------|
G|-4------|-4---------4---2---4-------|--------|---------------0---2---4---|-4----------4---|
D|--------|-----------------------2---|-2------|-2---------2---------------|----------------|
A|--------|---------------------------|--------|---------------------------|----------------|
E|--------|---------------------------|--------|---------------------------|----------------|


E|---------------------------|--------|---------------------------|--------|---------------------------|
B|---------------------------|--------|---------------------------|--------|---------------------------|
G|-4---------4---2---4-------|--------|---------------0---2---4---|-4------|-4---------4---2---4-------|
D|-----------------------2---|-2------|-2---------2---------------|--------|-----------------------2---|
A|---------------------------|--------|---------------------------|--------|---------------------------|
E|---------------------------|--------|---------------------------|--------|---------------------------|


E|--------|---------------------------|----------------|---------------------------|
B|--------|---------------------------|--------3-------|---------------------------|
G|--------|---------------0---2---4---|-4----------4---|-4---------4---2---4-------|
D|-2------|-2---------2---------------|----------------|-----------------------2---|
A|--------|---------------------------|----------------|---------------------------|
E|--------|---------------------------|----------------|---------------------------|


E|--------|---------------------------|--------|---------------------------|--------|
B|--------|---------------------------|--------|---------------------------|--------|
G|--------|---------------------------|--------|---------------------------|--------|
D|-2------|-2---------2---0---2-------|--------|---------------------------|--------|
A|--------|-----------------------3---|-3------|-3---------2---0---2-------|--------|
E|--------|---------------------------|--------|-----------------------0---|-0------|


E|---------------------------|--------|---------------------------|--------|---------------------------|
B|---------------------------|--------|---------------------------|--------|---------------------------|
G|---------------------------|--------|---------------------------|--------|---------------0---2---4---|
D|-----------2---0---2-------|--------|---------------------------|--------|-----------2---------------|
A|-----------------------3---|-3------|-3---------2---0---2-------|--------|---------------------------|
E|-0-------------------------|--------|-----------------------0---|-0------|-0-------------------------|


E|--------|---------------------------|------10---15-14----------|-----------------------|
B|--------|---------------------------|-----------------15--15---|-15--------------------|
G|-4------|-4---------4---2---4-------|--------------------------|-----------------------|
D|--------|-----------------------2---|-2------------------------|-----------------------|
A|--------|---------------------------|--------------------------|-----------10--12--14--|
E|--------|---------------------------|--------------------------|-------12--------------|


E|----------------|---------------------------|--------|---------------------------|
B|----------------|---------------------------|--------|---------------------------|
G|----------------|---------------------------|--------|---------------------------|
D|--------12------|---------------------------|--------|---------------------------|
A|-14---------14--|-14--------14--12--14------|--------|---------------10--12--14--|
E|----------------|-----------------------12--|-12-----|-12--------12--------------|


E|--------|---------------------------|--------|---------------------------|----------------|
B|--------|---------------------------|--------|---------------------------|----------------|
G|--------|---------------------------|--------|---------------------------|----------------|
D|--------|---------------------------|--------|---------------------------|--------12------|
A|-14-----|-14--------14--12--14------|--------|---------------10--12--14--|-14---------14--|
E|--------|-----------------------12--|-12-----|-12--------12--------------|----------------|


E|---------------------------|--------|---------------------------|--------|---------------------------|
B|---------------------------|--------|---------------------------|--------|---------------------------|
G|---------------------------|--------|---------------------------|--------|---------------------------|
D|---------------------------|--------|---------------------------|--------|---------------------------|
A|-14--------14--12--14------|--------|---------------10--12--14--|-14-----|-14--------14--12--14------|
E|-----------------------12--|-12-----|-12--------12--------------|--------|-----------------------12--|


E|--------|---------------------------|----------------|---------------------------|
B|--------|---------------------------|----------------|---------------------------|
G|--------|---------------------------|----------------|---------------------------|
D|--------|---------------------------|--------12------|---------------------------|
A|--------|---------------10--12--14--|-14---------14--|-14--------14--12--14------|
E|-12-----|-12--------12--------------|----------------|-----------------------12--|


E|--------|---------------------------|--------|---------------------------|--------|
B|--------|---------------------------|--------|---------------------------|--------|
G|--------|---------------------------|--------|---------------------------|--------|
D|--------|---------------------------|--------|---------------------------|--------|
A|--------|---------------10--12--14--|-14-----|-14--------14--12--14------|--------|
E|-12-----|-12--------12--------------|--------|-----------------------12--|-12-----|


E|---------------------------|----------------|---------------------------|--------|
B|---------------------------|----------------|---------------------------|--------|
G|---------------------------|----------------|---------------------------|--------|
D|---------------------------|--------12------|---------------------------|--------|
A|---------------10--12--14--|-14---------14--|-14--------14--12--14------|--------|
E|-12--------12--------------|----------------|-----------------------12--|-12-----|


E|---------------------------|--------|---------------------------|--------|---------------------------|
B|---------------------------|--------|---------------------------|--------|---------------------------|
G|---------------------------|--------|---------------------------|--------|---------------------------|
D|---------------------------|--------|---------------------------|--------|---------------------------|
A|---------------------------|--------|---------------------------|--------|-----------7---5---7-------|
E|-12--------12--10--12--8---|-8------|-8---------7---5---7---0---|-0------|-0---------------------8---|


E|--------|---------------------------|--------|---------------------------|--------|
B|--------|---------------------------|--------|---------------------------|--------|
G|--------|---------------------------|--------|---------------------------|--------|
D|--------|---------------------------|--------|---------------5---7---9---|-9------|
A|--------|---------------------------|--------|-----------7---------------|--------|
E|-8------|-8---------7---5---7---0---|-0------|-0-------------------------|--------|


E|---------------------------|--------|---------------------------|----------------|
B|---------------------------|--------|---------------------------|----------------|
G|---------------------------|--------|---------------------------|--------7-------|
D|-9---------9---7---9-------|--------|---------------5---7---9---|-9----------9---|
A|-----------------------7---|-7------|-7---------7---------------|----------------|
E|---------------------------|--------|---------------------------|----------------|


E|---------------------------|--------|---------------------------|--------|---------------------------|
B|---------------------------|--------|---------------------------|--------|---------------------------|
G|---------------------------|--------|---------------------------|--------|---------------------------|
D|-9---------9---7---9-------|--------|---------------5---7---9---|-9------|-9---------9---7---9-------|
A|-----------------------7---|-7------|-7---------7---------------|--------|-----------------------7---|
E|---------------------------|--------|---------------------------|--------|---------------------------|


E|--------|---------------------------|----------------|---------------------------|
B|--------|---------------------------|----------------|---------------------------|
G|--------|---------------------------|--------7-------|---------------------------|
D|--------|---------------5---7---9---|-9----------9---|-9---------9---7---9-------|
A|-7------|-7---------7---------------|----------------|-----------------------7---|
E|--------|---------------------------|----------------|---------------------------|


E|--------|---------------------------|--------|---------------------------|--------|
B|--------|---------------------------|--------|---------------------------|--------|
G|--------|---------------------------|--------|---------------------------|--------|
D|--------|---------------------------|--------|---------------------------|--------|
A|-7------|-7---------7---5---7-------|--------|---------------------------|--------|
E|--------|-----------------------8---|-8------|-8---------7---5---7---0---|-0------|


E|---------------------------|--------|---------------------------|--------|---------------------------|
B|---------------------------|--------|---------------------------|--------|---------------------------|
G|---------------------------|--------|---------------------------|--------|---------------------------|
D|---------------------------|--------|---------------------------|--------|---------------------------|
A|-----------7---5---7-------|--------|---------------------------|--------|-----------7---5---7-------|
E|-0---------------------8---|-8------|-8---------7---5---7---0---|-0------|-0---------------------8---|


E|--------|---------------------------|--------|---------------------------|--------|
B|--------|---------------------------|--------|---------------------------|--------|
G|--------|---------------------------|--------|---------------------------|--------|
D|--------|---------------------------|--------|---------------------------|--------|
A|--------|---------------------------|--------|-----------7---5---7-------|--------|
E|-8------|-8---------7---5---7---0---|-0------|-0---------------------8---|-8------|


E|---------------------------|--------|-----------------|--------|--------|--------|
B|---------------------------|--------|-----------------|--------|--------|--------|
G|---------------------------|--------|-----------------|--------|--------|--------|
D|---------------------------|--------|-----------------|--------|--------|--------|
A|---------------------------|--------|-----------------|--------|--------|--------|
E|-8---------7---5---7---0---|-0------|-0---------------|--------|--------|--------|


E|--------|--------|--------|--------|--------|--------|--------|--------|--------|
B|--------|--------|--------|--------|--------|--------|--------|--------|--------|
G|--------|--------|--------|--------|--------|--------|--------|--------|--------|
D|--------|--------|--------|--------|--------|--------|--------|--------|--------|
A|--------|--------|--------|--------|--------|--------|--------|--------|--------|
E|--------|--------|--------|--------|--------|--------|--------|--------|--------|


E|--------|--------|--------|--------|--------|--------|--------|--------|--------|
B|--------|--------|--------|--------|--------|--------|--------|--------|--------|
G|--------|--------|--------|--------|--------|--------|--------|--------|--------|
D|--------|--------|--------|--------|--------|--------|--------|--------|--------|
A|--------|--------|--------|--------|--------|--------|--------|--------|--------|
E|--------|--------|--------|--------|--------|--------|--------|--------|--------|


E|--------|--------|-----------------------|--------|---------------------------|--------|
B|--------|--------|-----------------------|--------|---------------------------|--------|
G|--------|--------|-----------------------|--------|---------------------------|--------|
D|--------|--------|-----------5---7---9---|-9------|-9---------9---7---9-------|--------|
A|--------|--------|-------7---------------|--------|-----------------------7---|-7------|
E|--------|--------|-----------------------|--------|---------------------------|--------|


E|---------------------------|----------------|---------------------------|--------|
B|---------------------------|----------------|---------------------------|--------|
G|---------------------------|--------7-------|---------------------------|--------|
D|---------------5---7---9---|-9----------9---|-9---------9---7---9-------|--------|
A|-7---------7---------------|----------------|-----------------------7---|-7------|
E|---------------------------|----------------|---------------------------|--------|


E|---------------------------|--------|---------------------------|--------|---------------------------|
B|---------------------------|--------|---------------------------|--------|---------------------------|
G|---------------------------|--------|---------------------------|--------|---------------------------|
D|---------------5---7---9---|-9------|-9---------9---7---9-------|--------|---------------5---7---9---|
A|-7---------7---------------|--------|-----------------------7---|-7------|-7---------7---------------|
E|---------------------------|--------|---------------------------|--------|---------------------------|


E|----------------|---------------------------|--------|---------------------------|
B|----------------|---------------------------|--------|---------------------------|
G|--------7-------|---------------------------|--------|---------------------------|
D|-9----------9---|-9---------9---7---9-------|--------|---------------5---7---9---|
A|----------------|-----------------------7---|-7------|-7---------7---------------|
E|----------------|---------------------------|--------|---------------------------|


E|--------|
B|--------|
G|--------|
D|-9------|
A|--------|
E|--------|





Track 2: Clean Guitar

E|--------|--------|--------|--------|-----------3---3-----3-----|-3---2---2----2-----|
B|--------|--------|--------|--------|---------------------------|--------------------|
G|--------|--------|--------|--------|---------------------------|--------------------|
D|--------|--------|--------|--------|---------------------------|--------------------|
A|--------|--------|--------|--------|---------------------------|--------------------|
E|--------|--------|--------|--------|---------------------------|--------------------|


E|-2-----2----2-----3---|-3-----3---------|-----------3---2----|-2----2---------------|
B|----------------------|-----------------|--------------------|----------------------|
G|----------------------|-----------------|--------------------|----------------------|
D|----------------------|-----------------|--------------------|----------------------|
A|----------------------|-----------------|--------------------|----------------------|
E|----------------------|-----------------|--------------------|----------------------|


E|--------|--------|--------|--------|--------|--------|--------|--------|--------|
B|--------|--------|--------|--------|--------|--------|--------|--------|--------|
G|--------|--------|--------|--------|--------|--------|--------|--------|--------|
D|--------|--------|--------|--------|--------|--------|--------|--------|--------|
A|--------|--------|--------|--------|--------|--------|--------|--------|--------|
E|--------|--------|--------|--------|--------|--------|--------|--------|--------|


E|--------|--------|--------|--------|--------|--------|--------|--------|--------|
B|--------|--------|--------|--------|--------|--------|--------|--------|--------|
G|--------|--------|--------|--------|--------|--------|--------|--------|--------|
D|--------|--------|--------|--------|--------|--------|--------|--------|--------|
A|--------|--------|--------|--------|--------|--------|--------|--------|--------|
E|--------|--------|--------|--------|--------|--------|--------|--------|--------|


E|--------|--------|--------|--------|--------|--------|--------|--------|--------|
B|--------|--------|--------|--------|--------|--------|--------|--------|--------|
G|--------|--------|--------|--------|--------|--------|--------|--------|--------|
D|--------|--------|--------|--------|--------|--------|--------|--------|--------|
A|--------|--------|--------|--------|--------|--------|--------|--------|--------|
E|--------|--------|--------|--------|--------|--------|--------|--------|--------|


E|-----------10----10----10----|-10----10----10--10----10---9----|-9---------------|
B|-----------------------------|---------------------------------|-----------------|
G|-----------------------------|---------------------------------|-----------------|
D|-----------------------------|---------------------------------|-----------------|
A|-----------------------------|---------------------------------|-----------------|
E|-----------------------------|---------------------------------|-----------------|


E|--------|-----10--10----10----10----10--10--10----|-10--10--9----9-----|-9-----9---------|
B|--------|-----------------------------------------|--------------------|-----------------|
G|--------|-----------------------------------------|--------------------|-----------------|
D|--------|-----------------------------------------|--------------------|-----------------|
A|--------|-----------------------------------------|--------------------|-----------------|
E|--------|-----------------------------------------|--------------------|-----------------|


E|--------|--------|--------|--------|--------|--------|--------|--------|--------|
B|--------|--------|--------|--------|--------|--------|--------|--------|--------|
G|--------|--------|--------|--------|--------|--------|--------|--------|--------|
D|--------|--------|--------|--------|--------|--------|--------|--------|--------|
A|--------|--------|--------|--------|--------|--------|--------|--------|--------|
E|--------|--------|--------|--------|--------|--------|--------|--------|--------|


E|--------|--------|--------|--------|--------|--------|--------|--------|--------|
B|--------|--------|--------|--------|--------|--------|--------|--------|--------|
G|--------|--------|--------|--------|--------|--------|--------|--------|--------|
D|--------|--------|--------|--------|--------|--------|--------|--------|--------|
A|--------|--------|--------|--------|--------|--------|--------|--------|--------|
E|--------|--------|--------|--------|--------|--------|--------|--------|--------|


E|--------|--------|--------|--------|--------|--------|--------|--------|--------|
B|--------|--------|--------|--------|--------|--------|--------|--------|--------|
G|--------|--------|--------|--------|--------|--------|--------|--------|--------|
D|--------|--------|--------|--------|--------|--------|--------|--------|--------|
A|--------|--------|--------|--------|--------|--------|--------|--------|--------|
E|--------|--------|--------|--------|--------|--------|--------|--------|--------|


E|--------|--------|--------|--------|--------|--------|--------|--------|--------|
B|--------|--------|--------|--------|--------|--------|--------|--------|--------|
G|--------|--------|--------|--------|--------|--------|--------|--------|--------|
D|--------|--------|--------|--------|--------|--------|--------|--------|--------|
A|--------|--------|--------|--------|--------|--------|--------|--------|--------|
E|--------|--------|--------|--------|--------|--------|--------|--------|--------|


E|--------|--------|--------|--------|--------|--------|--------|--------|--------|
B|--------|--------|--------|--------|--------|--------|--------|--------|--------|
G|--------|--------|--------|--------|--------|--------|--------|--------|--------|
D|--------|--------|--------|--------|--------|--------|--------|--------|--------|
A|--------|--------|--------|--------|--------|--------|--------|--------|--------|
E|--------|--------|--------|--------|--------|--------|--------|--------|--------|


E|--------|--------|--------|--------|--------|--------|--------|--------|--------|
B|--------|--------|--------|--------|--------|--------|--------|--------|--------|
G|--------|--------|--------|--------|--------|--------|--------|--------|--------|
D|--------|--------|--------|--------|--------|--------|--------|--------|--------|
A|--------|--------|--------|--------|--------|--------|--------|--------|--------|
E|--------|--------|--------|--------|--------|--------|--------|--------|--------|


E|--------|--------|--------|--------|--------|--------|--------|--------|--------|
B|--------|--------|--------|--------|--------|--------|--------|--------|--------|
G|--------|--------|--------|--------|--------|--------|--------|--------|--------|
D|--------|--------|--------|--------|--------|--------|--------|--------|--------|
A|--------|--------|--------|--------|--------|--------|--------|--------|--------|
E|--------|--------|--------|--------|--------|--------|--------|--------|--------|


E|--------|--------|--------|--------|--------|--------|--------|--------|--------|
B|--------|--------|--------|--------|--------|--------|--------|--------|--------|
G|--------|--------|--------|--------|--------|--------|--------|--------|--------|
D|--------|--------|--------|--------|--------|--------|--------|--------|--------|
A|--------|--------|--------|--------|--------|--------|--------|--------|--------|
E|--------|--------|--------|--------|--------|--------|--------|--------|--------|


E|--------|--------|--------|--------|--------|--------|--------|--------|--------|
B|--------|--------|--------|--------|--------|--------|--------|--------|--------|
G|--------|--------|--------|--------|--------|--------|--------|--------|--------|
D|--------|--------|--------|--------|--------|--------|--------|--------|--------|
A|--------|--------|--------|--------|--------|--------|--------|--------|--------|
E|--------|--------|--------|--------|--------|--------|--------|--------|--------|


E|-3------|-3-----3-----|--------|----------------------|-3------|-3-----3-----|--------|
B|-3------|-3-----3-----|-5------|-5----5---------------|-3------|-3-----3-----|-5------|
G|-0------|-0-----0-----|-4------|-4----4---------------|-0------|-0-----0-----|-4------|
D|-0------|-0-----0-----|-2------|-2----2---------------|-0------|-0-----0-----|-2------|
A|-2------|-2-----2-----|--------|----------------------|-2------|-2-----2-----|--------|
E|-3------|-3-----3-----|-0------|-0----0---------------|-3------|-3-----3-----|-0------|


E|----------------------|-2------|-2----2---------3-----|-0------|-0-----0---------|
B|-5----5---------------|-3------|-3----3---------5-----|-1------|-1-----1---------|
G|-4----4---------------|-2------|-2----2---------4-----|-0------|-0-----0---------|
D|-2----2---------------|-0------|-0----0---------------|-2------|-2-----2---------|
A|----------------------|--------|----------------------|-3------|-3-----3---------|
E|-0----0---------------|--------|----------------------|--------|-----------------|


E|-2------|-2----2---------3-----|-0------|-0-------------------------|--------|-----------------|
B|-3------|-3----3---------5-----|-1------|-1-------------------------|--------|-----------------|
G|-2------|-2----2---------4-----|-0------|-0-----4---2-----2---------|--------|-----------------|
D|-0------|-0----0---------------|-2------|-2-----4---2-----2---5-----|-2------|-2---------------|
A|--------|----------------------|-3------|-3-----2---0-----0---5-----|-2------|-2---------------|
E|--------|----------------------|--------|---------------------3-----|-0------|-0---------------|


E|--------|--------|--------|--------|--------|--------|--------|--------|--------|
B|--------|--------|--------|--------|--------|--------|--------|--------|--------|
G|--------|--------|--------|--------|--------|--------|--------|--------|--------|
D|--------|--------|--------|--------|--------|--------|--------|--------|--------|
A|--------|--------|--------|--------|--------|--------|--------|--------|--------|
E|--------|--------|--------|--------|--------|--------|--------|--------|--------|


E|--------|--------|--------|--------|--------|---------------------------------|---------------------------------|
B|--------|--------|--------|--------|--------|-------------5---5-----------5---|-------------3---3---5---3-------|
G|--------|--------|--------|--------|--------|---------0-----------4-------4---|-----0---4-------------------4---|
D|--------|--------|--------|--------|--------|-----2-------------------5-------|-2-------------------------------|
A|--------|--------|--------|--------|--------|-2-------------------------------|---------------------------------|
E|--------|--------|--------|--------|--------|---------------------------------|---------------------------------|


E|---------------------------------|---------------------------------|---------------------------------|
B|-------------3---3-----------3---|-------------3---3---5-----------|-------------5---5-----------5---|
G|---------4-----------4-----------|---------4---------------4-------|---------------------4-------4---|
D|-4---5-------------------5-------|-4---5-----------------------5---|---------5---------------5-------|
A|---------------------------------|---------------------------------|-----7---------------------------|
E|---------------------------------|---------------------------------|-7-------------------------------|


E|---------------------------------|---------------------------------|---------------------------------|
B|-------------3---3---5---3-------|-------------3---3-----------5---|-----------------5---------------|
G|-----0---4-------------------4---|---------4-----------4-----------|-4-------4-----------4-----------|
D|-2-------------------------------|-4---5-------------------5-------|-----5-------5---------------2---|
A|---------------------------------|---------------------------------|-------------------------2-------|
E|---------------------------------|---------------------------------|---------------------------------|


E|-0------|
B|-3------|
G|-4------|
D|--------|
A|--------|
E|--------|





Track 3: Strings

E|--------|--------|--------|--------|--------|--------|--------|--------|--------|
B|--------|--------|--------|--------|--------|--------|--------|--------|--------|
G|--------|--------|--------|--------|--------|--------|--------|--------|--------|
D|--------|--------|--------|--------|--------|--------|--------|--------|--------|
A|--------|--------|--------|--------|--------|--------|--------|--------|--------|
E|--------|--------|--------|--------|--------|--------|--------|--------|--------|


E|--------|--------|--------|--------|--------|--------|--------|--------|--------|
B|--------|--------|--------|--------|--------|--------|--------|--------|--------|
G|--------|--------|--------|--------|--------|--------|--------|--------|--------|
D|--------|--------|--------|--------|--------|--------|--------|--------|--------|
A|--------|--------|--------|--------|--------|--------|--------|--------|--------|
E|--------|--------|--------|--------|--------|--------|--------|--------|--------|


E|--------|--------|--------|-15-----|-14----15----|--------|--------|-19-----|-17----19----|
B|--------|--------|--------|--------|-------------|-17-----|-17-----|--------|-------------|
G|--------|--------|--------|-12-----|-11----12----|--------|--------|-16-----|-14----16----|
D|--------|--------|--------|--------|-------------|-14-----|-14-----|--------|-------------|
A|--------|--------|--------|--------|-------------|--------|--------|--------|-------------|
E|--------|--------|--------|--------|-------------|--------|--------|--------|-------------|


E|--------|--------------------|--------|-----------------|--------|--------|--------|
B|-17-----|-17----17--19--19---|-20-----|-20--------------|--------|--------|--------|
G|--------|--------------------|--------|-----------------|--------|--------|--------|
D|-14-----|-14----14--16--16---|-17-----|-17--------------|--------|--------|--------|
A|--------|--------------------|--------|-----------------|--------|--------|--------|
E|--------|--------------------|--------|-----------------|--------|--------|--------|


E|--------|--------|--------|--------|--------|--------|--------|--------|--------|
B|--------|--------|--------|--------|--------|--------|--------|--------|--------|
G|--------|--------|--------|--------|--------|--------|--------|--------|--------|
D|--------|--------|--------|--------|--------|--------|--------|--------|--------|
A|--------|--------|--------|--------|--------|--------|--------|--------|--------|
E|--------|--------|--------|--------|--------|--------|--------|--------|--------|


E|--------|--------|--------|-------------|--------|--------|--------|-------------|
B|--------|--------|-20-----|-19----20----|--------|--------|-24-----|-22----24----|
G|--------|--------|--------|-------------|-21-----|-21-----|--------|-------------|
D|--------|--------|-17-----|-16----17----|--------|--------|-21-----|-19----21----|
A|--------|--------|--------|-------------|-19-----|-19-----|--------|-------------|
E|--------|--------|--------|-------------|--------|--------|--------|-------------|


E|--------|--------------------|--------|-----------------|--------|--------|--------|
B|--------|--------------------|--------|-----------------|--------|--------|--------|
G|-21-----|-21----21--23--23---|-24-----|-24--------------|--------|--------|--------|
D|--------|--------------------|--------|-----------------|--------|--------|--------|
A|--------|-----------21--21---|-22-----|-22--------------|--------|--------|--------|
E|-24-----|-24----24-----------|--------|-----------------|--------|--------|--------|


E|--------|--------|--------|--------|--------|--------|--------|--------|--------|
B|--------|--------|--------|--------|--------|--------|--------|--------|--------|
G|--------|--------|--------|--------|--------|--------|--------|--------|--------|
D|--------|--------|--------|--------|--------|--------|--------|--------|--------|
A|--------|--------|--------|--------|--------|--------|--------|--------|--------|
E|--------|--------|--------|--------|--------|--------|--------|--------|--------|


E|--------|--------|--------|--------|--------------------|--------|--------|--------|
B|--------|--------|--------|--------|--------------------|--------|--------|--------|
G|--------|--------|-21-----|--------|--------------------|--------|-21-----|-23-----|
D|--------|--------|--------|-24-----|-22--21--21---21----|-21-----|--------|--------|
A|--------|--------|--------|--------|--------------------|--------|-19-----|-21-----|
E|--------|--------|-24-----|-22-----|-20--19--19---19----|-19-----|--------|--------|


E|--------------------|--------|--------|--------|--------------------|--------|--------|
B|--------------------|--------|--------|--------|--------------------|--------|--------|
G|-24-----------------|--------|-21-----|-19-----|--------------------|--------|-21-----|
D|-----21--21---21----|-21-----|--------|--------|-22--21--21---21----|-21-----|--------|
A|-22-----------------|--------|-19-----|--------|--------------------|--------|-19-----|
E|-----19--19---19----|-19-----|--------|-22-----|-20--19--19---19----|-19-----|--------|


E|--------|--------------------|--------|--------|-------------|--------|--------|
B|--------|--------------------|--------|-20-----|-19----20----|--------|--------|
G|-23-----|-24-----------------|--------|--------|-------------|-21-----|-21-----|
D|--------|-----21--21---21----|-21-----|-17-----|-16----17----|--------|--------|
A|-21-----|-22-----------------|--------|--------|-------------|-19-----|-19-----|
E|--------|-----19--19---19----|-19-----|--------|-------------|--------|--------|


E|--------|-------------|--------|--------------------|--------|-----------------|
B|-24-----|-22----24----|--------|--------------------|--------|-----------------|
G|--------|-------------|-21-----|-21----21--23--23---|-24-----|-24--------------|
D|-21-----|-19----21----|--------|--------------------|--------|-----------------|
A|--------|-------------|--------|-----------21--21---|-22-----|-22--------------|
E|--------|-------------|-24-----|-24----24-----------|--------|-----------------|


E|--------|--------|--------|--------|--------|--------|--------|--------|--------------------|
B|--------|--------|--------|--------|--------|--------|--------|--------|--------------------|
G|--------|--------|--------|--------|--------|--------|-21-----|--------|--------------------|
D|--------|--------|--------|--------|--------|--------|--------|-24-----|-22--21--21---21----|
A|--------|--------|--------|--------|--------|--------|--------|--------|--------------------|
E|--------|--------|--------|--------|--------|--------|-24-----|-22-----|-20--19--19---19----|


E|--------|--------|--------|--------------------|--------|--------|-------------|
B|--------|--------|--------|--------------------|--------|-20-----|-19----20----|
G|--------|-21-----|-23-----|-24-----------------|--------|--------|-------------|
D|-21-----|--------|--------|-----21--21---21----|-21-----|-17-----|-16----17----|
A|--------|-19-----|-21-----|-22-----------------|--------|--------|-------------|
E|-19-----|--------|--------|-----19--19---19----|-19-----|--------|-------------|


E|--------|--------|--------|-------------|--------|--------|--------|-------------|
B|--------|--------|-24-----|-22----24----|--------|--------|--------|-------------|
G|-21-----|-21-----|--------|-------------|-21-----|-21-----|-24-----|-23----24----|
D|--------|--------|-21-----|-19----21----|--------|--------|--------|-------------|
A|-19-----|-19-----|--------|-------------|--------|--------|-22-----|-21----22----|
E|--------|--------|--------|-------------|-24-----|-24-----|--------|-------------|


E|--------|--------|--------|-------------|--------|--------|--------|--------|--------|
B|--------|--------|-24-----|-22----24----|--------|--------|--------|--------|--------|
G|-21-----|-21-----|--------|-------------|-21-----|-21-----|--------|--------|--------|
D|--------|--------|-21-----|-19----21----|--------|--------|--------|--------|--------|
A|--------|--------|--------|-------------|--------|--------|--------|--------|--------|
E|-24-----|-24-----|--------|-------------|-24-----|-24-----|--------|--------|--------|


E|--------|--------|--------|--------|--------|--------|--------|--------|--------|
B|--------|--------|--------|--------|--------|--------|--------|--------|--------|
G|--------|--------|--------|--------|--------|--------|--------|--------|--------|
D|--------|--------|--------|--------|--------|--------|--------|--------|--------|
A|--------|--------|--------|--------|--------|--------|--------|--------|--------|
E|--------|--------|--------|--------|--------|--------|--------|--------|--------|


E|--------|--------|--------|--------|--------|--------|--------------------|--------|
B|--------|--------|--------|--------|--------|--------|--------------------|--------|
G|--------|--------|--------|--------|--------|--------|-24----24-----------|--------|
D|--------|--------|--------|--------|--------|--------|--------------------|--------|
A|--------|--------|--------|--------|--------|--------|-22----22-----------|--------|
E|--------|--------|--------|--------|--------|--------|--------------------|--------|


E|--------|--------|--------|--------|--------|--------|--------------------|--------|
B|--------|--------|--------|--------|--------|--------|--------------------|--------|
G|--------|--------|--------|--------|-21-----|--------|--------------------|--------|
D|--------|--------|--------|--------|--------|-24-----|-22--21--21---21----|-21-----|
A|--------|--------|--------|--------|--------|--------|--------------------|--------|
E|--------|--------|--------|--------|-24-----|-22-----|-20--19--19---19----|-19-----|


E|--------|--------|--------------------|--------|--------|--------|--------------------|
B|--------|--------|--------------------|--------|--------|--------|--------------------|
G|-21-----|-23-----|-24-----------------|--------|-21-----|-19-----|--------------------|
D|--------|--------|-----21--21---21----|-21-----|--------|--------|-22--21--21---21----|
A|-19-----|-21-----|-22-----------------|--------|-19-----|--------|--------------------|
E|--------|--------|-----19--19---19----|-19-----|--------|-22-----|-20--19--19---19----|


E|--------|--------|--------|--------------------|--------|-------------|
B|--------|--------|--------|--------------------|--------|-------------|
G|--------|-21-----|-23-----|-24-----------------|--------|-------------|
D|-21-----|--------|--------|-----21--21---21----|-21-----|-21----------|
A|--------|-19-----|-21-----|-22-----------------|--------|-------------|
E|-19-----|--------|--------|-----19--19---19----|-19-----|-19----------|





Track 4: Piano

E|--------|--------|--------|--------|--------|--------|--------|--------|--------|
B|--------|--------|--------|--------|--------|--------|--------|--------|--------|
G|--------|--------|--------|--------|--------|--------|--------|--------|--------|
D|--------|--------|--------|--------|--------|--------|--------|--------|--------|
A|--------|--------|--------|--------|--------|--------|--------|--------|--------|
E|--------|--------|--------|--------|--------|--------|--------|--------|--------|


E|--------|--------|--------|--------|--------|--------|--------|--------|--------|
B|--------|--------|--------|--------|--------|--------|--------|--------|--------|
G|--------|--------|--------|--------|--------|--------|--------|--------|--------|
D|--------|--------|--------|--------|--------|--------|--------|--------|--------|
A|--------|--------|--------|--------|--------|--------|--------|--------|--------|
E|--------|--------|--------|--------|--------|--------|--------|--------|--------|


E|--------|--------|--------|--------|--------|--------|--------|--------|--------|
B|--------|--------|--------|--------|--------|--------|--------|--------|--------|
G|--------|--------|--------|--------|--------|--------|--------|--------|--------|
D|--------|--------|--------|--------|--------|--------|--------|--------|--------|
A|--------|--------|--------|--------|--------|--------|--------|--------|--------|
E|--------|--------|--------|--------|--------|--------|--------|--------|--------|


E|--------|--------|--------|--------|--------|--------|--------|--------|--------|
B|--------|--------|--------|--------|--------|--------|--------|--------|--------|
G|--------|--------|--------|--------|--------|--------|--------|--------|--------|
D|--------|--------|--------|--------|--------|--------|--------|--------|--------|
A|--------|--------|--------|--------|--------|--------|--------|--------|--------|
E|--------|--------|--------|--------|--------|--------|--------|--------|--------|


E|--------|--------|--------|--------|--------|--------|--------|--------|--------|
B|--------|--------|--------|--------|--------|--------|--------|--------|--------|
G|--------|--------|--------|--------|--------|--------|--------|--------|--------|
D|--------|--------|--------|--------|--------|--------|--------|--------|--------|
A|--------|--------|--------|--------|--------|--------|--------|--------|--------|
E|--------|--------|--------|--------|--------|--------|--------|--------|--------|


E|--------|--------|--------|--------|--------|--------|--------|--------|--------|
B|--------|--------|--------|--------|--------|--------|--------|--------|--------|
G|--------|--------|--------|--------|--------|--------|--------|--------|--------|
D|--------|--------|--------|--------|--------|--------|--------|--------|--------|
A|--------|--------|--------|--------|--------|--------|--------|--------|--------|
E|--------|--------|--------|--------|--------|--------|--------|--------|--------|


E|--------|--------|--------|--------|--------|--------|--------|--------|--------|
B|--------|--------|--------|--------|--------|--------|--------|--------|--------|
G|--------|--------|--------|--------|--------|--------|--------|--------|--------|
D|--------|--------|--------|--------|--------|--------|--------|--------|--------|
A|--------|--------|--------|--------|--------|--------|--------|--------|--------|
E|--------|--------|--------|--------|--------|--------|--------|--------|--------|


E|--------|--------|--------|--------|--------|--------|--------|--------|--------|
B|--------|--------|--------|--------|--------|--------|--------|--------|--------|
G|--------|--------|--------|--------|--------|--------|--------|--------|--------|
D|--------|--------|--------|--------|--------|--------|--------|--------|--------|
A|--------|--------|--------|--------|--------|--------|--------|--------|--------|
E|--------|--------|--------|--------|--------|--------|--------|--------|--------|


E|--------|--------|--------|--------|--------|--------|--------|--------|--------|
B|--------|--------|--------|--------|--------|--------|--------|--------|--------|
G|--------|--------|--------|--------|--------|--------|--------|--------|--------|
D|--------|--------|--------|--------|--------|--------|--------|--------|--------|
A|--------|--------|--------|--------|--------|--------|--------|--------|--------|
E|--------|--------|--------|--------|--------|--------|--------|--------|--------|


E|--------|--------|--------|--------|--------|--------|--------|--------|--------|
B|--------|--------|--------|--------|--------|--------|--------|--------|--------|
G|--------|--------|--------|--------|--------|--------|--------|--------|--------|
D|--------|--------|--------|--------|--------|--------|--------|--------|--------|
A|--------|--------|--------|--------|--------|--------|--------|--------|--------|
E|--------|--------|--------|--------|--------|--------|--------|--------|--------|


E|--------|--------|--------|--------|--------|--------|--------|--------|--------|
B|--------|--------|--------|--------|--------|--------|--------|--------|--------|
G|--------|--------|--------|--------|--------|--------|--------|--------|--------|
D|--------|--------|--------|--------|--------|--------|--------|--------|--------|
A|--------|--------|--------|--------|--------|--------|--------|--------|--------|
E|--------|--------|--------|--------|--------|--------|--------|--------|--------|


E|--------|--------|--------|--------|--------|--------|--------|--------|--------|
B|--------|--------|--------|--------|--------|--------|--------|--------|--------|
G|--------|--------|--------|--------|--------|--------|--------|--------|--------|
D|--------|--------|--------|--------|--------|--------|--------|--------|--------|
A|--------|--------|--------|--------|--------|--------|--------|--------|--------|
E|--------|--------|--------|--------|--------|--------|--------|--------|--------|


E|--------|--------|--------|--------|--------|--------|--------|--------|--------|
B|--------|--------|--------|--------|--------|--------|--------|--------|--------|
G|--------|--------|--------|--------|--------|--------|--------|--------|--------|
D|--------|--------|--------|--------|--------|--------|--------|--------|--------|
A|--------|--------|--------|--------|--------|--------|--------|--------|--------|
E|--------|--------|--------|--------|--------|--------|--------|--------|--------|


E|--------|--------|--------|--------|--------|--------|--------|--------|--------|
B|--------|--------|--------|--------|--------|--------|--------|--------|--------|
G|--------|--------|--------|--------|--------|--------|--------|--------|-24-----|
D|--------|--------|--------|--------|--------|--------|--------|--------|--------|
A|--------|--------|--------|--------|--------|--------|--------|--------|-22-----|
E|--------|--------|--------|--------|--------|--------|--------|--------|--------|


E|-----------------|--------------------|--------|--------|-------------|--------|
B|-----------------|--------------------|--------|-20-----|-22----24----|--------|
G|-23----21--21----|--------------------|--------|--------|-------------|-21-----|
D|-----------------|-24--21--21---21----|-21-----|-17-----|-19----21----|--------|
A|-21--------------|--------------------|--------|--------|-------------|--------|
E|-------24--24----|-22--19--19---19----|-19-----|--------|-------------|-24-----|


E|--------|--------|-------------|--------|--------|--------|-------------|--------|
B|--------|--------|-------------|--------|--------|--------|-------------|--------|
G|-21-----|--------|-21----23----|-24-----|-24-----|--------|-21----23----|-24-----|
D|--------|-24-----|-------------|--------|--------|-24-----|-------------|--------|
A|--------|--------|-------21----|-22-----|-22-----|--------|-------21----|-22-----|
E|-24-----|-22-----|-24----------|--------|--------|-22-----|-24----------|--------|


E|--------|--------|--------|--------|--------|--------|--------|--------|--------|
B|--------|--------|--------|--------|--------|--------|--------|--------|--------|
G|-24-----|-24-----|-24-----|--------|--------|--------|--------|--------|--------|
D|--------|--------|--------|--------|--------|--------|--------|--------|--------|
A|-22-----|-22-----|-22-----|--------|--------|--------|--------|--------|--------|
E|--------|--------|--------|--------|--------|--------|--------|--------|--------|


E|--------|--------|--------|--------|--------|--------|--------|--------|--------|
B|--------|--------|--------|--------|--------|--------|--------|--------|--------|
G|--------|--------|--------|--------|--------|--------|--------|--------|--------|
D|--------|--------|--------|--------|--------|--------|--------|--------|--------|
A|--------|--------|--------|--------|--------|--------|--------|--------|--------|
E|--------|--------|--------|--------|--------|--------|--------|--------|--------|


E|--------|--------|--------|--------|--------|--------|--------|--------|
B|--------|--------|--------|--------|--------|--------|--------|--------|
G|--------|--------|--------|--------|--------|--------|--------|--------|
D|--------|--------|--------|--------|--------|--------|--------|--------|
A|--------|--------|--------|--------|--------|--------|--------|--------|
E|--------|--------|--------|--------|--------|--------|--------|--------|





Track 5: Drums

E|----------------0-----|-0---------0---------0-----0-----------0---|-0---------------------0---------------0-----|
B|----------------------|-------------------------------------------|---------------------------------------------|
G|----------------------|-------------------------------------------|---------------------------------------------|
D|----------------------|-------------------------------------------|---------------------------------------------|
A|----------------------|-------------------------------------------|---------------------------------------------|
E|----------------------|-----2---------2-----------------2---------|-----2-----2-----2---------2-----2-----------|


E|-0-----------0---------0-----0-----------0-----|-0---------------------0---------------0---|
B|-----------------------------------------------|-------------------------------------------|
G|-----------------------------------------------|-------------------------------------------|
D|-----------------------------------------------|-------------------------------------------|
A|-----------------------------------------------|-------------------------------------------|
E|-------2---------2-----------------2-----------|-----2-----2-----2---------2-----2---------|


E|-----------0---------0-----0-----------0---|-0---------------------0---------------0-----|
B|-------------------------------------------|---------------------------------------------|
G|-2-----------------------------------------|---------------------------------------------|
D|-------------------------------------------|---------------------------------------------|
A|-4-----------------------------------------|---------------------------------------------|
E|-----2---------2-----------------2---------|-----2-----2-----2---------2-----2-----------|


E|-0-----------0---------0-----0-----------0-----|-0---------------------0---------------0---|
B|-----------------------------------------------|-------------------------------------------|
G|-----------------------------------------------|-------------------------------------------|
D|-----------------------------------------------|-------------------------------------------|
A|-----------------------------------------------|-------------------------------------------|
E|-------2---------2-----------------2-----------|-----2-----2-----2---------2-----2---------|


E|-0-----------0---------0-----0-----------0-----|-0---------------------0---------------0---|
B|-----------------------------------------------|-------------------------------------------|
G|-----------------------------------------------|-------------------------------------------|
D|-----------------------------------------------|-------------------------------------------|
A|-----------------------------------------------|-------------------------------------------|
E|-------2---------2-----------------2-----------|-----2-----2-----2---------2-----2---------|


E|-0-----------0---------0-----0-----------0-----|-0---------------------0---------------0---|
B|-----------------------------------------------|-------------------------------------------|
G|-----------------------------------------------|-------------------------------------------|
D|-----------------------------------------------|-------------------------------------------|
A|-----------------------------------------------|-------------------------------------------|
E|-------2---------2-----------------2-----------|-----2-----2-----2---------2-----2---------|


E|-0-----------0---------0-----0-----------0-----|-0---------------------0---------------0---|
B|-----------------------------------------------|-------------------------------------------|
G|-----------------------------------------------|-------------------------------------------|
D|-----------------------------------------------|-------------------------------------------|
A|-----------------------------------------------|-------------------------------------------|
E|-------2---------2-----------------2-----------|-----2-----2-----2---------2-----2---------|


E|-0-----------0---------0-----0-----------0-----|-0---------------------0---------------0---|
B|-----------------------------------------------|-------------------------------------------|
G|-----------------------------------------------|-------------------------------------------|
D|-----------------------------------------------|-------------------------------------------|
A|-----------------------------------------------|-------------------------------------------|
E|-------2---------2-----------------2-----------|-----2-----2-----2---------2-----2---------|


E|-0-----------0---------0-----0-----------0-----|-0---------------------0---------------0---|
B|-----------------------------------------------|-------------------------------------------|
G|-----------------------------------------------|-------------------------------------------|
D|-----------------------------------------------|-------------------------------------------|
A|-----------------------------------------------|-------------------------------------------|
E|-------2---------2-----------------2-----------|-----2-----2-----2---------2-----2---------|


E|-0-----------0---------0-----0-----------0-----|-0---------------------0---------------0---|
B|-----------------------------------------------|-------------------------------------------|
G|-----------------------------------------------|-------------------------------------------|
D|-----------------------------------------------|-------------------------------------------|
A|-----------------------------------------------|-------------------------------------------|
E|-------2---------2-----------------2-----------|-----2-----2-----2---------2-----2---------|


E|-----------0---------0-----0-----------0---|-0---------------------0---------------0-----|
B|-------------------------------------------|---------------------------------------------|
G|-------------------------------------------|---------------------------------------------|
D|-------------------------------------------|---------------------------------------------|
A|-4-----------------------------------------|---------------------------------------------|
E|-----2---------2-----------------2---------|-----2-----2-----2---------2-----2-----------|


E|-0-----------0---------0-----0-----------0-----|-0---------------------0---------------0---|
B|-----------------------------------------------|-------------------------------------------|
G|-----------------------------------------------|-------------------------------------------|
D|-----------------------------------------------|-------------------------------------------|
A|-----------------------------------------------|-------------------------------------------|
E|-------2---------2-----------------2-----------|-----2-----2-----2---------2-----2---------|


E|-0---------0---------0-----0-----------0---|-0---------------------0---------------0-----|
B|-------------------------------------------|---------------------------------------------|
G|-------------------------------------------|---------------------------------------------|
D|-------------------------------------------|---------------------------------------------|
A|-------------------------------------------|---------------------------------------------|
E|-----2---------2-----------------2---------|-----2-----2-----2---------2-----2-----------|


E|-0-----------0---------0-----0-----------0-----|-0---------------------0---------------0---|
B|-----------------------------------------------|-------------------------------------------|
G|-----------------------------------------------|-------------------------------------------|
D|-----------------------------------------------|-------------------------------------------|
A|-----------------------------------------------|-------------------------------------------|
E|-------2---------2-----------------2-----------|-----2-----2-----2---------2-----2---------|


E|-----------0---------0-----0-----------0---|-0---------------------0---------------0-----|
B|-------------------------------------------|---------------------------------------------|
G|-------------------------------------------|---------------------------------------------|
D|-------------------------------------------|---------------------------------------------|
A|-4-----------------------------------------|---------------------------------------------|
E|-----2---------2-----------------2---------|-----2-----2-----2---------2-----2-----------|


E|-0-----------0---------0-----0-----------0-----|-0---------------------0---------------0---|
B|-----------------------------------------------|-------------------------------------------|
G|-----------------------------------------------|-------------------------------------------|
D|-----------------------------------------------|-------------------------------------------|
A|-----------------------------------------------|-------------------------------------------|
E|-------2---------2-----------------2-----------|-----2-----2-----2---------2-----2---------|


E|-0-----------0---------0-----0-----------0-----|-0---------------------0---------------0---|
B|-----------------------------------------------|-------------------------------------------|
G|-----------------------------------------------|-------------------------------------------|
D|-----------------------------------------------|-------------------------------------------|
A|-----------------------------------------------|-------------------------------------------|
E|-------2---------2-----------------2-----------|-----2-----2-----2---------2-----2---------|


E|-0-----------0---------0-----0-----------0-----|-0---------------------0---------------0---|
B|-----------------------------------------------|-------------------------------------------|
G|-----------------------------------------------|-------------------------------------------|
D|-----------------------------------------------|-------------------------------------------|
A|-----------------------------------------------|-------------------------------------------|
E|-------2---------2-----------------2-----------|-----2-----2-----2---------2-----2---------|


E|-0-----------0---------0-----0-----------0-----|-0---------------------0---------------0---|
B|-----------------------------------------------|-------------------------------------------|
G|-----------------------------------------------|-------------------------------------------|
D|-----------------------------------------------|-------------------------------------------|
A|-----------------------------------------------|-------------------------------------------|
E|-------2---------2-----------------2-----------|-----2-----2-----2---------2-----2---------|


E|-0-----------0---------0-----0-----------0-----|-0---------------------0---------------0---|
B|-----------------------------------------------|-------------------------------------------|
G|-----------------------------------------------|-------------------------------------------|
D|-----------------------------------------------|-------------------------------------------|
A|-----------------------------------------------|-------------------------------------------|
E|-------2---------2-----------------2-----------|-----2-----2-----2---------2-----2---------|


E|-0-----------0---------0-----0-----------0-----|-0---------------------0---------------0---|
B|-----------------------------------------------|-------------------------------------------|
G|-----------------------------------------------|-------------------------------------------|
D|-----------------------------------------------|-------------------------------------------|
A|-----------------------------------------------|-------------------------------------------|
E|-------2---------2-----------------2-----------|-----2-----2-----2---------2-----2---------|


E|-0-----------0---------0-----0-----------0-----|-0---------------------0---------0-----0---|
B|-----------------------------------------------|-------------------------------------------|
G|-----------------------------------------------|-------------------------------------------|
D|-----------------------------------------------|-------------------------------------------|
A|-----------------------------------------------|-------------------------------------------|
E|-------2---------2-----------------2-----------|-----2-----2-----2---------2---------------|


E|-----------0---------0-----0-----------0---|-0---------------------0---------------0-----|
B|-------------------------------------------|---------------------------------------------|
G|-------------------------------------------|---------------------------------------------|
D|-------------------------------------------|---------------------------------------------|
A|-4-----------------------------------------|---------------------------------------------|
E|-----2---------2-----------------2---------|-----2-----2-----2---------2-----2-----------|


E|-0-----------0---------0-----0-----------0-----|-0---------------------0---------------0---|
B|-----------------------------------------------|-------------------------------------------|
G|-----------------------------------------------|-------------------------------------------|
D|-----------------------------------------------|-------------------------------------------|
A|-----------------------------------------------|-------------------------------------------|
E|-------2---------2-----------------2-----------|-----2-----2-----2---------2-----2---------|


E|-0---------0---------0-----0-----------0---|-0---------------------0---------------0-----|
B|-------------------------------------------|---------------------------------------------|
G|-------------------------------------------|---------------------------------------------|
D|-------------------------------------------|---------------------------------------------|
A|-------------------------------------------|---------------------------------------------|
E|-----2---------2-----------------2---------|-----2-----2-----2---------2-----2-----------|


E|-0-----------0---------0-----0-----------0-----|-0---------------------0---------0-----0---|
B|-----------------------------------------------|-------------------------------------------|
G|-----------------------------------------------|-------------------------------------------|
D|-----------------------------------------------|-------------------------------------------|
A|-----------------------------------------------|-------------------------------------------|
E|-------2---------2-----------------2-----------|-----2-----2-----2---------2---------------|


E|-----------0---------0-----0-----------0---|-0---------------------0---------------0-----|
B|-------------------------------------------|---------------------------------------------|
G|-------------------------------------------|---------------------------------------------|
D|-------------------------------------------|---------------------------------------------|
A|-4-----------------------------------------|---------------------------------------------|
E|-----2---------2-----------------2---------|-----2-----2-----2---------2-----2-----------|


E|-0-----------0---------0-----0-----------0-----|-0---------------------0---------------0---|
B|-----------------------------------------------|-------------------------------------------|
G|-----------------------------------------------|-------------------------------------------|
D|-----------------------------------------------|-------------------------------------------|
A|-----------------------------------------------|-------------------------------------------|
E|-------2---------2-----------------2-----------|-----2-----2-----2---------2-----2---------|


E|-0-----------0---------0-----0-----------0-----|-0---------------------0---------------0---|
B|-----------------------------------------------|-------------------------------------------|
G|-----------------------------------------------|-------------------------------------------|
D|-----------------------------------------------|-------------------------------------------|
A|-----------------------------------------------|-------------------------------------------|
E|-------2---------2-----------------2-----------|-----2-----2-----2---------2-----2---------|


E|-0-----------0---------0-----0-----------0-----|-0---------------------0---------------0---|
B|-----------------------------------------------|-------------------------------------------|
G|-----------------------------------------------|-------------------------------------------|
D|-----------------------------------------------|-------------------------------------------|
A|-----------------------------------------------|-------------------------------------------|
E|-------2---------2-----------------2-----------|-----2-----2-----2---------2-----2---------|


E|-0-----------0---------0-----0-----------0-----|-0---------------------0---------------0---|
B|-----------------------------------------------|-------------------------------------------|
G|-----------------------------------------------|-------------------------------------------|
D|-----------------------------------------------|-------------------------------------------|
A|-----------------------------------------------|-------------------------------------------|
E|-------2---------2-----------------2-----------|-----2-----2-----2---------2-----2---------|


E|-0-----------0---------0-----0-----------0-----|-0---------------------0---------------0---|
B|-----------------------------------------------|-------------------------------------------|
G|-----------------------------------------------|-------------------------------------------|
D|-----------------------------------------------|-------------------------------------------|
A|-----------------------------------------------|-------------------------------------------|
E|-------2---------2-----------------2-----------|-----2-----2-----2---------2-----2---------|


E|-0-----------0---------0-----0-----------0-----|-0---------------------0---------------0---|
B|-----------------------------------------------|-------------------------------------------|
G|-----------------------------------------------|-------------------------------------------|
D|-----------------------------------------------|-------------------------------------------|
A|-----------------------------------------------|-------------------------------------------|
E|-------2---------2-----------------2-----------|-----2-----2-----2---------2-----2---------|


E|-0-----------0---------0-----0-----------0-----|-0---------------------0---0-----0-----0---|
B|-----------------------------------------------|-------------------------------------------|
G|-----------------------------------------------|-------------------------------------------|
D|-----------------------------------------------|-------------------------------------------|
A|-----------------------------------------------|-------------------------------------------|
E|-------2---------2-----------------2-----------|-----2-----2-----2-------------------------|


E|-----------0---------0-----0-----------0---|-0---------------------0---------------0-----|
B|-------------------------------------------|---------------------------------------------|
G|-------------------------------------------|---------------------------------------------|
D|-------------------------------------------|---------------------------------------------|
A|-4-----------------------------------------|---------------------------------------------|
E|-----2---------2-----------------2---------|-----2-----2-----2---------2-----2-----------|


E|-0-----------0---------0-----0-----------0-----|-0---------------------0---------------0---|
B|-----------------------------------------------|-------------------------------------------|
G|-----------------------------------------------|-------------------------------------------|
D|-----------------------------------------------|-------------------------------------------|
A|-----------------------------------------------|-------------------------------------------|
E|-------2---------2-----------------2-----------|-----2-----2-----2---------2-----2---------|


E|-0-----------0---------0-----0-----------0-----|-0---------------------0---------------0---|
B|-----------------------------------------------|-------------------------------------------|
G|-----------------------------------------------|-------------------------------------------|
D|-----------------------------------------------|-------------------------------------------|
A|-----------------------------------------------|-------------------------------------------|
E|-------2---------2-----------------2-----------|-----2-----2-----2---------2-----2---------|


E|-0-----------0---------0-----0-----------0-----|-0---------------------0---------------0---|
B|-----------------------------------------------|-------------------------------------------|
G|-----------------------------------------------|-------------------------------------------|
D|-----------------------------------------------|-------------------------------------------|
A|-----------------------------------------------|-------------------------------------------|
E|-------2---------2-----------------2-----------|-----2-----2-----2---------2-----2---------|


E|-0-----------0---------0-----0-----------0-----|-0---------------------0---------------0---|
B|-----------------------------------------------|-------------------------------------------|
G|-----------------------------------------------|-------------------------------------------|
D|-----------------------------------------------|-------------------------------------------|
A|-----------------------------------------------|-------------------------------------------|
E|-------2---------2-----------------2-----------|-----2-----2-----2---------2-----2---------|


E|-0-----------0---------0-----0-----------0-----|-0---------------------0---------------0---|
B|-----------------------------------------------|-------------------------------------------|
G|-----------------------------------------------|-------------------------------------------|
D|-----------------------------------------------|-------------------------------------------|
A|-----------------------------------------------|-------------------------------------------|
E|-------2---------2-----------------2-----------|-----2-----2-----2---------2-----2---------|


E|-0-----------0---------0-----0-----------0-----|-0---------------------0---------------0---|
B|-----------------------------------------------|-------------------------------------------|
G|-----------------------------------------------|-------------------------------------------|
D|-----------------------------------------------|-------------------------------------------|
A|-----------------------------------------------|-------------------------------------------|
E|-------2---------2-----------------2-----------|-----2-----2-----2---------2-----2---------|


E|-0-----------0---------0-----0-----------0-----|-0---------------------0---------0-----0---|
B|-----------------------------------------------|-------------------------------------------|
G|-----------------------------------------------|-------------------------------------------|
D|-----------------------------------------------|-------------------------------------------|
A|-----------------------------------------------|-------------------------------------------|
E|-------2---------2-----------------2-----------|-----2-----2-----2---------2---------------|


E|-----------0---------0-----0-----------0---|-0---------------------0---------------0-----|
B|-------------------------------------------|---------------------------------------------|
G|-------------------------------------------|---------------------------------------------|
D|-------------------------------------------|---------------------------------------------|
A|-4-----------------------------------------|---------------------------------------------|
E|-----2---------2-----------------2---------|-----2-----2-----2---------2-----2-----------|


E|-0-----------0---------0-----0-----------0-----|-0---------------------0---------------0---|
B|-----------------------------------------------|-------------------------------------------|
G|-----------------------------------------------|-------------------------------------------|
D|-----------------------------------------------|-------------------------------------------|
A|-----------------------------------------------|-------------------------------------------|
E|-------2---------2-----------------2-----------|-----2-----2-----2---------2-----2---------|


E|-0---------0---------0-----0-----------0---|-0---------------------0---------------0-----|
B|-------------------------------------------|---------------------------------------------|
G|-------------------------------------------|---------------------------------------------|
D|-------------------------------------------|---------------------------------------------|
A|-------------------------------------------|---------------------------------------------|
E|-----2---------2-----------------2---------|-----2-----2-----2---------2-----2-----------|


E|-0-----------0---------0-----0-----------0-----|-0---------------------0---0-----0-----0---|
B|-----------------------------------------------|-------------------------------------------|
G|-----------------------------------------------|-------------------------------------------|
D|-----------------------------------------------|-------------------------------------------|
A|-----------------------------------------------|-------------------------------------------|
E|-------2---------2-----------------2-----------|-----2-----2-----2-------------------------|


E|-----------0---------0-----0-----------0---|-0---------------------0---------------0-----|
B|-------------------------------------------|---------------------------------------------|
G|-------------------------------------------|---------------------------------------------|
D|-------------------------------------------|---------------------------------------------|
A|-4-----------------------------------------|---------------------------------------------|
E|-----2---------2-----------------2---------|-----2-----2-----2---------2-----2-----------|


E|-0-----------0---------0-----0-----------0-----|-0---------------------0---------------0---|
B|-----------------------------------------------|-------------------------------------------|
G|-----------------------------------------------|-------------------------------------------|
D|-----------------------------------------------|-------------------------------------------|
A|-----------------------------------------------|-------------------------------------------|
E|-------2---------2-----------------2-----------|-----2-----2-----2---------2-----2---------|


E|-0-----------0---------0-----0-----------0-----|-0---------------------0---------------0---|
B|-----------------------------------------------|-------------------------------------------|
G|-----------------------------------------------|-------------------------------------------|
D|-----------------------------------------------|-------------------------------------------|
A|-----------------------------------------------|-------------------------------------------|
E|-------2---------2-----------------2-----------|-----2-----2-----2---------2-----2---------|


E|-0-----------0---------0-----0-----------0-----|-0---------------------0---------------0---|
B|-----------------------------------------------|-------------------------------------------|
G|-----------------------------------------------|-------------------------------------------|
D|-----------------------------------------------|-------------------------------------------|
A|-----------------------------------------------|-------------------------------------------|
E|-------2---------2-----------------2-----------|-----2-----2-----2---------2-----2---------|


E|-0---------0---------0-----0-----------0---|-0---------------------0---------------0-----|
B|-------------------------------------------|---------------------------------------------|
G|-------------------------------------------|---------------------------------------------|
D|-------------------------------------------|---------------------------------------------|
A|-------------------------------------------|---------------------------------------------|
E|-----2---------2-----------------2---------|-----2-----2-----2---------2-----2-----------|


E|-0---------0---------0-----0-----------0---|-0---------------------0---------------0-----|
B|-------------------------------------------|---------------------------------------------|
G|-------------------------------------------|---------------------------------------------|
D|-------------------------------------------|---------------------------------------------|
A|-------------------------------------------|---------------------------------------------|
E|-----2---------2-----------------2---------|-----2-----2-----2---------2-----2-----------|


E|-0---------0---------0-----0-----------0---|-0---------------------0---------------0-----|
B|-------------------------------------------|---------------------------------------------|
G|-------------------------------------------|---------------------------------------------|
D|-------------------------------------------|---------------------------------------------|
A|-------------------------------------------|---------------------------------------------|
E|-----2---------2-----------------2---------|-----2-----2-----2---------2-----2-----------|


E|-0-----------0---------0-----0-----------0-----|-0---------------------0---------0-----0---|
B|-----------------------------------------------|-------------------------------------------|
G|-----------------------------------------------|-------------------------------------------|
D|-----------------------------------------------|-------------------------------------------|
A|-----------------------------------------------|-------------------------------------------|
E|-------2---------2-----------------2-----------|-----2-----2-----2---------2---------------|


E|-----------0---------0-----0-----------0---|-0---------------------0---------------0-----|
B|-------------------------------------------|---------------------------------------------|
G|-------------------------------------------|---------------------------------------------|
D|-------------------------------------------|---------------------------------------------|
A|-4-----------------------------------------|---------------------------------------------|
E|-----2---------2-----------------2---------|-----2-----2-----2---------2-----2-----------|


E|-0-----------0---------0-----0-----------0-----|-0---------------------0---------------0---|
B|-----------------------------------------------|-------------------------------------------|
G|-----------------------------------------------|-------------------------------------------|
D|-----------------------------------------------|-------------------------------------------|
A|-----------------------------------------------|-------------------------------------------|
E|-------2---------2-----------------2-----------|-----2-----2-----2---------2-----2---------|


E|-0---------0---------0-----0-----------0---|-0---------------------0---------------0-----|
B|-------------------------------------------|---------------------------------------------|
G|-------------------------------------------|---------------------------------------------|
D|-------------------------------------------|---------------------------------------------|
A|-------------------------------------------|---------------------------------------------|
E|-----2---------2-----------------2---------|-----2-----2-----2---------2-----2-----------|


E|-0-----------0---------0-----0-----------0-----|-0---------------------0---------0-----0---|
B|-----------------------------------------------|-------------------------------------------|
G|-----------------------------------------------|-------------------------------------------|
D|-----------------------------------------------|-------------------------------------------|
A|-----------------------------------------------|-------------------------------------------|
E|-------2---------2-----------------2-----------|-----2-----2-----2---------2---------------|


E|-----------0---------0-----0-----------0---|-0---------------------0---------------0-----|
B|-------------------------------------------|---------------------------------------------|
G|-------------------------------------------|---------------------------------------------|
D|-------------------------------------------|---------------------------------------------|
A|-4-----------------------------------------|---------------------------------------------|
E|-----2---------2-----------------2---------|-----2-----2-----2---------2-----2-----------|


E|-0-----------0---------0-----0-----------0-----|-0---------------------0---------------0---|
B|-----------------------------------------------|-------------------------------------------|
G|-----------------------------------------------|-------------------------------------------|
D|-----------------------------------------------|-------------------------------------------|
A|-----------------------------------------------|-------------------------------------------|
E|-------2---------2-----------------2-----------|-----2-----2-----2---------2-----2---------|


E|-0---------0---------0-----0-----------0---|-0---------------------0---------------0-----|
B|-------------------------------------------|---------------------------------------------|
G|-------------------------------------------|---------------------------------------------|
D|-------------------------------------------|---------------------------------------------|
A|-------------------------------------------|---------------------------------------------|
E|-----2---------2-----------------2---------|-----2-----2-----2---------2-----2-----------|


E|-0-----------0---------0-----0-----------0-----|-0---------------------0---------0-----0---|
B|-----------------------------------------------|-------------------------------------------|
G|-----------------------------------------------|-------------------------------------------|
D|-----------------------------------------------|-------------------------------------------|
A|-----------------------------------------------|-------------------------------------------|
E|-------2---------2-----------------2-----------|-----2-----2-----2---------2---------------|


E|-----------0---------0-----0-----------0---|-0---------------------0---------------0-----|
B|-------------------------------------------|---------------------------------------------|
G|-------------------------------------------|---------------------------------------------|
D|-------------------------------------------|---------------------------------------------|
A|-4-----------------------------------------|---------------------------------------------|
E|-----2---------2-----------------2---------|-----2-----2-----2---------2-----2-----------|


E|-0-----------0---------0-----0-----------0-----|-0---------------------0---------------0---|
B|-----------------------------------------------|-------------------------------------------|
G|-----------------------------------------------|-------------------------------------------|
D|-----------------------------------------------|-------------------------------------------|
A|-----------------------------------------------|-------------------------------------------|
E|-------2---------2-----------------2-----------|-----2-----2-----2---------2-----2---------|


E|-0---------0---------0-----0-----------0---|-0---------------------0---------------0-----|
B|-------------------------------------------|---------------------------------------------|
G|-------------------------------------------|---------------------------------------------|
D|-------------------------------------------|---------------------------------------------|
A|-------------------------------------------|---------------------------------------------|
E|-----2---------2-----------------2---------|-----2-----2-----2---------2-----2-----------|


E|-0-----------0---------0-----0-----------0-----|-0---------------------0---------0-----0---|
B|-----------------------------------------------|-------------------------------------------|
G|-----------------------------------------------|-------------------------------------------|
D|-----------------------------------------------|-------------------------------------------|
A|-----------------------------------------------|-------------------------------------------|
E|-------2---------2-----------------2-----------|-----2-----2-----2---------2---------------|


E|-----------0---------0-----0-----------0---|-0---------------------0---------------0-----|
B|-------------------------------------------|---------------------------------------------|
G|-------------------------------------------|---------------------------------------------|
D|-------------------------------------------|---------------------------------------------|
A|-4-----------------------------------------|---------------------------------------------|
E|-----2---------2-----------------2---------|-----2-----2-----2---------2-----2-----------|


E|-0-----------0---------0-----0-----------0-----|-0---------------------0---------------0---|
B|-----------------------------------------------|-------------------------------------------|
G|-----------------------------------------------|-------------------------------------------|
D|-----------------------------------------------|-------------------------------------------|
A|-----------------------------------------------|-------------------------------------------|
E|-------2---------2-----------------2-----------|-----2-----2-----2---------2-----2---------|


E|-0---------0---------0-----0-----------0---|-0---------------------0---------------0-----|
B|-------------------------------------------|---------------------------------------------|
G|-------------------------------------------|---------------------------------------------|
D|-------------------------------------------|---------------------------------------------|
A|-------------------------------------------|---------------------------------------------|
E|-----2---------2-----------------2---------|-----2-----2-----2---------2-----2-----------|


E|-0-----------0---------0-----0-----------0-----|-0---------------------0---------0-----0---|
B|-----------------------------------------------|-------------------------------------------|
G|-----------------------------------------------|-------------------------------------------|
D|-----------------------------------------------|-------------------------------------------|
A|-----------------------------------------------|-------------------------------------------|
E|-------2---------2-----------------2-----------|-----2-----2-----2---------2---------------|


E|-----------0---------0-----0-----------0---|-0---------------------0---------------0-----|
B|-------------------------------------------|---------------------------------------------|
G|-------------------------------------------|---------------------------------------------|
D|-------------------------------------------|---------------------------------------------|
A|-4-----------------------------------------|---------------------------------------------|
E|-----2---------2-----------------2---------|-----2-----2-----2---------2-----2-----------|


E|-0-----------0---------0-----0-----------0-----|-0---------------------0---------------0---|
B|-----------------------------------------------|-------------------------------------------|
G|-----------------------------------------------|-------------------------------------------|
D|-----------------------------------------------|-------------------------------------------|
A|-----------------------------------------------|-------------------------------------------|
E|-------2---------2-----------------2-----------|-----2-----2-----2---------2-----2---------|


E|-0-----------0---------0-----0-----------0-----|-0---------------------0---------------0---|
B|-----------------------------------------------|-------------------------------------------|
G|-----------------------------------------------|-------------------------------------------|
D|-----------------------------------------------|-------------------------------------------|
A|-----------------------------------------------|-------------------------------------------|
E|-------2---------2-----------------2-----------|-----2-----2-----2---------2-----2---------|


E|-0-----------0---------0-----0-----------0-----|-0---------------------0---------------0---|
B|-----------------------------------------------|-------------------------------------------|
G|-----------------------------------------------|-------------------------------------------|
D|-----------------------------------------------|-------------------------------------------|
A|-----------------------------------------------|-------------------------------------------|
E|-------2---------2-----------------2-----------|-----2-----2-----2---------2-----2---------|


E|-0---------0---------0-----0-----------0---|-0---------------------0---------------0-----|
B|-------------------------------------------|---------------------------------------------|
G|-------------------------------------------|---------------------------------------------|
D|-------------------------------------------|---------------------------------------------|
A|-------------------------------------------|---------------------------------------------|
E|-----2---------2-----------------2---------|-----2-----2-----2---------2-----2-----------|


E|-0---------0---------0-----0-----------0---|-0---------------------0---------------0-----|
B|-------------------------------------------|---------------------------------------------|
G|-------------------------------------------|---------------------------------------------|
D|-------------------------------------------|---------------------------------------------|
A|-------------------------------------------|---------------------------------------------|
E|-----2---------2-----------------2---------|-----2-----2-----2---------2-----2-----------|


E|-0---------0---------0-----0-----------0---|-0---------------------0---------------0-----|
B|-------------------------------------------|---------------------------------------------|
G|-------------------------------------------|---------------------------------------------|
D|-------------------------------------------|---------------------------------------------|
A|-------------------------------------------|---------------------------------------------|
E|-----2---------2-----------------2---------|-----2-----2-----2---------2-----2-----------|


E|-0---------0---------0-----0-----------0---|-0---------------------0---------------0-----|
B|-------------------------------------------|---------------------------------------------|
G|-------------------------------------------|---------------------------------------------|
D|-------------------------------------------|---------------------------------------------|
A|-------------------------------------------|---------------------------------------------|
E|-----2---------2-----------------2---------|-----2-----2-----2---------2-----2-----------|


E|-0---------0---------0-----0-----------0---|-0---------------------0---------------0-----|
B|-------------------------------------------|---------------------------------------------|
G|-------------------------------------------|---------------------------------------------|
D|-------------------------------------------|---------------------------------------------|
A|-------------------------------------------|---------------------------------------------|
E|-----2---------2-----------------2---------|-----2-----2-----2---------2-----2-----------|


E|-0---------0---------0-----0-----------0---|-0---------------------0---------------0-----|
B|-------------------------------------------|---------------------------------------------|
G|-------------------------------------------|---------------------------------------------|
D|-------------------------------------------|---------------------------------------------|
A|-------------------------------------------|---------------------------------------------|
E|-----2---------2-----------------2---------|-----2-----2-----2---------2-----2-----------|


E|-0---------0---------0-----0-----------0---|-0---------------------0---------------0-----|
B|-------------------------------------------|---------------------------------------------|
G|-------------------------------------------|---------------------------------------------|
D|-------------------------------------------|---------------------------------------------|
A|-------------------------------------------|---------------------------------------------|
E|-----2---------2-----------------2---------|-----2-----2-----2---------2-----2-----------|


E|-0-----------0---------0-----0-----------0-----|-0---------------------0---------0-----0---|
B|-----------------------------------------------|-------------------------------------------|
G|-----------------------------------------------|-------------------------------------------|
D|-----------------------------------------------|-------------------------------------------|
A|-----------------------------------------------|-------------------------------------------|
E|-------2---------2-----------------2-----------|-----2-----2-----2---------2---------------|


E|--------|
B|--------|
G|--------|
D|--------|
A|-4------|
E|--------|





Track 6: Bass

G|--------|--------|--------|--------|--------------------|--------------------------------|
D|--------|--------|--------|--------|--------------------|------5---5---4---4-------------|
A|--------|--------|--------|--------|--------------------|----------------------5-----5---|
E|--------|--------|--------|--------|----------------3---|-0------------------------------|


G|------------------------|--------------------------------|------------------------|
D|------------------------|------5---5---4---4-------------|------------------------|
A|-7--------7---7---------|----------------------5-----5---|-7--------7---7---------|
E|--------------------3---|-0------------------------------|--------------------3---|


G|--------------------------------|------------------------|--------------------------------|
D|------5---5---4---4-------------|------------------------|------5---5---4---4-------------|
A|----------------------5-----5---|-7--------7---7---------|----------------------5-----5---|
E|-0------------------------------|--------------------3---|-0------------------------------|


G|------------------------|--------------------------------|------------------------|
D|------------------------|------5---5---4---4-------------|------------------------|
A|-7--------7---7---------|----------------------5-----5---|-7--------7---7---------|
E|--------------------3---|-0------------------------------|--------------------3---|


G|--------------------------------|------------------------|--------------------------------|
D|------5---5---4---4-------------|------------------------|------5---5---4---4-------------|
A|----------------------5-----5---|-7--------7---7---------|----------------------5-----5---|
E|-0------------------------------|--------------------3---|-0------------------------------|


G|------------------------|--------------------------------|---------------------------------|
D|------------------------|------5---5---4---4---5-----5---|-7---7---5---7---7---5-----------|
A|-7--------7---7---------|--------------------------------|-------------------------7---5---|
E|--------------------3---|-0------------------------------|---------------------------------|


G|------------------------------|------------------------------|------2---2---0---0---2---2---|
D|------2---2---0---0---2---2---|------2---2---0---0---2---2---|------------------------------|
A|-3----------------------------|-3----------------------------|-0----------------------------|
E|------------------------------|------------------------------|------------------------------|


G|------2---2---0---0---2---2---|------------------------------|------------------------------|
D|------------------------------|------2---2---0---0---2---2---|------2---2---0---0---2---2---|
A|-0----------------------------|-3----------------------------|-3----------------------------|
E|------------------------------|------------------------------|------------------------------|


G|------2---2---0---0---2---2---|------2---2---0---0---2-------|--------------------------------|
D|------------------------------|------------------------------|------5---5---4---4-------------|
A|-0----------------------------|-0----------------------------|----------------------5-----5---|
E|------------------------------|--------------------------3---|-0------------------------------|


G|------------------------|--------------------------------|------------------------|
D|------------------------|------5---5---4---4-------------|------------------------|
A|-7--------7---7---------|----------------------5-----5---|-7--------7---7---------|
E|--------------------3---|-0------------------------------|--------------------3---|


G|--------------------------------|------------------------|--------------------------------|
D|------5---5---4---4-------------|------------------------|------5---5---4---4-------------|
A|----------------------5-----5---|-7--------7---7---------|----------------------5-----5---|
E|-0------------------------------|--------------------3---|-0------------------------------|


G|------------------------|--------------------------------|------------------------|
D|------------------------|------5---5---4---4-------------|------------------------|
A|-7--------7---7---------|----------------------5-----5---|-7--------7---7---------|
E|--------------------3---|-0------------------------------|--------------------3---|


G|--------------------------------|------------------------|--------------------------------|
D|------5---5---4---4-------------|------------------------|------5---5---4---4-------------|
A|----------------------5-----5---|-7--------7---7---------|----------------------5-----5---|
E|-0------------------------------|--------------------3---|-0------------------------------|


G|------------------------|--------------------------------|---------------------------------|
D|------------------------|------5---5---4---4---5-----5---|-7---7---5---7---7---5-----------|
A|-7--------7---7---------|--------------------------------|-------------------------7---5---|
E|--------------------3---|-0------------------------------|---------------------------------|


G|------------------------------|------------------------------|------2---2---0---0---2---2---|
D|------2---2---0---0---2---2---|------2---2---0---0---2---2---|------------------------------|
A|-3----------------------------|-3----------------------------|-0----------------------------|
E|------------------------------|------------------------------|------------------------------|


G|------2---2---0---0---2---2---|------------------------------|------------------------------|
D|------------------------------|------2---2---0---0---2---2---|------2---2---0---0---2---2---|
A|-0----------------------------|-3----------------------------|-3----------------------------|
E|------------------------------|------------------------------|------------------------------|


G|------2---2---0---0---2---2---|------2---2---0---0---2-------|--------------------------------|
D|------------------------------|------------------------------|------5---5---4---4-------------|
A|-0----------------------------|-0----------------------------|----------------------5-----5---|
E|------------------------------|--------------------------3---|-0------------------------------|


G|------------------------|--------------------------------|------------------------|
D|------------------------|------5---5---4---4-------------|------------------------|
A|-7--------7---7---------|----------------------5-----5---|-7--------7---7---------|
E|--------------------3---|-0------------------------------|--------------------3---|


G|--------------------------------|------------------------|--------------------------------|
D|------5---5---4---4-------------|------------------------|------5---5---4---4-------------|
A|----------------------5-----5---|-7--------7---7---------|----------------------5-----5---|
E|-0------------------------------|--------------------3---|-0------------------------------|


G|------------------------|--------------------------------|------------------------|
D|------------------------|------5---5---4---4-------------|------------------------|
A|-7--------7---7---------|----------------------5-----5---|-7--------7---7---------|
E|--------------------3---|-0------------------------------|--------------------3---|


G|--------------------------------|------------------------|--------------------------------|
D|------5---5---4---4-------------|------------------------|------5---5---4---4-------------|
A|----------------------5-----5---|-7--------7---7---------|----------------------5-----5---|
E|-0------------------------------|--------------------3---|-0------------------------------|


G|------------------------|--------------------------------|---------------------------------|
D|------------------------|------5---5---4---4---5-----5---|-7---7---5---7---7---5-----------|
A|-7--------7---7---------|--------------------------------|-------------------------7---5---|
E|--------------------3---|-0------------------------------|---------------------------------|


G|--------------------------------|------------------------|--------------------------------|
D|------5---5---4---4-------------|------------------------|------5---5---4---4-------------|
A|----------------------5-----5---|-7--------7---7---------|----------------------5-----5---|
E|-0------------------------------|--------------------3---|-0------------------------------|


G|------------------------|--------------------------------|------------------------|
D|------------------------|------5---5---4---4-------------|------------------------|
A|-7--------7---7---------|----------------------5-----5---|-7--------7---7---------|
E|--------------------3---|-0------------------------------|--------------------3---|


G|--------------------------------|------------------------|--------------------------------|
D|------5---5---4---4-------------|------------------------|------5---5---4---4-------------|
A|----------------------5-----5---|-7--------7---7---------|----------------------5-----5---|
E|-0------------------------------|--------------------3---|-0------------------------------|


G|------------------------|--------------------------------|------------------------|
D|------------------------|------5---5---4---4-------------|------------------------|
A|-7--------7---7---------|----------------------5-----5---|-7--------7---7---------|
E|--------------------3---|-0------------------------------|--------------------3---|


G|--------------------------------|------------------------|--------------------------------|
D|------5---5---4---4-------------|------------------------|------5---5---4---4---5-----5---|
A|----------------------5-----5---|-7--------7---7---------|--------------------------------|
E|-0------------------------------|--------------------3---|-0------------------------------|


G|---------------------------------|------------------------------|------------------------------|
D|-7---7---5---7---7---5-----------|------2---2---0---0---2---2---|------2---2---0---0---2---2---|
A|-------------------------7---5---|-3----------------------------|-3----------------------------|
E|---------------------------------|------------------------------|------------------------------|


G|------2---2---0---0---2---2---|------2---2---0---0---2---2---|------------------------------|
D|------------------------------|------------------------------|------2---2---0---0---2---2---|
A|-0----------------------------|-0----------------------------|-3----------------------------|
E|------------------------------|------------------------------|------------------------------|


G|------------------------------|------2---2---0---0---2---2---|------2---2---0---0---2-------|
D|------2---2---0---0---2---2---|------------------------------|------------------------------|
A|-3----------------------------|-0----------------------------|-0----------------------------|
E|------------------------------|------------------------------|--------------------------3---|


G|--------------------------------|------------------------|--------------------------------|
D|------5---5---4---4-------------|------------------------|------5---5---4---4-------------|
A|----------------------5-----5---|-7--------7---7---------|----------------------5-----5---|
E|-0------------------------------|--------------------3---|-0------------------------------|


G|------------------------|--------------------------------|------------------------|
D|------------------------|------5---5---4---4-------------|------------------------|
A|-7--------7---7---------|----------------------5-----5---|-7--------7---7---------|
E|--------------------3---|-0------------------------------|--------------------3---|


G|--------------------------------|------------------------|--------------------------------|
D|------5---5---4---4-------------|------------------------|------5---5---4---4-------------|
A|----------------------5-----5---|-7--------7---7---------|----------------------5-----5---|
E|-0------------------------------|--------------------3---|-0------------------------------|


G|------------------------|--------------------------------|------------------------|
D|------------------------|------5---5---4---4-------------|------------------------|
A|-7--------7---7---------|----------------------5-----5---|-7--------7---7---------|
E|--------------------3---|-0------------------------------|--------------------3---|


G|--------------------------------|------------------------|--------------------------------|
D|------5---5---4---4-------------|------------------------|------5---5---4---4---5-----5---|
A|----------------------5-----5---|-7--------7---7---------|--------------------------------|
E|-0------------------------------|--------------------3---|-0------------------------------|


G|---------------------------------|------------------------------|------------------------------|
D|-7---7---5---7---7---5-----------|------2---2---0---0---2---2---|------2---2---0---0---2---2---|
A|-------------------------7---5---|-3----------------------------|-3----------------------------|
E|---------------------------------|------------------------------|------------------------------|


G|------2---2---0---0---2---2---|------2---2---0---0---2---2---|------------------------------|
D|------------------------------|------------------------------|------2---2---0---0---2---2---|
A|-0----------------------------|-0----------------------------|-3----------------------------|
E|------------------------------|------------------------------|------------------------------|


G|------------------------------|------2---2---0---0---2---2---|------2---2---0---0---2-------|
D|------2---2---0---0---2---2---|------------------------------|------------------------------|
A|-3----------------------------|-0----------------------------|-0----------------------------|
E|------------------------------|------------------------------|--------------------------3---|


G|------------------------------|------------------------------|------2---2---0---0---2---2---|
D|------2---2---0---0---2---2---|------2---2---0---0---2---2---|------------------------------|
A|-3----------------------------|-3----------------------------|-0----------------------------|
E|------------------------------|------------------------------|------------------------------|


G|------2---2---0---0---2---2---|------------------------------|------------------------------|
D|------------------------------|------2---2---0---0---2---2---|------2---2---0---0---2---2---|
A|-0----------------------------|-3----------------------------|-3----------------------------|
E|------------------------------|------------------------------|------------------------------|


G|------2---2---0---0---2---2---|------2---2---0---0---2-------|--------------------------------------|
D|------------------------------|------------------------------|--------------------------------------|
A|-0----------------------------|-0----------------------------|------2-----2---0---0-----2-----------|
E|------------------------------|--------------------------3---|-3------------------------------3-----|


G|----------------------------------|--------------------------------------|----------------------------------|
D|----------------------------------|------2-----2---0-----0-----2---------|------2-----2---0-----0---2-------|
A|------2-----2---0-----0---2-------|--------------------------------------|----------------------------------|
E|-3----------------------------3---|-0------------------------------0-----|-0----------------------------0---|


G|------------------------------------|------------------------------------|------------------------------------|
D|------------------------------------|------------------------------------|------2-----2---0-----0---2---------|
A|------2-----2---0-----0---2---2-----|------2-----2---0-----0---2---------|------------------------------------|
E|-3----------------------------------|-3------------------------------3---|-0----------------------------0-----|


G|------------------------------------|------------------------------------|------------------------------------|
D|------2-----2---0-----0---2-----2---|-0----2-----2---0-----0---2---0-----|-0----2-----2---0-----0---2---------|
A|------------------------------------|------------------------------------|--------------------------5---------|
E|-0----------------------------------|------------------------------------|------------------------------------|


G|------------------------------------|------------------------------------|------------------------------------|
D|------2-----2---0-----0---2---------|------2-----2---0-----0---2---------|------------------------------------|
A|-3----------------------------3-----|-3----------------------------3-----|-5----7-----7---5-----5---7---5-----|
E|------------------------------------|------------------------------------|------------------------------------|


G|----------------------------------|----------------------------------|----------------------------------|
D|----------------------------------|------2-----2---0-----0---2---0---|------2-----2---------------------|
A|-5----7-----7---5-----5---7---5---|-3--------------------------------|-3--------------2---0-------------|
E|----------------------------------|----------------------------------|------------------------3---2-----|


G|------0---0---------------------|------------------------|--------------------------------|
D|--------------4---4-------------|------------------------|------5---5---4---4-------------|
A|----------------------5-----5---|-7--------7---7---------|----------------------5-----5---|
E|-0------------------------------|--------------------3---|-0------------------------------|


G|------------------------|--------------------------------|------------------------|
D|------------------------|------5---5---4---4-------------|------------------------|
A|-7--------7---7---------|----------------------5-----5---|-7--------7---7---------|
E|--------------------3---|-0------------------------------|--------------------3---|


G|--------------------------------|------------------------|--------------------------------|
D|------5---5---4---4-------------|------------------------|------5---5---4---4-------------|
A|----------------------5-----5---|-7--------7---7---------|----------------------5-----5---|
E|-0------------------------------|--------------------3---|-0------------------------------|


G|------------------------|--------------------------------|------------------------|
D|------------------------|------5---5---4---4-------------|------------------------|
A|-7--------7---7---------|----------------------5-----5---|-7--------7---7---------|
E|--------------------3---|-0------------------------------|--------------------3---|


G|--------------------------------|------------------------|--------------------------------|
D|------5---5---4---4-------------|------------------------|------5---5---4---4-------------|
A|----------------------5-----5---|-7--------7---7---------|----------------------5-----5---|
E|-0------------------------------|--------------------3---|-0------------------------------|


G|------------------------|--------------------------------|------------------------|
D|------------------------|------5---5---4---4-------------|------------------------|
A|-7--------7---7---------|----------------------5-----5---|-7--------7---7---------|
E|--------------------3---|-0------------------------------|--------------------3---|


G|--------------------------------|------------------------|--------------------------------|
D|------5---5---4---4-------------|------------------------|------5---5---4---4-------------|
A|----------------------5-----5---|-7--------7---7---------|----------------------5-----5---|
E|-0------------------------------|--------------------3---|-0------------------------------|


G|------------------------|--------------------------------|------------------------|
D|------------------------|------5---5---4---4-------------|------------------------|
A|-7--------7---7---------|----------------------5-----5---|-7--------7---7---------|
E|--------------------3---|-0------------------------------|--------------------3---|


G|--------|
D|--------|
A|--------|
E|-0------|