Site menu:

    

Browse: 0-9 A B C D E F G H I J K L N O P Q R S T U V W X Y Z

the cure - lovesong:



Title: Lovesong
Artist: 
Album: Disintegration
Author: Smith, Gallup, Thompson, Williams, O'Donnell, Tolhurst


Track 1: Clean rhythm

E|-7------|-7------|-7------|-7------|--------|--------|--------|--------|-7------|
B|-5------|-5------|-5------|-5------|--------|--------|--------|--------|-5------|
G|-5------|-5------|-5------|-5------|--------|--------|--------|--------|-5------|
D|-7------|-7------|-7------|-7------|--------|--------|--------|--------|-7------|
A|-7------|-7------|-7------|-7------|--------|--------|--------|--------|-7------|
E|-5------|-5------|-5------|-5------|--------|--------|--------|--------|-5------|


E|-7------|-7------|-7------|--------|--------|--------|--------|-7------|-7------|
B|-5------|-5------|-5------|--------|--------|--------|--------|-5------|-5------|
G|-5------|-5------|-5------|--------|--------|--------|--------|-5------|-5------|
D|-7------|-7------|-7------|--------|--------|--------|--------|-7------|-7------|
A|-7------|-7------|-7------|--------|--------|--------|--------|-7------|-7------|
E|-5------|-5------|-5------|--------|--------|--------|--------|-5------|-5------|


E|-7------|-7------|--------|--------|--------|--------|-7------|-7------|-7------|
B|-5------|-5------|--------|--------|--------|--------|-5------|-5------|-5------|
G|-5------|-5------|--------|--------|--------|--------|-5------|-5------|-5------|
D|-7------|-7------|--------|--------|--------|--------|-7------|-7------|-7------|
A|-7------|-7------|--------|--------|--------|--------|-7------|-7------|-7------|
E|-5------|-5------|--------|--------|--------|--------|-5------|-5------|-5------|


E|-7------|--------|--------|--------|--------|-7------|-7------|--------|--------|
B|-5------|--------|--------|--------|--------|-5------|-5------|--------|--------|
G|-5------|--------|--------|--------|--------|-5------|-5------|--------|--------|
D|-7------|--------|--------|--------|--------|-7------|-7------|--------|--------|
A|-7------|--------|--------|--------|--------|-7------|-7------|--------|--------|
E|-5------|--------|--------|--------|--------|-5------|-5------|--------|--------|


E|--------|--------|--------|--------|-7------|-7------|-7------|-7------|--------|
B|--------|--------|--------|--------|-5------|-5------|-5------|-5------|--------|
G|--------|--------|--------|--------|-5------|-5------|-5------|-5------|--------|
D|--------|--------|--------|--------|-7------|-7------|-7------|-7------|--------|
A|--------|--------|--------|--------|-7------|-7------|-7------|-7------|--------|
E|--------|--------|--------|--------|-5------|-5------|-5------|-5------|--------|


E|--------|--------|--------|-7------|-7------|-7------|-7------|--------|--------|
B|--------|--------|--------|-5------|-5------|-5------|-5------|--------|--------|
G|--------|--------|--------|-5------|-5------|-5------|-5------|--------|--------|
D|--------|--------|--------|-7------|-7------|-7------|-7------|--------|--------|
A|--------|--------|--------|-7------|-7------|-7------|-7------|--------|--------|
E|--------|--------|--------|-5------|-5------|-5------|-5------|--------|--------|


E|--------|--------|-0------0---|-0------|-----------------------|---------------------------------|
B|--------|--------|-1------3---|-3------|-0-----1---1---1---3---|-3---1---1---0---0---------------|
G|--------|--------|-0------4---|-4------|-2-----2---2---2---0---|-0---0---0---0---0---2---0---0---|
D|--------|--------|-3------5---|-5------|-2-----2---2---2---2---|-2---2---2---2---2---2---2---2---|
A|--------|--------|------------|--------|-0-----0---0---0---3---|-3---3---3---3---3---3---3---3---|
E|--------|--------|------------|--------|-----------------------|---------------------------------|


E|-0------0---|-0------|-----------------------|---------------------------------|
B|-1------3---|-3------|-0-----1---1---1---3---|-3---1---1---0---0---------------|
G|-0------4---|-4------|-2-----2---2---2---0---|-0---0---0---0---0---2---0---0---|
D|-3------5---|-5------|-2-----2---2---2---2---|-2---2---2---2---2---2---2---2---|
A|------------|--------|-0-----0---0---0---3---|-3---3---3---3---3---3---3---3---|
E|------------|--------|-----------------------|---------------------------------|


E|-0------0---|-0------|-----------------------|---------------------------------|
B|-1------3---|-3------|-0-----1---1---1---3---|-3---1---1---0---0---------------|
G|-0------4---|-4------|-2-----2---2---2---0---|-0---0---0---0---0---2---0---0---|
D|-3------5---|-5------|-2-----2---2---2---2---|-2---2---2---2---2---2---2---2---|
A|------------|--------|-0-----0---0---0---3---|-3---3---3---3---3---3---3---3---|
E|------------|--------|-----------------------|---------------------------------|


E|-0------0---|-0------|-7------|-7------|--------|--------|--------|--------|--------|
B|-1------3---|-3------|-5------|-5------|--------|--------|--------|--------|--------|
G|-0------4---|-4------|-5------|-5------|--------|--------|--------|--------|--------|
D|-3------5---|-5------|-7------|-7------|--------|--------|--------|--------|--------|
A|------------|--------|-7------|-7------|--------|--------|--------|--------|--------|
E|------------|--------|-5------|-5------|--------|--------|--------|--------|--------|


E|--------|--------|--------|--------|--------|--------|--------|--------|--------|
B|--------|--------|--------|--------|--------|--------|--------|--------|--------|
G|--------|--------|--------|--------|--------|--------|--------|--------|--------|
D|--------|--------|--------|--------|--------|--------|--------|--------|--------|
A|--------|--------|--------|--------|--------|--------|--------|--------|--------|
E|--------|--------|--------|--------|--------|--------|--------|--------|--------|


E|-7------|-7------|-7------|-7------|--------|--------|--------|--------|-7------|
B|-5------|-5------|-5------|-5------|--------|--------|--------|--------|-5------|
G|-5------|-5------|-5------|-5------|--------|--------|--------|--------|-5------|
D|-7------|-7------|-7------|-7------|--------|--------|--------|--------|-7------|
A|-7------|-7------|-7------|-7------|--------|--------|--------|--------|-7------|
E|-5------|-5------|-5------|-5------|--------|--------|--------|--------|-5------|


E|-7------|-7------|-7------|--------|--------|--------|--------|-0------0---|-0------|
B|-5------|-5------|-5------|--------|--------|--------|--------|-1------3---|-3------|
G|-5------|-5------|-5------|--------|--------|--------|--------|-0------4---|-4------|
D|-7------|-7------|-7------|--------|--------|--------|--------|-3------5---|-5------|
A|-7------|-7------|-7------|--------|--------|--------|--------|------------|--------|
E|-5------|-5------|-5------|--------|--------|--------|--------|------------|--------|


E|-----------------------|---------------------------------|-0------0---|-0------|
B|-0-----1---1---1---3---|-3---1---1---0---0---------------|-1------3---|-3------|
G|-2-----2---2---2---0---|-0---0---0---0---0---2---0---0---|-0------4---|-4------|
D|-2-----2---2---2---2---|-2---2---2---2---2---2---2---2---|-3------5---|-5------|
A|-0-----0---0---0---3---|-3---3---3---3---3---3---3---3---|------------|--------|
E|-----------------------|---------------------------------|------------|--------|


E|-----------------------|---------------------------------|-0------0---|-0------|
B|-0-----1---1---1---3---|-3---1---1---0---0---------------|-1------3---|-3------|
G|-2-----2---2---2---0---|-0---0---0---0---0---2---0---0---|-0------4---|-4------|
D|-2-----2---2---2---2---|-2---2---2---2---2---2---2---2---|-3------5---|-5------|
A|-0-----0---0---0---3---|-3---3---3---3---3---3---3---3---|------------|--------|
E|-----------------------|---------------------------------|------------|--------|


E|-----------------------|---------------------------------|-0------0---|-0------|
B|-0-----1---1---1---3---|-3---1---1---0---0---------------|-1------3---|-3------|
G|-2-----2---2---2---0---|-0---0---0---0---0---2---0---0---|-0------4---|-4------|
D|-2-----2---2---2---2---|-2---2---2---2---2---2---2---2---|-3------5---|-5------|
A|-0-----0---0---0---3---|-3---3---3---3---3---3---3---3---|------------|--------|
E|-----------------------|---------------------------------|------------|--------|


E|-7------|-7------|
B|-5------|-5------|
G|-5------|-5------|
D|-7------|-7------|
A|-7------|-7------|
E|-5------|-5------|





Track 2: Crunch lead

E|--------|--------|--------|--------|--------|--------|--------|--------|------0---0---0---0---0---0---|
B|--------|--------|--------|--------|--------|--------|--------|--------|------1---1---3---5---5---3---|
G|--------|--------|--------|--------|--------|--------|--------|--------|------------------------------|
D|--------|--------|--------|--------|--------|--------|--------|--------|------------------------------|
A|--------|--------|--------|--------|--------|--------|--------|--------|------------------------------|
E|--------|--------|--------|--------|--------|--------|--------|--------|------------------------------|


E|-0---0---0---0---0---0---0---0---|-0---0---0---0---0---0---0---0---|-0---0---0---0---0---0---0---0---|
B|-3---3---5---5---3---1---1-------|---------1---1---3---5---5---3---|-3---3---5---5---3---1---1-------|
G|-----------------------------2---|-2---2---------------------------|-----------------------------2---|
D|---------------------------------|---------------------------------|---------------------------------|
A|---------------------------------|---------------------------------|---------------------------------|
E|---------------------------------|---------------------------------|---------------------------------|


E|-0---0---0---0---0---0---0---0---|-0---0---0---0---0---0---0---0---|-0---0---0---0---0---0---0---0---|
B|---------1---1---3---5---5---3---|-3---3---5---5---3---1---1-------|---------1---1---3---5---5---3---|
G|-2---2---------------------------|-----------------------------2---|-2---2---------------------------|
D|---------------------------------|---------------------------------|---------------------------------|
A|---------------------------------|---------------------------------|---------------------------------|
E|---------------------------------|---------------------------------|---------------------------------|


E|-0---0---0---0---0---0---0---0---|-0------|-0------|-0------|-0------|--------|--------|
B|-3---3---5---5---3---1---1-------|--------|--------|--------|--------|--------|--------|
G|-----------------------------2---|-2------|-2------|-2------|-2------|--------|--------|
D|---------------------------------|--------|--------|--------|--------|--------|--------|
A|---------------------------------|--------|--------|--------|--------|--------|--------|
E|---------------------------------|--------|--------|--------|--------|--------|--------|


E|--------|--------|--------|--------|--------|--------|--------|--------|--------|
B|--------|--------|--------|--------|--------|--------|--------|--------|--------|
G|--------|--------|--------|--------|--------|--------|--------|--------|--------|
D|--------|--------|--------|--------|--------|--------|--------|--------|--------|
A|--------|--------|--------|--------|--------|--------|--------|--------|--------|
E|--------|--------|--------|--------|--------|--------|--------|--------|--------|


E|--------|------0---0---0---0---0---0---|-0---0---0---0---0---0---0---0---|-0---0---0---0---0---0---0---0---|
B|--------|------1---1---3---5---5---3---|-3---3---5---5---3---1---1-------|---------1---1---3---5---5---3---|
G|--------|------------------------------|-----------------------------2---|-2---2---------------------------|
D|--------|------------------------------|---------------------------------|---------------------------------|
A|--------|------------------------------|---------------------------------|---------------------------------|
E|--------|------------------------------|---------------------------------|---------------------------------|


E|-0---0---0---0---0---0---0---0---|-0---0---0---0---0---0---0---0---|-0---0---0---0---0---0---0---0---|
B|-3---3---5---5---3---1---1-------|---------1---1---3---5---5---3---|-3---3---5---5---3---1---1-------|
G|-----------------------------2---|-2---2---------------------------|-----------------------------2---|
D|---------------------------------|---------------------------------|---------------------------------|
A|---------------------------------|---------------------------------|---------------------------------|
E|---------------------------------|---------------------------------|---------------------------------|


E|-0---0---0---0---0---0---0---0---|-0---0---0---0---0---0---0---0---|--------|--------|
B|---------1---1---3---5---5---3---|-3---3---5---5---3---1---1-------|--------|--------|
G|-2---2---------------------------|-----------------------------2---|--------|--------|
D|---------------------------------|---------------------------------|--------|--------|
A|---------------------------------|---------------------------------|--------|--------|
E|---------------------------------|---------------------------------|--------|--------|


E|--------|--------|--------|--------|--------|--------|--------|--------|--------|
B|--------|--------|--------|--------|--------|--------|--------|--------|--------|
G|--------|--------|--------|--------|--------|--------|--------|--------|--------|
D|--------|--------|--------|--------|--------|--------|--------|--------|--------|
A|--------|--------|--------|--------|--------|--------|--------|--------|--------|
E|--------|--------|--------|--------|--------|--------|--------|--------|--------|


E|--------|--------|--------|--------|--------|--------|--------|--------|--------|
B|--------|--------|--------|--------|--------|--------|--------|--------|--------|
G|--------|--------|--------|--------|--------|--------|--------|--------|--------|
D|--------|--------|--------|--------|--------|--------|--------|--------|--------|
A|--------|--------|--------|--------|--------|--------|--------|--------|--------|
E|--------|--------|--------|--------|--------|--------|--------|--------|--------|


E|--------|--------|--------|--------|--------|--------|--------|--------|--------|
B|--------|--------|--------|--------|--------|--------|--------|--------|--------|
G|--------|--------|--------|--------|--------|--------|--------|--------|--------|
D|--------|--------|--------|--------|--------|--------|--------|--------|--------|
A|--------|--------|--------|--------|--------|--------|--------|--------|--------|
E|--------|--------|--------|--------|--------|--------|--------|--------|--------|


E|--------|------0---0---0---0---0---0---|-0---0---0---0---0---0---0---0---|-0---0---0---0---0---0---0---0---|
B|--------|------1---1---3---5---5---3---|-3---3---5---5---3---1---1-------|---------1---1---3---5---5---3---|
G|--------|------------------------------|-----------------------------2---|-2---2---------------------------|
D|--------|------------------------------|---------------------------------|---------------------------------|
A|--------|------------------------------|---------------------------------|---------------------------------|
E|--------|------------------------------|---------------------------------|---------------------------------|


E|-0---0---0---0---0---0---0---0---|-0---0---0---0---0---0---0---0---|-0---0---0---0---0---0---0---0---|
B|-3---3---5---5---3---1---1-------|---------1---1---3---5---5---3---|-3---3---5---5---3---1---1-------|
G|-----------------------------2---|-2---2---------------------------|-----------------------------2---|
D|---------------------------------|---------------------------------|---------------------------------|
A|---------------------------------|---------------------------------|---------------------------------|
E|---------------------------------|---------------------------------|---------------------------------|


E|-0---0---0---0---0---0---0---0---|-0---0---0---0---0---0---0---0---|-0---0---0---0---0---0---0---0---|
B|---------1---1---3---5---5---3---|-3---3---5---5---3---1---1-------|---------1---1---3---5---5---3---|
G|-2---2---------------------------|-----------------------------2---|-2---2---------------------------|
D|---------------------------------|---------------------------------|---------------------------------|
A|---------------------------------|---------------------------------|---------------------------------|
E|---------------------------------|---------------------------------|---------------------------------|


E|-0---0---0---0---0---0---0---0---|-0---0---0---0---0---0---0---0---|-0---0---0---0---0---0---0---0---|
B|-3---3---5---5---3---1---1-------|---------1---1---3---5---5---3---|-3---3---5---5---3---1---1-------|
G|-----------------------------2---|-2---2---------------------------|-----------------------------2---|
D|---------------------------------|---------------------------------|---------------------------------|
A|---------------------------------|---------------------------------|---------------------------------|
E|---------------------------------|---------------------------------|---------------------------------|


E|-0---0---0---0---0---0---0---0---|-0---0---0---0---0---0---0---0---|-0---0---0---0---0---0---0---0---|
B|---------1---1---3---5---5---3---|-3---3---5---5---3---1---1-------|---------1---1---3---5---5---3---|
G|-2---2---------------------------|-----------------------------2---|-2---2---------------------------|
D|---------------------------------|---------------------------------|---------------------------------|
A|---------------------------------|---------------------------------|---------------------------------|
E|---------------------------------|---------------------------------|---------------------------------|


E|-0---0---0---0---0---0---0---0---|--------|--------|--------|--------|--------|--------|
B|-3---3---5---5---3---1---1-------|--------|--------|--------|--------|--------|--------|
G|-----------------------------2---|--------|--------|--------|--------|--------|--------|
D|---------------------------------|--------|--------|--------|--------|--------|--------|
A|---------------------------------|--------|--------|--------|--------|--------|--------|
E|---------------------------------|--------|--------|--------|--------|--------|--------|


E|--------|--------|--------|--------|--------|--------|--------|--------|--------|
B|--------|--------|--------|--------|--------|--------|--------|--------|--------|
G|--------|--------|--------|--------|--------|--------|--------|--------|--------|
D|--------|--------|--------|--------|--------|--------|--------|--------|--------|
A|--------|--------|--------|--------|--------|--------|--------|--------|--------|
E|--------|--------|--------|--------|--------|--------|--------|--------|--------|


E|--------|--------|--------|--------|--------|--------|--------|--------|--------|
B|--------|--------|--------|--------|--------|--------|--------|--------|--------|
G|--------|--------|--------|--------|--------|--------|--------|--------|--------|
D|--------|--------|--------|--------|--------|--------|--------|--------|--------|
A|--------|--------|--------|--------|--------|--------|--------|--------|--------|
E|--------|--------|--------|--------|--------|--------|--------|--------|--------|


E|--------|--------|--------|--------|--------|--------|--------|--------|
B|--------|--------|--------|--------|--------|--------|--------|--------|
G|--------|--------|--------|--------|--------|--------|--------|--------|
D|--------|--------|--------|--------|--------|--------|--------|--------|
A|--------|--------|--------|--------|--------|--------|--------|--------|
E|--------|--------|--------|--------|--------|--------|--------|--------|





Track 3: Pizzicato

E|--------|--------|--------|--------|--------|--------|--------|--------|--------|
B|--------|--------|--------|--------|--------|--------|--------|--------|--------|
G|--------|--------|--------|--------|--------|--------|--------|--------|--------|
D|--------|--------|--------|--------|--------|--------|--------|--------|--------|
A|--------|--------|--------|--------|--------|--------|--------|--------|--------|
E|--------|--------|--------|--------|--------|--------|--------|--------|--------|


E|--------|--------|--------|--------|--------|--------|--------|--------|--------|
B|--------|--------|--------|--------|--------|--------|--------|--------|--------|
G|--------|--------|--------|--------|--------|--------|--------|--------|--------|
D|--------|--------|--------|--------|--------|--------|--------|--------|--------|
A|--------|--------|--------|--------|--------|--------|--------|--------|--------|
E|--------|--------|--------|--------|--------|--------|--------|--------|--------|


E|--------|--------|--------|--------|--------|--------|--------|--------|--------|
B|--------|--------|--------|--------|--------|--------|--------|--------|--------|
G|--------|--------|--------|--------|--------|--------|--------|--------|--------|
D|--------|--------|--------|--------|--------|--------|--------|--------|--------|
A|--------|--------|--------|--------|--------|--------|--------|--------|--------|
E|--------|--------|--------|--------|--------|--------|--------|--------|--------|


E|--------|--------|--------|--------|--------5--7--|-8---8---7---5---7---7---5-------|
B|--------|--------|--------|--------|--------------|-----------------------------8---|
G|--------|--------|--------|--------|--------------|---------------------------------|
D|--------|--------|--------|--------|--------------|---------------------------------|
A|--------|--------|--------|--------|--------------|---------------------------------|
E|--------|--------|--------|--------|--------------|---------------------------------|


E|-------------------5--7--|-8---8---7---5---7---7---5-------|-------------------5--7--|
B|-5---5---5---5-----------|-----------------------------8---|-5---5---5---5-----------|
G|-------------------------|---------------------------------|-------------------------|
D|-------------------------|---------------------------------|-------------------------|
A|-------------------------|---------------------------------|-------------------------|
E|-------------------------|---------------------------------|-------------------------|


E|-8---8---7---5---7---7---5-------|---------------------------------|--------|--------|
B|-----------------------------8---|-5---5---5---5---5---5---3---3---|-1------|--------|
G|---------------------------------|---------------------------------|--------|--------|
D|---------------------------------|---------------------------------|--------|--------|
A|---------------------------------|---------------------------------|--------|--------|
E|---------------------------------|---------------------------------|--------|--------|


E|--------|--------|--------|--------|--------|--------|--------|--------|--------|
B|--------|--------|--------|--------|--------|--------|--------|--------|--------|
G|--------|--------|--------|--------|--------|--------|--------|--------|--------|
D|--------|--------|--------|--------|--------|--------|--------|--------|--------|
A|--------|--------|--------|--------|--------|--------|--------|--------|--------|
E|--------|--------|--------|--------|--------|--------|--------|--------|--------|


E|--------|--------|--------|--------|--------|--------|--------|--------|--------|
B|--------|--------|--------|--------|--------|--------|--------|--------|--------|
G|--------|--------|--------|--------|--------|--------|--------|--------|--------|
D|--------|--------|--------|--------|--------|--------|--------|--------|--------|
A|--------|--------|--------|--------|--------|--------|--------|--------|--------|
E|--------|--------|--------|--------|--------|--------|--------|--------|--------|


E|--------|--------|--------|--------|--------|--------|--------|--------|--------|
B|--------|--------|--------|--------|--------|--------|--------|--------|--------|
G|--------|--------|--------|--------|--------|--------|--------|--------|--------|
D|--------|--------|--------|--------|--------|--------|--------|--------|--------|
A|--------|--------|--------|--------|--------|--------|--------|--------|--------|
E|--------|--------|--------|--------|--------|--------|--------|--------|--------|


E|--------|--------|------------5--7--|-8---8---7---5---7---7---5-------|-------------------5--7--|
B|--------|--------|------------------|-----------------------------8---|-5---5---5---5-----------|
G|--------|--------|------------------|---------------------------------|-------------------------|
D|--------|--------|------------------|---------------------------------|-------------------------|
A|--------|--------|------------------|---------------------------------|-------------------------|
E|--------|--------|------------------|---------------------------------|-------------------------|


E|-8---8---7---5---7---7---5-------|-------------------5--7--|-8---8---7---5---7---7---5-------|
B|-----------------------------8---|-5---5---5---5-----------|-----------------------------8---|
G|---------------------------------|-------------------------|---------------------------------|
D|---------------------------------|-------------------------|---------------------------------|
A|---------------------------------|-------------------------|---------------------------------|
E|---------------------------------|-------------------------|---------------------------------|


E|---------------------------------|--------|--------|-8---8---7---5---7---7---5-------|
B|-5---5---5---5---5---5---3---3---|-1------|--------|-----------------------------8---|
G|---------------------------------|--------|--------|---------------------------------|
D|---------------------------------|--------|--------|---------------------------------|
A|---------------------------------|--------|--------|---------------------------------|
E|---------------------------------|--------|--------|---------------------------------|


E|-------------------5--7--|-8---8---7---5---7---7---5-------|-------------------5--7--|
B|-5---5---5---5-----------|-----------------------------8---|-5---5---5---5-----------|
G|-------------------------|---------------------------------|-------------------------|
D|-------------------------|---------------------------------|-------------------------|
A|-------------------------|---------------------------------|-------------------------|
E|-------------------------|---------------------------------|-------------------------|


E|-8---8---7---5---7---7---5-------|-----------------------|--------|--------|--------|
B|-----------------------------8---|-5---5---5---5-----3---|-1------|--------|--------|
G|---------------------------------|-----------------------|--------|--------|--------|
D|---------------------------------|-----------------------|--------|--------|--------|
A|---------------------------------|-----------------------|--------|--------|--------|
E|---------------------------------|-----------------------|--------|--------|--------|


E|--------|--------|--------|--------|--------|--------|--------|--------|--------|
B|--------|--------|--------|--------|--------|--------|--------|--------|--------|
G|--------|--------|--------|--------|--------|--------|--------|--------|--------|
D|--------|--------|--------|--------|--------|--------|--------|--------|--------|
A|--------|--------|--------|--------|--------|--------|--------|--------|--------|
E|--------|--------|--------|--------|--------|--------|--------|--------|--------|


E|--------|--------|--------|--------|--------|--------|--------|--------|--------|
B|--------|--------|--------|--------|--------|--------|--------|--------|--------|
G|--------|--------|--------|--------|--------|--------|--------|--------|--------|
D|--------|--------|--------|--------|--------|--------|--------|--------|--------|
A|--------|--------|--------|--------|--------|--------|--------|--------|--------|
E|--------|--------|--------|--------|--------|--------|--------|--------|--------|


E|--------|--------|--------|--------|--------|--------|--------|--------|--------|
B|--------|--------|--------|--------|--------|--------|--------|--------|--------|
G|--------|--------|--------|--------|--------|--------|--------|--------|--------|
D|--------|--------|--------|--------|--------|--------|--------|--------|--------|
A|--------|--------|--------|--------|--------|--------|--------|--------|--------|
E|--------|--------|--------|--------|--------|--------|--------|--------|--------|


E|--------|--------|--------|--------|
B|--------|--------|--------|--------|
G|--------|--------|--------|--------|
D|--------|--------|--------|--------|
A|--------|--------|--------|--------|
E|--------|--------|--------|--------|





Track 4: Lead Synth (background)

E|--------|--------|--------|--------|--------|--------|--------|--------|--------|
B|--------|--------|--------|--------|--------|--------|--------|--------|--------|
G|--------|--------|--------|--------|--------|--------|--------|--------|--------|
D|--------|--------|--------|--------|--------|--------|--------|--------|--------|
A|--------|--------|--------|--------|--------|--------|--------|--------|--------|
E|--------|--------|--------|--------|--------|--------|--------|--------|--------|


E|--------|--------|--------|--------|--------|--------|--------|--------|--------|
B|--------|--------|--------|--------|--------|--------|--------|--------|--------|
G|--------|--------|--------|--------|--------|--------|--------|--------|--------|
D|--------|--------|--------|--------|--------|--------|--------|--------|--------|
A|--------|--------|--------|--------|--------|--------|--------|--------|--------|
E|--------|--------|--------|--------|--------|--------|--------|--------|--------|


E|--------|--------|--------|--------|--------|--------|--------|--------|--------|
B|--------|--------|--------|--------|--------|--------|--------|--------|--------|
G|--------|--------|--------|--------|--------|--------|--------|--------|--------|
D|--------|--------|--------|--------|--------|--------|--------|--------|--------|
A|--------|--------|--------|--------|--------|--------|--------|--------|--------|
E|--------|--------|--------|--------|--------|--------|--------|--------|--------|


E|--------|--------|--------|--------|--------|--------|--------|--------|--------|
B|--------|--------|--------|--------|--------|--------|--------|--------|--------|
G|--------|--------|--------|--------|--------|--------|--------|--------|--------|
D|--------|--------|--------|--------|--------|--------|--------|--------|--------|
A|--------|--------|--------|--------|--------|--------|--------|--------|--------|
E|--------|--------|--------|--------|--------|--------|--------|--------|--------|


E|--------|--------|--------|--------|--------|--------|--------|--------|--------|
B|--------|--------|--------|--------|--------|--------|--------|--------|--------|
G|--------|--------|--------|--------|--------|--------|--------|--------|--------|
D|--------|--------|--------|--------|--------|--------|--------|--------|--------|
A|--------|--------|--------|--------|--------|--------|--------|--------|--------|
E|--------|--------|--------|--------|--------|--------|--------|--------|--------|


E|--------|--------|--------|--------|--------|--------|--------|--------|--------|
B|--------|--------|--------|--------|--------|--------|--------|--------|--------|
G|--------|--------|--------|--------|--------|--------|--------|--------|--------|
D|--------|--------|--------|--------|--------|--------|--------|--------|--------|
A|--------|--------|--------|--------|--------|--------|--------|--------|--------|
E|--------|--------|--------|--------|--------|--------|--------|--------|--------|


E|--------|--------|------1---1---0-----------0---|-0----------|--------|--------|
B|--------|--------|------------------3---3-------|------------|--------|--------|
G|--------|--------|------------------------------|-----2------|--------|--------|
D|--------|--------|------------------------------|------------|--------|--------|
A|--------|--------|------------------------------|------------|--------|--------|
E|--------|--------|------------------------------|------------|--------|--------|


E|------1---1---0-----------0---|-0----------|--------|--------|------1---1---0-----------0---|
B|------------------3---3-------|------------|--------|--------|------------------3---3-------|
G|------------------------------|-----2------|--------|--------|------------------------------|
D|------------------------------|------------|--------|--------|------------------------------|
A|------------------------------|------------|--------|--------|------------------------------|
E|------------------------------|------------|--------|--------|------------------------------|


E|-0----------|--------|--------|------1---1---0-----------0---|-0--------------|--------|
B|------------|--------|--------|------------------3---3-------|----------------|--------|
G|-----2------|--------|--------|------------------------------|-----2----------|--------|
D|------------|--------|--------|------------------------------|----------------|--------|
A|------------|--------|--------|------------------------------|----------------|--------|
E|------------|--------|--------|------------------------------|----------------|--------|


E|--------|--------|--------|--------|--------|--------|--------|--------|--------|
B|--------|--------|--------|--------|--------|--------|--------|--------|--------|
G|--------|--------|--------|--------|--------|--------|--------|--------|--------|
D|--------|--------|--------|--------|--------|--------|--------|--------|--------|
A|--------|--------|--------|--------|--------|--------|--------|--------|--------|
E|--------|--------|--------|--------|--------|--------|--------|--------|--------|


E|--------|--------|--------|--------|--------|--------|--------|--------|--------|
B|--------|--------|--------|--------|--------|--------|--------|--------|--------|
G|--------|--------|--------|--------|--------|--------|--------|--------|--------|
D|--------|--------|--------|--------|--------|--------|--------|--------|--------|
A|--------|--------|--------|--------|--------|--------|--------|--------|--------|
E|--------|--------|--------|--------|--------|--------|--------|--------|--------|


E|--------|--------|--------|--------|--------|--------|--------|--------|--------|
B|--------|--------|--------|--------|--------|--------|--------|--------|--------|
G|--------|--------|--------|--------|--------|--------|--------|--------|--------|
D|--------|--------|--------|--------|--------|--------|--------|--------|--------|
A|--------|--------|--------|--------|--------|--------|--------|--------|--------|
E|--------|--------|--------|--------|--------|--------|--------|--------|--------|


E|--------|--------|--------|--------|------1---1---0-----------0---|-0----------|
B|--------|--------|--------|--------|------------------3---3-------|------------|
G|--------|--------|--------|--------|------------------------------|-----2------|
D|--------|--------|--------|--------|------------------------------|------------|
A|--------|--------|--------|--------|------------------------------|------------|
E|--------|--------|--------|--------|------------------------------|------------|


E|--------|--------|------1---1---0-----------0---|-0----------|--------|--------|
B|--------|--------|------------------3---3-------|------------|--------|--------|
G|--------|--------|------------------------------|-----2------|--------|--------|
D|--------|--------|------------------------------|------------|--------|--------|
A|--------|--------|------------------------------|------------|--------|--------|
E|--------|--------|------------------------------|------------|--------|--------|


E|------1---1---0-----------0---|-0----------|--------|--------|------1---1---0-----------0---|
B|------------------3---3-------|------------|--------|--------|------------------3---3-------|
G|------------------------------|-----2------|--------|--------|------------------------------|
D|------------------------------|------------|--------|--------|------------------------------|
A|------------------------------|------------|--------|--------|------------------------------|
E|------------------------------|------------|--------|--------|------------------------------|


E|-0----------|--------|--------|
B|------------|--------|--------|
G|-----2------|--------|--------|
D|------------|--------|--------|
A|------------|--------|--------|
E|------------|--------|--------|





Track 5: Crunch lead II

E|--------|--------|--------|--------|--------|--------|--------|--------|--------|
B|--------|--------|--------|--------|--------|--------|--------|--------|--------|
G|--------|--------|--------|--------|--------|--------|--------|--------|--------|
D|--------|--------|--------|--------|--------|--------|--------|--------|--------|
A|--------|--------|--------|--------|--------|--------|--------|--------|--------|
E|--------|--------|--------|--------|--------|--------|--------|--------|--------|


E|--------|--------|--------|--------|--------|--------|--------|--------|--------|
B|--------|--------|--------|--------|--------|--------|--------|--------|--------|
G|--------|--------|--------|--------|--------|--------|--------|--------|--------|
D|--------|--------|--------|--------|--------|--------|--------|--------|--------|
A|--------|--------|--------|--------|--------|--------|--------|--------|--------|
E|--------|--------|--------|--------|--------|--------|--------|--------|--------|


E|--------|--------|--------|--------|--------|--------|--------|--------|--------|
B|--------|--------|--------|--------|--------|--------|--------|--------|--------|
G|--------|--------|--------|--------|--------|--------|--------|--------|--------|
D|--------|--------|--------|--------|--------|--------|--------|--------|--------|
A|--------|--------|--------|--------|--------|--------|--------|--------|--------|
E|--------|--------|--------|--------|--------|--------|--------|--------|--------|


E|--------|--------|--------|--------|--------|--------|--------|--------|--------|
B|--------|--------|--------|--------|--------|--------|--------|--------|--------|
G|--------|--------|--------|--------|--------|--------|--------|--------|--------|
D|--------|--------|--------|--------|--------|--------|--------|--------|--------|
A|--------|--------|--------|--------|--------|--------|--------|--------|--------|
E|--------|--------|--------|--------|--------|--------|--------|--------|--------|


E|--------|--------|--------|--------|--------|--------|--------|--------|--------|
B|--------|--------|--------|--------|--------|--------|--------|--------|--------|
G|--------|--------|--------|--------|--------|--------|--------|--------|--------|
D|--------|--------|--------|--------|--------|--------|--------|--------|--------|
A|--------|--------|--------|--------|--------|--------|--------|--------|--------|
E|--------|--------|--------|--------|--------|--------|--------|--------|--------|


E|--------|--------|--------|--------|--------|--------|--------|--------|--------|
B|--------|--------|--------|--------|--------|--------|--------|--------|--------|
G|--------|--------|--------|--------|--------|--------|--------|--------|--------|
D|--------|--------|--------|--------|--------|--------|--------|--------|--------|
A|--------|--------|--------|--------|--------|--------|--------|--------|--------|
E|--------|--------|--------|--------|--------|--------|--------|--------|--------|


E|--------|--------|--------|--------|--------|--------|--------|--------|--------|
B|--------|--------|--------|--------|--------|--------|--------|--------|--------|
G|--------|--------|--------|--------|--------|--------|--------|--------|--------|
D|--------|--------|--------|--------|--------|--------|--------|--------|--------|
A|--------|--------|--------|--------|--------|--------|--------|--------|--------|
E|--------|--------|--------|--------|--------|--------|--------|--------|--------|


E|--------|--------|--------|--------|--------|--------|--------|--------|--------|
B|--------|--------|--------|--------|--------|--------|--------|--------|--------|
G|--------|--------|--------|--------|--------|--------|--------|--------|--------|
D|--------|--------|--------|--------|--------|--------|--------|--------|--------|
A|--------|--------|--------|--------|--------|--------|--------|--------|--------|
E|--------|--------|--------|--------|--------|--------|--------|--------|--------|


E|--------|--------|--------|--------|--------|-----------------------|---------------------------------|
B|--------|--------|--------|--------|--------|-----------12--12--12--|-12--12--------------12--12--12--|
G|--------|--------|--------|--------|--------|-----------------------|---------12--12--12--------------|
D|--------|--------|--------|--------|--------|-----------------------|---------------------------------|
A|--------|--------|--------|--------|--------|-----------------------|---------------------------------|
E|--------|--------|--------|--------|--------|-----------------------|---------------------------------|


E|---------------------------------|---------------------------------|---------------------------------|
B|-12--12--------------12--12--12--|-12--12--------------12--12--13--|-13--15--15--15--15--------------|
G|---------12--12--12--------------|---------12--12--12--------------|---------------------12--12--12--|
D|---------------------------------|---------------------------------|---------------------------------|
A|---------------------------------|---------------------------------|---------------------------------|
E|---------------------------------|---------------------------------|---------------------------------|


E|---------------------------------|---------------------------------|---------------------------------|
B|---------------------------------|---------------------------------|---------------------------------|
G|-12--12--12--14--14--14--14--14--|-14------------------------------|---------------------------------|
D|---------------------------------|-----13--12----------12--12--14--|-12--12--------------------------|
A|---------------------------------|-------------15--15--------------|---------15--15--15--15--15--15--|
E|---------------------------------|---------------------------------|---------------------------------|


E|---------------------------------|--------|--------|--------|--------|--------|--------|
B|---------------------------------|--------|--------|--------|--------|--------|--------|
G|---------------------------------|--------|--------|--------|--------|--------|--------|
D|---------------------------------|--------|--------|--------|--------|--------|--------|
A|-15--14--14--10--10--12--12--10--|-12-----|-12-----|--------|--------|--------|--------|
E|---------------------------------|--------|--------|--------|--------|--------|--------|


E|--------|--------|--------|--------|--------|--------|--------|--------|--------|
B|--------|--------|--------|--------|--------|--------|--------|--------|--------|
G|--------|--------|--------|--------|--------|--------|--------|--------|--------|
D|--------|--------|--------|--------|--------|--------|--------|--------|--------|
A|--------|--------|--------|--------|--------|--------|--------|--------|--------|
E|--------|--------|--------|--------|--------|--------|--------|--------|--------|


E|--------|--------|--------|--------|--------|--------|--------|--------|--------|
B|--------|--------|--------|--------|--------|--------|--------|--------|--------|
G|--------|--------|--------|--------|--------|--------|--------|--------|--------|
D|--------|--------|--------|--------|--------|--------|--------|--------|--------|
A|--------|--------|--------|--------|--------|--------|--------|--------|--------|
E|--------|--------|--------|--------|--------|--------|--------|--------|--------|


E|--------|--------|--------|--------|--------|--------|--------|--------|
B|--------|--------|--------|--------|--------|--------|--------|--------|
G|--------|--------|--------|--------|--------|--------|--------|--------|
D|--------|--------|--------|--------|--------|--------|--------|--------|
A|--------|--------|--------|--------|--------|--------|--------|--------|
E|--------|--------|--------|--------|--------|--------|--------|--------|





Track 6: Bass

G|-----------2---4---2-------|-----------------2---2---4---4---|-----------5---4-----------|
D|-----------------------5---|-5---5---5---5-------------------|-3----3------------5---2---|
A|-0----0--------------------|---------------------------------|---------------------------|
E|---------------------------|---------------------------------|---------------------------|


G|-----------------4---4---5---5---|-----------2---4---2-------|-----------------2---2---4---4---|
D|-2---2---2---2-------------------|-----------------------5---|-5---5---5---5-------------------|
A|---------------------------------|-0----0--------------------|---------------------------------|
E|---------------------------------|---------------------------|---------------------------------|


G|-----------5---4-----------|-----------------4---4---5---5---|-----------2---4---2-------|
D|-3----3------------5---2---|-2---2---2---2-------------------|-----------------------5---|
A|---------------------------|---------------------------------|-0----0--------------------|
E|---------------------------|---------------------------------|---------------------------|


G|-----------------2---2---4---4---|-----------5---4-----------|-----------------4---4---5---5---|
D|-5---5---5---5-------------------|-3----3------------5---2---|-2---2---2---2-------------------|
A|---------------------------------|---------------------------|---------------------------------|
E|---------------------------------|---------------------------|---------------------------------|


G|-----------2---4---2-------|-----------------2---2---4---4---|-----------5---4-----------|
D|-----------------------5---|-5---5---5---5-------------------|-3----3------------5---2---|
A|-0----0--------------------|---------------------------------|---------------------------|
E|---------------------------|---------------------------------|---------------------------|


G|-----------------4---4---5---5---|-----------2---4---2-------|-----------------2---2---4---4---|
D|-2---2---2---2-------------------|-----------------------5---|-5---5---5---5-------------------|
A|---------------------------------|-0----0--------------------|---------------------------------|
E|---------------------------------|---------------------------|---------------------------------|


G|-----------5---4-----------|-----------------4---4---5---5---|-----------2---4---2-------|
D|-3----3------------5---2---|-2---2---2---2-------------------|-----------------------5---|
A|---------------------------|---------------------------------|-0----0--------------------|
E|---------------------------|---------------------------------|---------------------------|


G|-----------------2---2---4---4---|-----------5---4-----------|-----------------4---4---5---5---|
D|-5---5---5---5-------------------|-3----3------------5---2---|-2---2---2---2-------------------|
A|---------------------------------|---------------------------|---------------------------------|
E|---------------------------------|---------------------------|---------------------------------|


G|-----------2---4---2-------|-----------------2---2---4---4---|-----------5---4-----------|
D|-----------------------5---|-5---5---5---5-------------------|-3----3------------5---2---|
A|-0----0--------------------|---------------------------------|---------------------------|
E|---------------------------|---------------------------------|---------------------------|


G|-----------------4---4---5---5---|-----------2---4---2-------|-----------------2---2---4---4---|
D|-2---2---2---2-------------------|-----------------------5---|-5---5---5---5-------------------|
A|---------------------------------|-0----0--------------------|---------------------------------|
E|---------------------------------|---------------------------|---------------------------------|


G|-----------5---4-----------|-----------------4---4---5---5---|-----------2---4---2-------|
D|-3----3------------5---2---|-2---2---2---2-------------------|-----------------------5---|
A|---------------------------|---------------------------------|-0----0--------------------|
E|---------------------------|---------------------------------|---------------------------|


G|-----------------2---2---4---4---|-----------5---4-----------|-----------------4---4---5---5---|
D|-5---5---5---5-------------------|-3----3------------5---2---|-2---2---2---2-------------------|
A|---------------------------------|---------------------------|---------------------------------|
E|---------------------------------|---------------------------|---------------------------------|


G|-----------2---4---2-------|-----------------2---2---4---4---|-----------5---4-----------|
D|-----------------------5---|-5---5---5---5-------------------|-3----3------------5---2---|
A|-0----0--------------------|---------------------------------|---------------------------|
E|---------------------------|---------------------------------|---------------------------|


G|-----------------4---4---5---5---|-----------2---4---2-------|-----------------2---2---4---4---|
D|-2---2---2---2-------------------|-----------------------5---|-5---5---5---5-------------------|
A|---------------------------------|-0----0--------------------|---------------------------------|
E|---------------------------------|---------------------------|---------------------------------|


G|-----------5---4-----------|-----------------4---4---5---5---|-----------2---4---2-------|
D|-3----3------------5---2---|-2---2---2---2-------------------|-----------------------5---|
A|---------------------------|---------------------------------|-0----0--------------------|
E|---------------------------|---------------------------------|---------------------------|


G|-----------------2---2---4---4---|-----------5---4-----------|-----------------4---4---5---5---|
D|-5---5---5---5-------------------|-3----3------------5---2---|-2---2---2---2-------------------|
A|---------------------------------|---------------------------|---------------------------------|
E|---------------------------------|---------------------------|---------------------------------|


G|-----------2---4---2-------|-----------------2---2---4---4---|-----------5---4-----------|
D|-----------------------5---|-5---5---5---5-------------------|-3----3------------5---2---|
A|-0----0--------------------|---------------------------------|---------------------------|
E|---------------------------|---------------------------------|---------------------------|


G|-----------------4---4---5---5---|-----------2---4---2-------|-----------------2---2---4---4---|
D|-2---2---2---2-------------------|-----------------------5---|-5---5---5---5-------------------|
A|---------------------------------|-0----0--------------------|---------------------------------|
E|---------------------------------|---------------------------|---------------------------------|


G|-----------5---4-----------|-----------------4---4---5---5---|---------------------------|
D|-3----3------------5---2---|-2---2---2---2-------------------|---------------------------|
A|---------------------------|---------------------------------|-8----8----8---8---8---10--|
E|---------------------------|---------------------------------|---------------------------|


G|---------------------------------|---------------------------|-----------------9---9---9---9---|
D|-------------------------9---10--|-----------------------10--|-10--10--10--10------------------|
A|-10--10--10--10--12--12----------|-12---12---12--12--12------|---------------------------------|
E|---------------------------------|---------------------------|---------------------------------|


G|-10---10---10--10--10--12--|-12--12--12--12------------------|---------------------------|
D|---------------------------|-------------------------9---10--|-----------------------10--|
A|---------------------------|-----------------12--12----------|-12---12---12--12--12------|
E|---------------------------|---------------------------------|---------------------------|


G|-----------------9---9---9---9---|-10---10---10--10--10--12--|-12--12--12--12------------------|
D|-10--10--10--10------------------|---------------------------|-------------------------9---10--|
A|---------------------------------|---------------------------|-----------------12--12----------|
E|---------------------------------|---------------------------|---------------------------------|


G|---------------------------|-----------------9---9---9---9---|-10---10---10--10--10--12--|
D|-----------------------10--|-10--10--10--10------------------|---------------------------|
A|-12---12---12--12--12------|---------------------------------|---------------------------|
E|---------------------------|---------------------------------|---------------------------|


G|-12--12--12--12------------------|-----------2---4---2-------|-----------------2---2---4---4---|
D|-------------------------9---10--|-----------------------5---|-5---5---5---5-------------------|
A|-----------------12--12----------|-0----0--------------------|---------------------------------|
E|---------------------------------|---------------------------|---------------------------------|


G|-----------5---4-----------|-----------------4---4---5---5---|-----------2---4---2-------|
D|-3----3------------5---2---|-2---2---2---2-------------------|-----------------------5---|
A|---------------------------|---------------------------------|-0----0--------------------|
E|---------------------------|---------------------------------|---------------------------|


G|-----------------2---2---4---4---|-----------5---4-----------|-----------------4---4---5---5---|
D|-5---5---5---5-------------------|-3----3------------5---2---|-2---2---2---2-------------------|
A|---------------------------------|---------------------------|---------------------------------|
E|---------------------------------|---------------------------|---------------------------------|


G|-----------2---4---2-------|-----------------2---2---4---4---|-----------5---4-----------|
D|-----------------------5---|-5---5---5---5-------------------|-3----3------------5---2---|
A|-0----0--------------------|---------------------------------|---------------------------|
E|---------------------------|---------------------------------|---------------------------|


G|-----------------4---4---5---5---|-----------2---4---2-------|-----------------2---2---4---4---|
D|-2---2---2---2-------------------|-----------------------5---|-5---5---5---5-------------------|
A|---------------------------------|-0----0--------------------|---------------------------------|
E|---------------------------------|---------------------------|---------------------------------|


G|-----------5---4-----------|-----------------4---4---5---5---|-----------2---4---2-------|
D|-3----3------------5---2---|-2---2---2---2-------------------|-----------------------5---|
A|---------------------------|---------------------------------|-0----0--------------------|
E|---------------------------|---------------------------------|---------------------------|


G|-----------------2---2---4---4---|-----------5---4-----------|-----------------4---4---5---5---|
D|-5---5---5---5-------------------|-3----3------------5---2---|-2---2---2---2-------------------|
A|---------------------------------|---------------------------|---------------------------------|
E|---------------------------------|---------------------------|---------------------------------|


G|-----------2---4---2-------|-----------------2---2---4---4---|-----------5---4-----------|
D|-----------------------5---|-5---5---5---5-------------------|-3----3------------5---2---|
A|-0----0--------------------|---------------------------------|---------------------------|
E|---------------------------|---------------------------------|---------------------------|


G|-----------------4---4---5---5---|-----------2---4---2-------|-----------------2---2---4---4---|
D|-2---2---2---2-------------------|-----------------------5---|-5---5---5---5-------------------|
A|---------------------------------|-0----0--------------------|---------------------------------|
E|---------------------------------|---------------------------|---------------------------------|


G|-----------5---4-----------|-----------------4---4---5---5---|-----------2---4---2-------|
D|-3----3------------5---2---|-2---2---2---2-------------------|-----------------------5---|
A|---------------------------|---------------------------------|-0----0--------------------|
E|---------------------------|---------------------------------|---------------------------|


G|-----------------2---2---4---4---|-----------5---4-----------|-----------------4---4---5---5---|
D|-5---5---5---5-------------------|-3----3------------5---2---|-2---2---2---2-------------------|
A|---------------------------------|---------------------------|---------------------------------|
E|---------------------------------|---------------------------|---------------------------------|


G|---------------------------|---------------------------------|---------------------------|
D|---------------------------|-------------------------9---10--|-----------------------10--|
A|-8----8----8---8---8---10--|-10--10--10--10--12--12----------|-12---12---12--12--12------|
E|---------------------------|---------------------------------|---------------------------|


G|-----------------9---9---9---9---|-10---10---10--10--10--12--|-12--12--12--12------------------|
D|-10--10--10--10------------------|---------------------------|-------------------------9---10--|
A|---------------------------------|---------------------------|-----------------12--12----------|
E|---------------------------------|---------------------------|---------------------------------|


G|---------------------------|-----------------9---9---9---9---|-10---10---10--10--10--12--|
D|-----------------------10--|-10--10--10--10------------------|---------------------------|
A|-12---12---12--12--12------|---------------------------------|---------------------------|
E|---------------------------|---------------------------------|---------------------------|


G|-12--12--12--12------------------|---------------------------|-----------------9---9---9---9---|
D|-------------------------9---10--|-----------------------10--|-10--10--10--10------------------|
A|-----------------12--12----------|-12---12---12--12--12------|---------------------------------|
E|---------------------------------|---------------------------|---------------------------------|


G|-10---10---10--10--10--12--|-12--12--12--12------------------|--------|--------|
D|---------------------------|-------------------------9---10--|-7------|-7------|
A|---------------------------|-----------------12--12----------|-0------|-0------|
E|---------------------------|---------------------------------|--------|--------|





Track 7: Hammond Organ

E|-----------------------|--------|-----------------------|--------|-----------------------|
B|-13----13--15--13--15--|-15-----|-17----17--15--17--15--|-15-----|-13----13--15--13--15--|
G|-----------------------|--------|-----------------------|--------|-----------------------|
D|-----------------------|--------|-----------------------|--------|-----------------------|
A|-----------------------|--------|-----------------------|--------|-----------------------|
E|-----------------------|--------|-----------------------|--------|-----------------------|


E|--------|-----------------------|--------|-----------------------|--------|-----------------------|
B|-15-----|-17----17--15--17--15--|-15-----|-13----13--15--13--15--|-15-----|-17----17--15--17--15--|
G|--------|-----------------------|--------|-----------------------|--------|-----------------------|
D|--------|-----------------------|--------|-----------------------|--------|-----------------------|
A|--------|-----------------------|--------|-----------------------|--------|-----------------------|
E|--------|-----------------------|--------|-----------------------|--------|-----------------------|


E|--------|-----------------------|--------|-----------------------|--------|-----------------------|
B|-15-----|-13----13--15--13--15--|-15-----|-17----17--15--17--15--|-15-----|-13----13--15--13--15--|
G|--------|-----------------------|--------|-----------------------|--------|-----------------------|
D|--------|-----------------------|--------|-----------------------|--------|-----------------------|
A|--------|-----------------------|--------|-----------------------|--------|-----------------------|
E|--------|-----------------------|--------|-----------------------|--------|-----------------------|


E|--------|-----------------------|--------|-----------------------|--------|-----------------------|
B|-15-----|-17----17--15--17--15--|-15-----|-13----13--15--13--15--|-15-----|-17----17--15--17--15--|
G|--------|-----------------------|--------|-----------------------|--------|-----------------------|
D|--------|-----------------------|--------|-----------------------|--------|-----------------------|
A|--------|-----------------------|--------|-----------------------|--------|-----------------------|
E|--------|-----------------------|--------|-----------------------|--------|-----------------------|


E|--------|-----------------------|--------|-----------------------|--------|-----------------------|
B|-15-----|-13----13--15--13--15--|-15-----|-17----17--15--17--15--|-15-----|-13----13--15--13--15--|
G|--------|-----------------------|--------|-----------------------|--------|-----------------------|
D|--------|-----------------------|--------|-----------------------|--------|-----------------------|
A|--------|-----------------------|--------|-----------------------|--------|-----------------------|
E|--------|-----------------------|--------|-----------------------|--------|-----------------------|


E|--------|-----------------------|--------|-----------------------|--------|-----------------------|
B|-15-----|-17----17--15--17--15--|-15-----|-13----13--15--13--15--|-15-----|-17----17--15--17--15--|
G|--------|-----------------------|--------|-----------------------|--------|-----------------------|
D|--------|-----------------------|--------|-----------------------|--------|-----------------------|
A|--------|-----------------------|--------|-----------------------|--------|-----------------------|
E|--------|-----------------------|--------|-----------------------|--------|-----------------------|


E|--------|-----------------------|--------|-----------------------|--------|-----------------------|
B|-15-----|-13----13--15--13--15--|-15-----|-17----17--15--17--15--|-15-----|-13----13--15--13--15--|
G|--------|-----------------------|--------|-----------------------|--------|-----------------------|
D|--------|-----------------------|--------|-----------------------|--------|-----------------------|
A|--------|-----------------------|--------|-----------------------|--------|-----------------------|
E|--------|-----------------------|--------|-----------------------|--------|-----------------------|


E|--------|-----------------------|--------|-----------------------|--------|-----------------------|
B|-15-----|-17----17--15--17--15--|-15-----|-13----13--15--13--15--|-15-----|-17----17--15--17--15--|
G|--------|-----------------------|--------|-----------------------|--------|-----------------------|
D|--------|-----------------------|--------|-----------------------|--------|-----------------------|
A|--------|-----------------------|--------|-----------------------|--------|-----------------------|
E|--------|-----------------------|--------|-----------------------|--------|-----------------------|


E|--------|-----------------------|--------|-----------------------|--------|-----------------------|
B|-15-----|-13----13--15--13--15--|-15-----|-17----17--15--17--15--|-15-----|-13----13--15--13--15--|
G|--------|-----------------------|--------|-----------------------|--------|-----------------------|
D|--------|-----------------------|--------|-----------------------|--------|-----------------------|
A|--------|-----------------------|--------|-----------------------|--------|-----------------------|
E|--------|-----------------------|--------|-----------------------|--------|-----------------------|


E|--------|-----------------------|--------|-1------3---|-3------|-5------8---|-8------|
B|-15-----|-17----17--15--17--15--|-15-----|------------|--------|------------|--------|
G|--------|-----------------------|--------|------------|--------|------------|--------|
D|--------|-----------------------|--------|-3------5---|-5------|-7------10--|-10-----|
A|--------|-----------------------|--------|------------|--------|------------|--------|
E|--------|-----------------------|--------|------------|--------|------------|--------|


E|-1------3---|-3------|-5------8---|-8------|-1------3---|-3------|-5------8---|-8------|
B|------------|--------|------------|--------|------------|--------|------------|--------|
G|------------|--------|------------|--------|------------|--------|------------|--------|
D|-3------5---|-5------|-7------10--|-10-----|-3------5---|-5------|-7------10--|-10-----|
A|------------|--------|------------|--------|------------|--------|------------|--------|
E|------------|--------|------------|--------|------------|--------|------------|--------|


E|-1------3---|-3------|-----------------------|--------|-----------------------|--------|
B|------------|--------|-13----13--15--13--15--|-15-----|-17----17--15--17--15--|-15-----|
G|------------|--------|-----------------------|--------|-----------------------|--------|
D|-3------5---|-5------|-----------------------|--------|-----------------------|--------|
A|------------|--------|-----------------------|--------|-----------------------|--------|
E|------------|--------|-----------------------|--------|-----------------------|--------|


E|-----------------------|--------|-----------------------|--------|-----------------------|
B|-13----13--15--13--15--|-15-----|-17----17--15--17--15--|-15-----|-13----13--15--13--15--|
G|-----------------------|--------|-----------------------|--------|-----------------------|
D|-----------------------|--------|-----------------------|--------|-----------------------|
A|-----------------------|--------|-----------------------|--------|-----------------------|
E|-----------------------|--------|-----------------------|--------|-----------------------|


E|--------|-----------------------|--------|-----------------------|--------|-----------------------|
B|-15-----|-17----17--15--17--15--|-15-----|-13----13--15--13--15--|-15-----|-17----17--15--17--15--|
G|--------|-----------------------|--------|-----------------------|--------|-----------------------|
D|--------|-----------------------|--------|-----------------------|--------|-----------------------|
A|--------|-----------------------|--------|-----------------------|--------|-----------------------|
E|--------|-----------------------|--------|-----------------------|--------|-----------------------|


E|--------|-----------------------|--------|-----------------------|--------|-----------------------|
B|-15-----|-13----13--15--13--15--|-15-----|-17----17--15--17--15--|-15-----|-13----13--15--13--15--|
G|--------|-----------------------|--------|-----------------------|--------|-----------------------|
D|--------|-----------------------|--------|-----------------------|--------|-----------------------|
A|--------|-----------------------|--------|-----------------------|--------|-----------------------|
E|--------|-----------------------|--------|-----------------------|--------|-----------------------|


E|--------|-----------------------|--------|-----------------------|--------|-----------------------|
B|-15-----|-17----17--15--17--15--|-15-----|-13----13--15--13--15--|-15-----|-17----17--15--17--15--|
G|--------|-----------------------|--------|-----------------------|--------|-----------------------|
D|--------|-----------------------|--------|-----------------------|--------|-----------------------|
A|--------|-----------------------|--------|-----------------------|--------|-----------------------|
E|--------|-----------------------|--------|-----------------------|--------|-----------------------|


E|--------|-----------------------|--------|-----------------------|--------|-1------3---|
B|-15-----|-13----13--15--13--15--|-15-----|-17----17--15--17--15--|-15-----|------------|
G|--------|-----------------------|--------|-----------------------|--------|------------|
D|--------|-----------------------|--------|-----------------------|--------|-3------5---|
A|--------|-----------------------|--------|-----------------------|--------|------------|
E|--------|-----------------------|--------|-----------------------|--------|------------|


E|-3------|-5------8---|-8------|-1------3---|-3------|-5------8---|-8------|-1------3---|
B|--------|------------|--------|------------|--------|------------|--------|------------|
G|--------|------------|--------|------------|--------|------------|--------|------------|
D|-5------|-7------10--|-10-----|-3------5---|-5------|-7------10--|-10-----|-3------5---|
A|--------|------------|--------|------------|--------|------------|--------|------------|
E|--------|------------|--------|------------|--------|------------|--------|------------|


E|-3------|-5------8---|-8------|-1------3---|-3------|--------|--------|
B|--------|------------|--------|------------|--------|-10-----|-10-----|
G|--------|------------|--------|------------|--------|--------|--------|
D|-5------|-7------10--|-10-----|-3------5---|-5------|-7------|-7------|
A|--------|------------|--------|------------|--------|--------|--------|
E|--------|------------|--------|------------|--------|--------|--------|