Site menu:

    

Browse: 0-9 A B C D E F G H I J K L N O P Q R S T U V W X Y Z

survivor - eye of the tiger:



Title: Eye Of The Tiger
Artist: 
Album: Eye Of The Tiger
Author: Peterik, Sullivan


Track 1: Mute Guitar

E|-------------------------------------------------|-------------------------------------------------|
B|-------------------------------------------------|-------------------------------------------------|
G|-------------------------------------------------|-------------------------------------------------|
D|-------------------------------------------------|-------------------------------------------------|
A|-3--3--3--3--3--3--3--3--3--3--3--3--3--3--3--3--|-3--3--3--3--3--3--3--3--3--3--3--3--3--3--3--3--|
E|-------------------------------------------------|-------------------------------------------------|


E|-------------------------------------------------|-------------------------------------------------|
B|-------------------------------------------------|-------------------------------------------------|
G|-------------------------------------------------|-------------------------------------------------|
D|-------------------------------------------------|-------------------------------------------------|
A|-3--3--3--3--3--3--3--3--3--3--3--3--3--3--3--3--|-3--3--3--3--3--3--3--3--3--3--3--3--3--3--3--3--|
E|-------------------------------------------------|-------------------------------------------------|


E|-------------------------------------------------|-------------------------------------------------|
B|-------------------------------------------------|-------------------------------------------------|
G|-------------------------------------------------|-------------------------------------------------|
D|-------------------------------------------------|-------------------------------------------------|
A|-3--3--3--3--3--3--3--3--3--3--3--3--3--3--3--3--|-3--3--3--3--3--3--3--3--3--3--3--3--3--3--3--3--|
E|-------------------------------------------------|-------------------------------------------------|


E|-------------------------------------------------|-------------------------------------------------|
B|-------------------------------------------------|-------------------------------------------------|
G|-------------------------------------------------|-------------------------------------------------|
D|-------------------------------------------------|-------------------------------------------------|
A|-3--3--3--3--3--3--3--3--3--3--3--3--3--3--3--3--|-3--3--3--3--3--3--3--3--3--3--3--3--3--3--3--3--|
E|-------------------------------------------------|-------------------------------------------------|


E|-------------------------------------------------|-------------------------------------------------|
B|-------------------------------------------------|-------------------------------------------------|
G|-------------------------------------------------|-------------------------------------------------|
D|-------------------------------------------------|-------------------------------------------------|
A|-3--3--3--3--3--3--3--3--3--3--3--3--3--3--3--3--|-3--3--3--3--3--3--3--3--3--3--3--3--3--3--3--3--|
E|-------------------------------------------------|-------------------------------------------------|


E|-------------------------------------------------|-------------------------------------------------|
B|-------------------------------------------------|-------------------------------------------------|
G|-------------------------------------------------|-------------------------------------------------|
D|-------------------------------------------------|-------------------------------------------------|
A|-3--3--3--3--3--3--3--3--3--3--3--3--3--3--3--3--|-3--3--3--3--3--3--3--3--3--3--3--3--3--3--3--3--|
E|-------------------------------------------------|-------------------------------------------------|


E|-------------------------------------------------|-------------------------------------------------|
B|-------------------------------------------------|-------------------------------------------------|
G|-------------------------------------------------|-------------------------------------------------|
D|-------------------------------------------------|-------------------------------------------------|
A|-3--3--3--3--3--3--3--3--3--3--3--3--3--3--3--3--|-3--3--3--3--3--3--3--3--3--3--3--3--3--3--3--3--|
E|-------------------------------------------------|-------------------------------------------------|


E|-------------------------------------------------|-------------------------------------------------|
B|-------------------------------------------------|-------------------------------------------------|
G|-------------------------------------------------|-------------------------------------------------|
D|-------------------------------------------------|-------------------------------------------------|
A|-3--3--3--3--3--3--3--3--3--3--3--3--3--3--3--3--|-3--3--3--3--3--3--3--3--3--3--3--3--3--3--3--3--|
E|-------------------------------------------------|-------------------------------------------------|


E|-------------------------------------------------|-------------------------------------------------|
B|-------------------------------------------------|-------------------------------------------------|
G|-------------------------------------------------|-------------------------------------------------|
D|-------------------------------------------------|-------------------------------------------------|
A|-3--3--3--3--3--3--3--3--3--3--3--3--3--3--3--3--|-3--3--3--3--3--3--3--3--3--3--3--3--3--3--3--3--|
E|-------------------------------------------------|-------------------------------------------------|


E|-------------------------------------------------|-------------------------------------------------|
B|-------------------------------------------------|-------------------------------------------------|
G|-------------------------------------------------|-------------------------------------------------|
D|-------------------------------------------------|-------------------------------------------------|
A|-3--3--3--3--3--3--3--3--3--3--3--3--3--3--3--3--|-3--3--3--3--3--3--3--3--3--3--3--3--3--3--3--3--|
E|-------------------------------------------------|-------------------------------------------------|


E|-------------------------------------------------|-------------------------------------------------|
B|-------------------------------------------------|-------------------------------------------------|
G|-------------------------------------------------|-------------------------------------------------|
D|-------------------------------------------------|-------------------------------------------------|
A|-3--3--3--3--3--3--3--3--3--3--3--3--3--3--3--3--|-3--3--3--3--3--3--3--3--3--3--3--3--3--3--3--3--|
E|-------------------------------------------------|-------------------------------------------------|


E|-------------------------------------------------|-----------------------------------------------|
B|-------------------------------------------------|-----------------------------------------------|
G|-------------------------------------------------|-----------------------------------------------|
D|-------------------------------------------------|-----------------------------------------------|
A|-3--3--3--3--3--3--3--3--3--3--3--3--3--3--3--3--|-----3--3--3--3--3--3--3--3--3--3--3--3--3--3--|
E|-------------------------------------------------|-----------------------------------------------|


E|-------------------------------------------------|-------------------------------------------------|
B|-------------------------------------------------|-------------------------------------------------|
G|-------------------------------------------------|-------------------------------------------------|
D|-------------------------------------------------|-------------------------------------------------|
A|-3--3--3--3--3--3--3--3--3--3--3--3--3--3--3--3--|-3--3--3--3--3--3--3--3--3--3--3--3--3--3--3--3--|
E|-------------------------------------------------|-------------------------------------------------|


E|-------------------------------------------------|-------------------------------------------------|
B|-------------------------------------------------|-------------------------------------------------|
G|-------------------------------------------------|-------------------------------------------------|
D|-------------------------------------------------|-------------------------------------------------|
A|-3--3--3--3--3--3--3--3--3--3--3--3--3--3--3--3--|-3--3--3--3--3--3--3--3--3--3--3--3--3--3--3--3--|
E|-------------------------------------------------|-------------------------------------------------|


E|-------------------------------------------------|-------------------------------------------------|
B|-------------------------------------------------|-------------------------------------------------|
G|-------------------------------------------------|-------------------------------------------------|
D|-------------------------------------------------|-------------------------------------------------|
A|-3--3--3--3--3--3--3--3--3--3--3--3--3--3--3--3--|-3--3--3--3--3--3--3--3--3--3--3--3--3--3--3--3--|
E|-------------------------------------------------|-------------------------------------------------|


E|-------------------------------------------------|-----------------------------------------------|
B|-------------------------------------------------|-----------------------------------------------|
G|-------------------------------------------------|-----------------------------------------------|
D|-------------------------------------------------|-----------------------------------------------|
A|-3--3--3--3--3--3--3--3--3--3--3--3--3--3--3--3--|-----3--3--3--3--3--3--3--3--3--3--3--3--3--3--|
E|-------------------------------------------------|-----------------------------------------------|


E|-------------------------------------------------|-------------------------------------------------|
B|-------------------------------------------------|-------------------------------------------------|
G|-------------------------------------------------|-------------------------------------------------|
D|-------------------------------------------------|-------------------------------------------------|
A|-3--3--3--3--3--3--3--3--3--3--3--3--3--3--3--3--|-3--3--3--3--3--3--3--3--3--3--3--3--3--3--3--3--|
E|-------------------------------------------------|-------------------------------------------------|


E|-------------------------------------------------|-------------------------------------------------|
B|-------------------------------------------------|-------------------------------------------------|
G|-------------------------------------------------|-------------------------------------------------|
D|-------------------------------------------------|-------------------------------------------------|
A|-3--3--3--3--3--3--3--3--3--3--3--3--3--3--3--3--|-3--3--3--3--3--3--3--3--3--3--3--3--3--3--3--3--|
E|-------------------------------------------------|-------------------------------------------------|


E|-------------------------------------------------|-------------------------------------------------|
B|-------------------------------------------------|-------------------------------------------------|
G|-------------------------------------------------|-------------------------------------------------|
D|-------------------------------------------------|-------------------------------------------------|
A|-3--3--3--3--3--3--3--3--3--3--3--3--3--3--3--3--|-3--3--3--3--3--3--3--3--3--3--3--3--3--3--3--3--|
E|-------------------------------------------------|-------------------------------------------------|


E|-----------------------------------------------|--------|--------|--------|--------|
B|-----------------------------------------------|--------|--------|--------|--------|
G|-----------------------------------------------|--------|--------|--------|--------|
D|-----------------------------------------------|--------|--------|--------|--------|
A|-----3--3--3--3--3--3--3--3--3--3--3--3--3--3--|--------|--------|--------|--------|
E|-----------------------------------------------|--------|--------|--------|--------|


E|--------|--------|--------|--------|-------------------------------------------------|
B|--------|--------|--------|--------|-------------------------------------------------|
G|--------|--------|--------|--------|-------------------------------------------------|
D|--------|--------|--------|--------|-------------------------------------------------|
A|--------|--------|--------|--------|-3--3--3--3--3--3--3--3--3--3--3--3--3--3--3--3--|
E|--------|--------|--------|--------|-------------------------------------------------|


E|-------------------------------------------------|-----------------------------------------------|
B|-------------------------------------------------|-----------------------------------------------|
G|-------------------------------------------------|-----------------------------------------------|
D|-------------------------------------------------|-----------------------------------------------|
A|-3--3--3--3--3--3--3--3--3--3--3--3--3--3--3--3--|-----3--3--3--3--3--3--3--3--3--3--3--3--3--3--|
E|-------------------------------------------------|-----------------------------------------------|


E|-------------------------------------------------|-------------------------------------------------|
B|-------------------------------------------------|-------------------------------------------------|
G|-------------------------------------------------|-------------------------------------------------|
D|-------------------------------------------------|-------------------------------------------------|
A|-3--3--3--3--3--3--3--3--3--3--3--3--3--3--3--3--|-3--3--3--3--3--3--3--3--3--3--3--3--3--3--3--3--|
E|-------------------------------------------------|-------------------------------------------------|


E|-------------------------------------------------|-------------------------------------------------|
B|-------------------------------------------------|-------------------------------------------------|
G|-------------------------------------------------|-------------------------------------------------|
D|-------------------------------------------------|-------------------------------------------------|
A|-3--3--3--3--3--3--3--3--3--3--3--3--3--3--3--3--|-3--3--3--3--3--3--3--3--3--3--3--3--3--3--3--3--|
E|-------------------------------------------------|-------------------------------------------------|


E|-------------------------------------------------|-------------------------------------------------|
B|-------------------------------------------------|-------------------------------------------------|
G|-------------------------------------------------|-------------------------------------------------|
D|-------------------------------------------------|-------------------------------------------------|
A|-3--3--3--3--3--3--3--3--3--3--3--3--3--3--3--3--|-3--3--3--3--3--3--3--3--3--3--3--3--3--3--3--3--|
E|-------------------------------------------------|-------------------------------------------------|


E|-----------------------------------------------|--------------|-------------|--------------|
B|-----------------------------------------------|--------------|-8-----6-----|--------------|
G|-----------------------------------------------|--------------|-8-----7-----|--------------|
D|-----------------------------------------------|--------3--3--|-8-----8-----|--------3--3--|
A|-----3--3--3--3--3--3--3--3--3--3--3--3--3--3--|-3------3--3--|-------------|-3------3--3--|
E|-----------------------------------------------|-1------------|-------------|-1------------|


E|-------------|--------------|-------------|-----------------------------|-------------|
B|-------------|--------------|-8-----6-----|-----------------------------|-------------|
G|-------------|--------------|-8-----7-----|-----------------------------|-------------|
D|-5----3------|--------3--3--|-8-----8-----|-3----2----3---5----3----5---|-6-----------|
A|-3----1------|-3------3--3--|-------------|-----------------------------|-------------|
E|-------------|-1------------|-------------|-----------------------------|-------------|


E|-------------------------------------------------|-------------------------------------------------|
B|-------------------------------------------------|-------------------------------------------------|
G|-------------------------------------------------|-------------------------------------------------|
D|-------------------------------------------------|-------------------------------------------------|
A|-3--3--3--3--3--3--3--3--3--3--3--3--3--3--3--3--|-3--3--3--3--3--3--3--3--3--3--3--3--3--3--3--3--|
E|-------------------------------------------------|-------------------------------------------------|


E|-------------------------------------------------|-------------------------------------------------|
B|-------------------------------------------------|-------------------------------------------------|
G|-------------------------------------------------|-------------------------------------------------|
D|-------------------------------------------------|-------------------------------------------------|
A|-3--3--3--3--3--3--3--3--3--3--3--3--3--3--3--3--|-3--3--3--3--3--3--3--3--3--3--3--3--3--3--3--3--|
E|-------------------------------------------------|-------------------------------------------------|


E|--------|--------|--------|--------|-----------------------------------------------|
B|--------|--------|--------|--------|-----------------------------------------------|
G|--------|--------|--------|--------|-----------------------------------------------|
D|--------|--------|--------|--------|-----------------------------------------------|
A|--------|--------|--------|--------|-----3--3--3--3--3--3--3--3--3--3--3--3--3--3--|
E|--------|--------|--------|--------|-----------------------------------------------|


E|-------------------------------------------------|-------------------------------------------------|
B|-------------------------------------------------|-------------------------------------------------|
G|-------------------------------------------------|-------------------------------------------------|
D|-------------------------------------------------|-------------------------------------------------|
A|-3--3--3--3--3--3--3--3--3--3--3--3--3--3--3--3--|-3--3--3--3--3--3--3--3--3--3--3--3--3--3--3--3--|
E|-------------------------------------------------|-------------------------------------------------|


E|-----------------------------------------------|--------|--------|--------|--------|
B|-----------------------------------------------|--------|--------|--------|--------|
G|-----------------------------------------------|--------|--------|--------|--------|
D|-----------------------------------------------|--------|--------|--------|--------|
A|-----3--3--3--3--3--3--3--3--3--3--3--3--3--3--|--------|--------|--------|--------|
E|-----------------------------------------------|--------|--------|--------|--------|


E|--------|--------|--------|--------|--------|-------------------------------------------------|
B|--------|--------|--------|--------|--------|-------------------------------------------------|
G|--------|--------|--------|--------|--------|-------------------------------------------------|
D|--------|--------|--------|--------|--------|-------------------------------------------------|
A|--------|--------|--------|--------|--------|-3--3--3--3--3--3--3--3--3--3--3--3--3--3--3--3--|
E|--------|--------|--------|--------|--------|-------------------------------------------------|


E|-------------------------------------------------|-------------------------------------------------|
B|-------------------------------------------------|-------------------------------------------------|
G|-------------------------------------------------|-------------------------------------------------|
D|-------------------------------------------------|-------------------------------------------------|
A|-3--3--3--3--3--3--3--3--3--3--3--3--3--3--3--3--|-3--3--3--3--3--3--3--3--3--3--3--3--3--3--3--3--|
E|-------------------------------------------------|-------------------------------------------------|


E|-------------------------------------------------|-------------------------------------------------|
B|-------------------------------------------------|-------------------------------------------------|
G|-------------------------------------------------|-------------------------------------------------|
D|-------------------------------------------------|-------------------------------------------------|
A|-3--3--3--3--3--3--3--3--3--3--3--3--3--3--3--3--|-3--3--3--3--3--3--3--3--3--3--3--3--3--3--3--3--|
E|-------------------------------------------------|-------------------------------------------------|


E|-------------------------------------------------|-------------------------------------------------|
B|-------------------------------------------------|-------------------------------------------------|
G|-------------------------------------------------|-------------------------------------------------|
D|-------------------------------------------------|-------------------------------------------------|
A|-3--3--3--3--3--3--3--3--3--3--3--3--3--3--3--3--|-3--3--3--3--3--3--3--3--3--3--3--3--3--3--3--3--|
E|-------------------------------------------------|-------------------------------------------------|


E|-------------------------------------------------|-------------------------------------------------|
B|-------------------------------------------------|-------------------------------------------------|
G|-------------------------------------------------|-------------------------------------------------|
D|-------------------------------------------------|-------------------------------------------------|
A|-3--3--3--3--3--3--3--3--3--3--3--3--3--3--3--3--|-3--3--3--3--3--3--3--3--3--3--3--3--3--3--3--3--|
E|-------------------------------------------------|-------------------------------------------------|


E|-------------------------------------------------|-------------------------------------------------|
B|-------------------------------------------------|-------------------------------------------------|
G|-------------------------------------------------|-------------------------------------------------|
D|-------------------------------------------------|-------------------------------------------------|
A|-3--3--3--3--3--3--3--3--3--3--3--3--3--3--3--3--|-3--3--3--3--3--3--3--3--3--3--3--3--3--3--3--3--|
E|-------------------------------------------------|-------------------------------------------------|


E|-------------------------------------------------|-------------------------------------------------|
B|-------------------------------------------------|-------------------------------------------------|
G|-------------------------------------------------|-------------------------------------------------|
D|-------------------------------------------------|-------------------------------------------------|
A|-3--3--3--3--3--3--3--3--3--3--3--3--3--3--3--3--|-3--3--3--3--3--3--3--3--3--3--3--3--3--3--3--3--|
E|-------------------------------------------------|-------------------------------------------------|


E|-------------------------------------------------|-------------------------------------------------|
B|-------------------------------------------------|-------------------------------------------------|
G|-------------------------------------------------|-------------------------------------------------|
D|-------------------------------------------------|-------------------------------------------------|
A|-3--3--3--3--3--3--3--3--3--3--3--3--3--3--3--3--|-3--3--3--3--3--3--3--3--3--3--3--3--3--3--3--3--|
E|-------------------------------------------------|-------------------------------------------------|


E|-------------------------------------------------|-------------------------------------------------|
B|-------------------------------------------------|-------------------------------------------------|
G|-------------------------------------------------|-------------------------------------------------|
D|-------------------------------------------------|-------------------------------------------------|
A|-3--3--3--3--3--3--3--3--3--3--3--3--3--3--3--3--|-3--3--3--3--3--3--3--3--3--3--3--3--3--3--3--3--|
E|-------------------------------------------------|-------------------------------------------------|


E|-------------------------------------------------|
B|-------------------------------------------------|
G|-------------------------------------------------|
D|-------------------------------------------------|
A|-3--3--3--3--3--3--3--3--3--3--3--3--3--3--3--3--|
E|-------------------------------------------------|





Track 2: Synth

E|--------|--------|--------|--------|--------|--------|--------|--------|--------|
B|--------|--------|--------|--------|--------|--------|--------|--------|--------|
G|--------|--------|--------|--------|--------|--------|--------|--------|--------|
D|--------|--------|--------|--------|--------|--------|--------|--------|--------|
A|-3------|-3------|-3------|-3------|--------|--------|--------|--------|--------|
E|--------|--------|--------|--------|--------|--------|--------|--------|--------|


E|--------|--------|--------|--------|--------|--------|--------|--------|--------|
B|--------|--------|--------|--------|--------|--------|--------|--------|--------|
G|--------|--------|--------|--------|--------|--------|--------|--------|--------|
D|--------|--------|--------|--------|--------|--------|--------|--------|--------|
A|--------|--------|--------|--------|--------|--------|--------|--------|--------|
E|--------|--------|--------|--------|--------|--------|--------|--------|--------|


E|--------|--------|--------|--------|--------|--------|--------|--------|--------|
B|--------|--------|--------|--------|--------|--------|--------|--------|--------|
G|--------|--------|--------|--------|--------|--------|--------|--------|--------|
D|--------|--------|--------|--------|--------|--------|--------|--------|--------|
A|--------|--------|--------|--------|--------|--------|--------|--------|--------|
E|--------|--------|--------|--------|--------|--------|--------|--------|--------|


E|--------|--------|--------|--------|--------|--------|--------|--------|--------|
B|--------|--------|--------|--------|--------|--------|--------|--------|--------|
G|--------|--------|--------|--------|--------|--------|--------|--------|--------|
D|--------|--------|--------|--------|--------|--------|--------|--------|--------|
A|--------|--------|--------|--------|--------|--------|--------|--------|--------|
E|--------|--------|--------|--------|--------|--------|--------|--------|--------|


E|--------|--------|--------|--------|--------|--------|--------|--------|--------|
B|--------|--------|--------|--------|--------|--------|--------|--------|--------|
G|--------|--------|--------|--------|--------|--------|--------|--------|--------|
D|--------|--------|--------|--------|--------|--------|--------|--------|--------|
A|--------|--------|--------|--------|--------|--------|--------|--------|--------|
E|--------|--------|--------|--------|--------|--------|--------|--------|--------|


E|--------|--------|--------|--------|--------|--------|--------|--------|--------|
B|--------|--------|--------|--------|--------|--------|--------|--------|--------|
G|--------|--------|--------|--------|--------|--------|--------|--------|--------|
D|--------|--------|--------|--------|--------|--------|--------|--------|--------|
A|--------|--------|--------|--------|--------|--------|--------|--------|--------|
E|--------|--------|--------|--------|--------|--------|--------|--------|--------|


E|--------|--------|--------|--------|--------|--------|--------|--------|--------|
B|--------|--------|--------|--------|--------|--------|--------|--------|--------|
G|--------|--------|--------|--------|--------|--------|--------|--------|--------|
D|--------|--------|--------|--------|--------|--------|--------|--------|--------|
A|--------|--------|--------|--------|--------|--------|--------|--------|--------|
E|--------|--------|--------|--------|--------|--------|--------|--------|--------|


E|--------|--------|--------|--------|--------|--------|--------|--------|--------|
B|--------|--------|--------|--------|--------|--------|--------|--------|--------|
G|--------|--------|--------|--------|--------|--------|--------|--------|--------|
D|--------|--------|--------|--------|--------|--------|--------|--------|--------|
A|--------|--------|--------|--------|--------|--------|--------|--------|--------|
E|--------|--------|--------|--------|--------|--------|--------|--------|--------|


E|--------|--------|--------|--------|--------|--------|--------|--------|--------|
B|--------|--------|--------|--------|--------|--------|--------|--------|--------|
G|--------|--------|--------|--------|--------|--------|--------|--------|--------|
D|--------|--------|--------|--------|--------|--------|--------|--------|--------|
A|--------|--------|--------|--------|--------|--------|--------|--------|--------|
E|--------|--------|--------|--------|--------|--------|--------|--------|--------|


E|--------|--------|--------|--------|--------|--------|--------|--------|--------|
B|--------|--------|--------|--------|--------|--------|--------|--------|--------|
G|--------|--------|--------|--------|--------|--------|--------|--------|--------|
D|--------|--------|--------|--------|--------|--------|--------|--------|--------|
A|--------|--------|--------|--------|--------|--------|--------|--------|--------|
E|--------|--------|--------|--------|--------|--------|--------|--------|--------|


E|--------|--------|--------|--------|--------|--------|--------|--------|--------|
B|--------|--------|--------|--------|--------|--------|--------|--------|--------|
G|--------|--------|--------|--------|--------|--------|--------|--------|--------|
D|--------|--------|--------|--------|--------|--------|--------|--------|--------|
A|--------|--------|--------|--------|--------|--------|--------|--------|--------|
E|--------|--------|--------|--------|--------|--------|--------|--------|--------|


E|--------|--------|--------|--------|--------|
B|--------|--------|--------|--------|--------|
G|--------|--------|--------|--------|--------|
D|--------|--------|--------|--------|--------|
A|--------|--------|--------|--------|--------|
E|--------|--------|--------|--------|--------|





Track 3: Rhy Guitar

E|--------|--------|--------|--------|----------------------------------|---------------------------|
B|--------|--------|--------|--------|----------------------------------|---------------------------|
G|--------|--------|--------|--------|-5------------5------3------5-----|-------5------3------5-----|
D|--------|--------|--------|--------|-5------------5------3------5-----|-------5------3------5-----|
A|--------|--------|--------|--------|-3------------3------1------3-----|-------3------1------3-----|
E|--------|--------|--------|--------|----------------------------------|---------------------------|


E|-------------------------|--------|----------------------------------|-------------------------|
B|-------------------------|--------|----------------------------------|-------------------------|
G|-------5-----------------|--------|-5------------5------3------5-----|-----------5------3------|
D|-------5------5------6---|-6------|-5------------5------3------5-----|-----------5------3------|
A|-------3------5------6---|-6------|-3------------3------1------3-----|-----------3------1------|
E|--------------3------4---|-4------|----------------------------------|-------------------------|


E|--------------------------------|--------|-------------------------------------|
B|--------------------------------|--------|-------------------8------6------8---|
G|-5------------5-----------------|--------|-5-----------8--8--8------7------8---|
D|-5------------5------5------6---|-6------|-5-----------8--8--8------8------8---|
A|-3------------3------5------6---|-6------|-3-----------------------------------|
E|---------------------3------4---|-4------|-------------------------------------|


E|-----------------------------|-----------------------------|--------|-------------------------------------|
B|-8---------8------6------8---|-8---------------------------|--------|-------------------8------6------8---|
G|-8---------8------7------8---|-8---------5-----------------|--------|-5-----------8--8--8------7------8---|
D|-8---------8------8------8---|-8---------5------5------6---|-6------|-5-----------8--8--8------8------8---|
A|-----------------------------|-----------3------5------6---|-6------|-3-----------------------------------|
E|-----------------------------|------------------3------4---|-4------|-------------------------------------|


E|-----------------------------|-----------------------------|--------|--------------|
B|-8---------8------6------8---|-8---------------------------|--------|--------------|
G|-8---------8------7------8---|-8---------5-----------------|--------|--------------|
D|-8---------8------8------8---|-8---------5------5------6---|-6------|--------5--5--|
A|-----------------------------|-----------3------5------6---|-6------|-6------3--3--|
E|-----------------------------|------------------3------4---|-4------|-4------------|


E|-----------------|--------|--------|--------|--------|--------|--------|--------|
B|-----------------|--------|--------|--------|--------|--------|--------|--------|
G|-----------------|--------|--------|--------|--------|--------|--------|--------|
D|-5---------------|--------|--------|--------|--------|--------|--------|--------|
A|-3---------------|--------|--------|--------|--------|--------|--------|--------|
E|-----------------|--------|--------|--------|--------|--------|--------|--------|


E|--------|--------|--------|--------|--------|--------|--------|--------|--------|
B|--------|--------|--------|--------|--------|--------|--------|--------|--------|
G|--------|--------|--------|--------|--------|--------|--------|--------|--------|
D|--------|--------|--------|--------|--------|--------|--------|--------|--------|
A|--------|--------|--------|--------|--------|--------|--------|--------|--------|
E|--------|--------|--------|--------|--------|--------|--------|--------|--------|


E|--------|--------------|-------------|--------------|-------------|--------------|
B|--------|--------------|-8-----6-----|--------------|-------------|--------------|
G|--------|--------------|-8-----7-----|--------------|-------------|--------------|
D|--------|--------3--3--|-8-----8-----|--------3--3--|-5----3------|--------3--3--|
A|--------|-3------3--3--|-------------|-3------3--3--|-3----1------|-3------3--3--|
E|--------|-1------------|-------------|-1------------|-------------|-1------------|


E|-------------|-----------------------------|-------------|--------|--------|--------|
B|-8-----6-----|-----------------------------|-------------|--------|--------|-8------|
G|-8-----7-----|-----------------------------|-------------|--------|--------|-8------|
D|-8-----8-----|-3----2----3---5----3----5---|-6-----------|--------|--------|--------|
A|-------------|-----------------------------|-------------|--------|--------|--------|
E|-------------|-----------------------------|-------------|--------|--------|--------|


E|--------|-----------------|--------|--------|--------|-----------------|--------|
B|-8------|-6------6--8--6--|-4------|-8------|-8------|-6------6--8--6--|-4------|
G|-8------|-7------7--8--7--|-5------|-8------|-8------|-7------7--8--7--|-5------|
D|--------|-----------------|--------|--------|--------|-----------------|--------|
A|--------|-----------------|--------|--------|--------|-----------------|--------|
E|--------|-----------------|--------|--------|--------|-----------------|--------|


E|--------|--------|--------|--------|--------|--------|--------|--------|--------|
B|--------|--------|--------|--------|--------|--------|--------|--------|--------|
G|--------|--------|--------|--------|--------|--------|--------|--------|--------|
D|--------|--------|--------|--------|--------|--------|--------|--------|--------|
A|--------|--------|--------|--------|--------|--------|--------|--------|--------|
E|--------|--------|--------|--------|--------|--------|--------|--------|--------|


E|--------|--------|--------|--------|--------|--------|--------|--------|--------|
B|--------|--------|--------|--------|--------|--------|--------|--------|--------|
G|--------|--------|--------|--------|--------|--------|--------|--------|--------|
D|--------|--------|--------|--------|--------|--------|--------|--------|--------|
A|--------|--------|--------|--------|--------|--------|--------|--------|--------|
E|--------|--------|--------|--------|--------|--------|--------|--------|--------|


E|--------|--------|--------------|-------------|--------------|-------------|--------------|
B|--------|--------|--------------|-8-----6-----|--------------|-------------|--------------|
G|--------|--------|--------------|-8-----7-----|--------------|-------------|--------------|
D|--------|--------|--------3--3--|-8-----8-----|--------3--3--|-5----3------|--------3--3--|
A|--------|--------|-3------3--3--|-------------|-3------3--3--|-3----1------|-3------3--3--|
E|--------|--------|-1------------|-------------|-1------------|-------------|-1------------|


E|-------------|-----------------------------|--------|---------------------------------|
B|-8-----6-----|-----------------------------|--------|---------------------------------|
G|-8-----7-----|-----------------------------|--------|---------------------------------|
D|-8-----8-----|-3----2----3---5----3----5---|-6------|---------------------------------|
A|-------------|-----------------------------|--------|-6--6---6--6--6--6--6------------|
E|-------------|-----------------------------|--------|-4--4---4--4--4--4--4--4---------|


E|--------|--------|----------------------------------|---------------------------|
B|--------|--------|----------------------------------|---------------------------|
G|--------|--------|-5------------5------3------5-----|-------5------3------5-----|
D|--------|--------|-5------------5------3------5-----|-------5------3------5-----|
A|--------|--------|-3------------3------1------3-----|-------3------1------3-----|
E|--------|--------|----------------------------------|---------------------------|


E|-------------------------|--------|----------------------------------|---------------------------|
B|-------------------------|--------|----------------------------------|---------------------------|
G|-------5-----------------|--------|-5------------5------3------5-----|-------5------3------5-----|
D|-------5------5------6---|-6------|-5------------5------3------5-----|-------5------3------5-----|
A|-------3------5------6---|-6------|-3------------3------1------3-----|-------3------1------3-----|
E|--------------3------4---|-4------|----------------------------------|---------------------------|


E|-------------------------|--------|-------------------------------------|-----------------------------|
B|-------------------------|--------|-------------------8------6------8---|-8---------8------6------8---|
G|-------5-----------------|--------|-5-----------8--8--8------7------8---|-8---------8------7------8---|
D|-------5------5------6---|-6------|-5-----------8--8--8------8------8---|-8---------8------8------8---|
A|-------3------5------6---|-6------|-3-----------------------------------|-----------------------------|
E|--------------3------4---|-4------|-------------------------------------|-----------------------------|


E|-----------------------------|--------------|-------------------------------------|
B|-8---------------------------|--------------|-------------------8------6------8---|
G|-8---------5-----------------|--------------|-5-----------8--8--8------7------8---|
D|-8---------5------5------6---|-6------6--6--|-5-----------8--8--8------8------8---|
A|-----------3------5------6---|-6------6--6--|-3-----------------------------------|
E|------------------3------4---|-4------------|-------------------------------------|


E|-----------------------------|-----------------------------|--------------|
B|-8---------8------6------8---|-8---------------------------|--------------|
G|-8---------8------7------8---|-8---------5-----------------|--------------|
D|-8---------8------8------8---|-8---------5------5------6---|-6------6--6--|
A|-----------------------------|-----------3------5------6---|-6------6--6--|
E|-----------------------------|------------------3------4---|-4------------|





Track 4: Untitled

G|--------|--------|--------|--------|----------------------------------|---------------------------|
D|--------|--------|--------|--------|----------------------------------|---------------------------|
A|--------|--------|--------|--------|-3------------3------1------3-----|-------3------1------3-----|
E|--------|--------|--------|--------|----------------------------------|---------------------------|


G|-------------------------|--------|----------------------------------|-------------------------|
D|-------------------------|--------|----------------------------------|-------------------------|
A|-------3-----------------|--------|-3------------3------1------3-----|-----------3------1------|
E|--------------3------4---|-4------|----------------------------------|-------------------------|


G|--------------------------------|--------|---------------------------------|---------------------------------|
D|--------------------------------|--------|---------------------------------|---------------------------------|
A|-3------------3-----------------|--------|-3-------3-------3-------3-------|-3-------3-------3-------3-------|
E|---------------------3------4---|-4------|---------------------------------|---------------------------------|


G|-----------------------------------|------------------------------|---------------------------------|
D|-----------------------------------|------------------------------|---------------------------------|
A|-3-------3-------3-----------------|------------------------------|-3-------3-------3-------3-------|
E|------------------------3------4---|-4----4-------4-------4-------|---------------------------------|


G|---------------------------------|-----------------------------------|------------------------------|
D|---------------------------------|-----------------------------------|------------------------------|
A|-3-------3-------3-------3-------|-3-------3-------3-----------------|------------------------------|
E|---------------------------------|------------------------3------4---|-4----4-------4-------4-------|


G|-------------------------------------|---------------------------------|-------------------------------------|
D|-------------------------------------|---------------------------------|-------------------------------------|
A|-------------------------------3--3--|-3-------3-------3-------3-------|-3-------3-------3---------------1---|
E|-4-------4-------4-------4-----------|---------------------------------|------------------------1--1--3------|


G|---------------------------------|---------------------------------|---------------------------------|
D|---------------------------------|---------------------------------|---------------------------------|
A|-3-------3-------3-------3-------|-3-------3-------3-------3-------|-3-------3-------3-------3-------|
E|---------------------------------|---------------------------------|---------------------------------|


G|-------------------------------------|---------------------------------|---------------------------------|
D|-------------------------------------|---------------------------------|---------------------------------|
A|-3-------3-------3---------------1---|-3-------3-------3-------3-------|-3-------3-------3-------3-------|
E|------------------------1--1--3------|---------------------------------|---------------------------------|


G|---------------------------------|-------------------------------------|---------------------------------|
D|---------------------------------|-------------------------------------|---------------------------------|
A|-3-------3-------3-------3-------|-3-------3-------3---------------1---|-3-------3-------3-------3-------|
E|---------------------------------|------------------------1--1--3------|---------------------------------|


G|---------------------------------|---------------------------------|-------------------------------------|
D|---------------------------------|---------------------------------|-------------------------------------|
A|---------------------------------|-1-------1-------1-------1-------|-3-------3-------3---------------1---|
E|-4-------4-------4-------4-------|---------------------------------|------------------------1--1--3------|


G|---------------------------------|---------------------------------|---------------------------------|
D|---------------------------------|---------------------------------|---------------------------------|
A|-3-------3-------3-------3-------|---------------------------------|-1-------1-------1-------1-------|
E|---------------------------------|-4-------4-------4-------4-------|---------------------------------|


G|-------------------------------|---------------------------------|----------------------------|
D|-------------------------------|---------------------------------|----------------------------|
A|-3-------3-------1---1----3----|---------------------------------|--------------1---1----3----|
E|-------------------------------|-1-------1-------1-------1-------|-3-------3------------------|


G|---------------------------------|-------------------------|---------------------------------|
D|---------------------------------|-------------------------|---------------------------------|
A|---------------------------------|-3----1----1---1----3----|---------------------------------|
E|-1-------1-------1-------1-------|-------------------------|-1-------1-------1-------1-------|


G|----------------------------|-----------------------------|---------------------------------|
D|----------------------------|-3----2----3---5----3----5---|-----------6--6------------------|
A|--------------1---1----3----|-----------------------------|-----------------6--6------------|
E|-3-------3------------------|-----------------------------|-4--4---4--------------4---------|


G|---------------------------------|-------------------------------------|---------------------------------|
D|---------------------------------|-------------------------------------|---------------------------------|
A|-3-------3-------3-------3-------|-3-------3-------3---------------1---|-3-------3-------3-------3-------|
E|---------------------------------|------------------------1--1--3------|---------------------------------|


G|---------------------------------|---------------------------------|-----------------------3-------------|
D|---------------------------------|---------------------------------|-----------------3--5------5--3--1---|
A|-3-------3-------3-------3-------|-3-------3-------3-------3-------|-3-------3---------------------------|
E|---------------------------------|---------------------------------|-------------------------------------|


G|---------------------------------|---------------------------------|---------------------------------|
D|---------------------------------|---------------------------------|---------------------------------|
A|-3-------3-------3-------3-------|-3-------3-------3-------3-------|-3-------3-------3-------3-------|
E|---------------------------------|---------------------------------|---------------------------------|


G|-------------------------------|---------------------------------|----------------------------|
D|-------------------------------|---------------------------------|----------------------------|
A|-3-------3-------1---1----3----|---------------------------------|--------------1---1----3----|
E|-------------------------------|-1-------1-------1-------1-------|-3-------3------------------|


G|---------------------------------|-------------------------|---------------------------------|
D|---------------------------------|-------------------------|---------------------------------|
A|---------------------------------|-3----1----1---1----3----|---------------------------------|
E|-1-------1-------1-------1-------|-------------------------|-1-------1-------1-------1-------|


G|----------------------------|-----------------------------|---------------------------------|
D|----------------------------|-3----2----3---5----3----5---|-----------6--6------------------|
A|--------------1---1----3----|-----------------------------|-----------------6--6------------|
E|-3-------3------------------|-----------------------------|-4--4---4--------------4---------|


G|---------------------------------|-------------------------------------|---------------------------------|
D|---------------------------------|-------------------------------------|---------------------------------|
A|-3-------3-------3-------3-------|-3-------3-------3---------------1---|-3-------3-------3-------3-------|
E|---------------------------------|------------------------1--1--3------|---------------------------------|


G|-------------------------------------|---------------------------------|---------------------------------|
D|-------------------------------------|---------------------------------|---------------------------------|
A|-3-------3-------3---------------1---|-3-------3-------3-------3-------|-3-------3-------3-------3-------|
E|------------------------1--1--3------|---------------------------------|---------------------------------|


G|---------------------------------|---------------------8--------|---------------------------------|
D|---------------------------------|-------------------------10---|---------------------------------|
A|-3-------3-------3-------3-------|-3-------3-------10-----------|-3-------3-------3-------3-------|
E|---------------------------------|------------------------------|---------------------------------|


G|---------------------------------|---------------------------------|-------------------------------|
D|---------------------------------|---------------------------------|-------------------------------|
A|-3-------3-------3-------3-------|-3-------3-------3-------3-------|-3-------3-------1---1----3----|
E|---------------------------------|---------------------------------|-------------------------------|


G|---------------------------------|----------------------------|---------------------------------|
D|---------------------------------|----------------------------|---------------------------------|
A|---------------------------------|--------------1---1----3----|---------------------------------|
E|-1-------1-------1-------1-------|-3-------3------------------|-1-------1-------1-------1-------|


G|-------------------------|---------------------------------|----------------------------|
D|-------------------------|---------------------------------|----------------------------|
A|-3----1----1---1----3----|---------------------------------|--------------1---1----3----|
E|-------------------------|-1-------1-------1-------1-------|-3-------3------------------|


G|-----------------------------|---------------------------------|---------------------------------|
D|-3----2----3---5----3----5---|---------------------------------|-----------6--6------------------|
A|-----------------------------|---------------------------------|-----------------6--6------------|
E|-----------------------------|-4-------4-------4-------4-------|-4--4---4--------------4---------|


G|---------------------------------|-------------------------------------|-----------------------------------|
D|---------------------------------|-------------------------------------|-----------------------------------|
A|-3-------3-------3-------3-------|-3-------3-------3---------------1---|-3-------3-------3-------3-----1---|
E|---------------------------------|------------------------1--1--3------|-----------------------------------|


G|-----------------------------------|-----------------------------------|--------------------------------|
D|-----------------------------------|-----------------------------------|--------------------------------|
A|-3-------3-------3-------3-----1---|-3-------3-------3-----------------|----------------------------1---|
E|-----------------------------------|------------------------3------4---|-4----4-------4-------4---------|


G|-----------------------------------|-----------------------------------|-----------------------------------|
D|-----------------------------------|-----------------------------------|-----------------------------------|
A|-3-------3-------3-------3-----1---|-3-------3-------3-------3-----1---|-3-------3-------3-----------------|
E|-----------------------------------|-----------------------------------|------------------------3------4---|


G|--------------------------------|-----------------------------------|-----------------------------------|
D|--------------------------------|-----------------------------------|-----------------------------------|
A|----------------------------1---|-3-------3-------3-------3-----1---|-3-------3-------3-------3-----1---|
E|-4----4-------4-------4---------|-----------------------------------|-----------------------------------|


G|-----------------------------------|--------------------------------|-----------------------------------|
D|-----------------------------------|--------------------------------|-----------------------------------|
A|-3-------3-------3-----------------|----------------------------1---|-3-------3-------3-------3-----1---|
E|------------------------3------4---|-4----4-------4-------4---------|-----------------------------------|


G|-----------------------------------|-----------------------------------|--------------------------------|
D|-----------------------------------|-----------------------------------|--------------------------------|
A|-3-------3-------3-------3-----1---|-3-------3-------3-----------------|----------------------------1---|
E|-----------------------------------|------------------------3------4---|-4----4-------4-------4---------|