Site menu:

    

Browse: 0-9 A B C D E F G H I J K L N O P Q R S T U V W X Y Z

summoning - long lost to where no pathway goes:



/---------------------------------------------------------------------------
/ The following is the author's own interpretation of the song, to be used -
/ for studying or private use only, removal of any part of this ten line   -
/ header is illegal!!!  Removal of the transcribers name or anything       -
/ relevant to the transcriber is also illegal, as so is the removal of the -
/ place inwhich the tab was downloaded. Publishing as well as printing of  -
/ the tab is illegal without permission of the transcriber and copyright   -
/ owner of the song. Failure to apply to these laws result will in legal   -
/ action from the appropriate parties.                                     -
/---------------------------------------------------------------------------

downloaded from Displacer's Tablature Site at
        http://www.dsrmusic.com/metaltab
join the death/black tab emailing list by filling out the free
subscription form at http://www.dsrmusic.com/metaltab/join.htm


#----------------------------------PLEASE NOTE---------------------------------#
#This file is the author's own work and represents their interpretation of the #
#song. You may only use this file for private study, scholarship, or research. #
#------------------------------------------------------------------------------#

  Visit MetalTabs.com for more metal tablature
  
SUMMONING - LONG LOST TO WHERE NO PATHWAY GOES
ALBUM - STRONGHOLD

GUITAR ONLY


Tabbed by Lord Benoit (benoit.t1@sympatico.ca)
Please E-mail me for any corrections or comments
(but go easy on the flamming, this is my first tab)




Tuning: E (standard)

Riff 1:
(0:28)
-------------------------------------------------|
-------------------------------------------------|
----13-15----15-16----15----13-15----13-15----13-|
-13-------13-------13----13-------13-------13----|
-------------------------------------------------|
-------------------------------------------------|

-------------------------------------------------|
-------------------------------------------------|
-11-13-15-11-13-15-11-13-15-11-13-15-11-13-15-11-|
-------------------------------------------------|
-------------------------------------------------|
-------------------------------------------------|

-------------------------------------------------|
-------------------------------------------------|
----13-15----15-16----15----13-15----13-15----13-|
-13-------13-------13----13-------13-------13----|
-------------------------------------------------|
-------------------------------------------------|

--------------------------------------------|
--------------------------------------------|
-11-10-8-11-10-8-11-10-8-11-10-8-11-10-8-11-|
--------------------------------------------|
--------------------------------------------|
--------------------------------------------|

--------------------------------------|
--------------------------------------|
---8-10---8-10---8-10---8-10---8-10---|
-8------8------8------8------8------8-|
--------------------------------------|
--------------------------------------|






Riff 2:
(1:24)
-------------------------------------|
-------------------------------------|
-------------------------------------|
-13-13-13-13-9-9-8-8-9-9-8-8-6-6-6-6-|
-------------------------------------|
-------------------------------------|

-------------------------------------------------|
-------------------------------------------------|
-------------------------------------------------|
-15-15-15-15-15-15-15-15-15-15-15-15-11-11-11-11-|
-------------------------------------------------|
-------------------------------------------------|

-------------------------------------|
-------------------------------------|
-------------------------------------|
-13-13-13-13-9-9-8-8-9-9-8-8-6-6-6-6-|
-------------------------------------|
-------------------------------------|

-------------------------------------------------|
-------------------------------------------------|
-------------------------------------------------|
-12-12-12-12-12-12-12-12-12-12-12-12-12-12-12-12-|
-------------------------------------------------|
-------------------------------------------------|

-------------------------------------|
-------------------------------------|
-------------------------------------|
-13-13-13-13-9-9-8-8-9-9-8-8-6-6-6-6-|
-------------------------------------|
-------------------------------------|

-------------------------------------------------|
-------------------------------------------------|
-------------------------------------------------|
-15-15-15-15-15-15-15-15-15-15-15-15-11-11-11-11-|
-------------------------------------------------|
-------------------------------------------------|

-------------------------------------|
-------------------------------------|
-------------------------------------|
-13-13-13-13-9-9-8-8-9-9-8-8-6-6-6-6-|
-------------------------------------|
-------------------------------------|

-------------------------------------------------|
-------------------------------------------------|
-------------------------------------------------|
-14-14-14-14-14-14-14-14-16-16-16-16-14-14-14-14-|
-------------------------------------------------|
-------------------------------------------------|






Riff 3
(3:29)
|---------------------------------|----------------------------------|
|---------------------------------|----------------------------------|
|---------------------------------|----------------------------------|
|-9-9-9-9-9-9-9-9-9-9-9-9-9-9-9-9-|--8-8-8-8-8-8-8-8-8-8-8-8-8-8-8-8-|
|---------------------------------|----------------------------------|
|-7-7-7-7-7-7-7-7-7-7-7-7-7-7-7-7-|--6-6-6-6-6-6-6-6-6-6-6-6-6-6-6-6-|

-------------------------------------------------|
-------------------------------------------------|
-------------------------------------------------|
-13-13-13-13-13-13-13-13-13-13-13-13-13-13-13-13-|
-------------------------------------------------|
-11-11-11-11-11-11-11-11-11-11-11-11-11-11-11-11-|

-------------------------------------------------|
-------------------------------------------------|
-------------------------------------------------|
-15-15-15-15-15-15-15-15-15-15-15-15-15-15-15-15-|
-------------------------------------------------|
-13-13-13-13-13-13-13-13-13-13-13-13-13-13-13-13-|

-------------------------------------------------|
-------------------------------------------------|
-------------------------------------------------|
-16-16-16-16-16-16-16-16-16-16-16-16-16-16-16-16-|
-------------------------------------------------|
-14-14-14-14-14-14-14-14-14-14-14-14-14-14-14-14-|

-------------------------------------------------|
-------------------------------------------------|
-------------------------------------------------|
-18-18-18-18-18-18-18-18-18-18-18-18-18-18-18-18-|
-------------------------------------------------|
-16-16-16-16-16-16-16-16-16-16-16-16-16-16-16-16-|

-------------------------------------------------|
-------------------------------------------------|
-------------------------------------------------|
-13-13-13-13-13-13-13-13-13-13-13-13-13-13-13-13-|
-------------------------------------------------|
-11-11-11-11-11-11-11-11-11-11-11-11-11-11-11-11-|

-------------------------------------------------|
-------------------------------------------------|
-------------------------------------------------|
-12-12-12-12-12-12-12-12-12-12-12-12-12-12-12-12-|
-------------------------------------------------|
-10-10-10-10-10-10-10-10-10-10-10-10-10-10-10-10-|






Riff 4:
(6:20)
|-------------------------------------------------|
|-------------------------------------------------|
|-15-15-15-15-15-15-15-15-13-13-13-13-15-15-16-16-|
|-------------------------------------------------|
|-------------------------------------------------|
|-------------------------------------------------|

-------------------------------------------------|
-------------------------------------------------|
-15-15-15-15-15-15-15-15-11-11-11-11-10-10-11-11-|
-------------------------------------------------|
-------------------------------------------------|
-------------------------------------------------|

-------------------------------------------------|
-------------------------------------------------|
-15-15-15-15-15-15-15-15-13-13-13-13-15-15-16-16-|
-------------------------------------------------|
-------------------------------------------------|
-------------------------------------------------|

-------------------------------------------------|
-------------------------------------------------|
-15-15-15-15-15-15-15-15-11-11-11-11-11-11-11-11-|
-------------------------------------------------|
-------------------------------------------------|
-------------------------------------------------|

------------------------------------------------|
------------------------------------------------|
--10-10-10-10-10-10-10-10-8-8-10-10-11-11-13-13-|
------------------------------------------------|
------------------------------------------------|
------------------------------------------------|




SONG ORDER
----------

keyboard intro

riff 1 4x

riff 2

keyboard "solo"

riff 1 2x

riff 2

keyboard "solo"

riff 3 2x

keyboard "solo"

riff 2 2x

keyboard "solo"

riff 1 2x

riff 4 ~5x (fade out after 2x)

  Visit MetalTabs.com for more metal tablature