Site menu:

    

Browse: 0-9 A B C D E F G H I J K L N O P Q R S T U V W X Y Z

strung out - savant:



Title: Savant
Artist: 
Album: Element Of Sonic Defiance
Author: Strung Out


Track 1: Guitar 1

D|--------|--------|--------|-------------------------|--------|--------|--------|
A|--------|--------|--------|-------------------------|--------|--------|--------|
F|--------|--------|--------|-------------------------|--------|--------|--------|
C|-2------|-5------|-2------|-5---5---5--5--7---7-----|-2------|-5------|-2------|
G|-2------|-3------|-2------|-3---3---3--3--5---5-----|-2------|-3------|-2------|
D|--------|--------|--------|-------------------------|--------|--------|--------|


D|-------------------------|--------|--------|-------------------------------------------------|
A|-------------------------|-0------|-0------|-------------------------------------------------|
F|-------------------------|-0------|-0------|-------7--7--6--6--------------------------------|
C|-5---5---5--5--7---7-----|-2------|-2------|-------------------7--7--6--6--------6--6--7--7--|
G|-3---3---3--3--5---5-----|-2------|-2------|-9--9--------------------------9--9--------------|
D|-------------------------|-0------|-0------|-------------------------------------------------|


D|-------------------------------------------------|-------------------------------------------------|
A|-------------------------------------------------|-------------------------------------------------|
F|-------7--7--6--6--------------------7--7--6--6--|-------7--7--6--6--------------------------------|
C|-------------------7--7--6--6--------------------|-------------------7--7--6--6--------6--6--7--7--|
G|-9--9--------------------------9--9--------------|-9--9--------------------------9--9--------------|
D|-------------------------------------------------|-------------------------------------------------|


D|-------------------------------|-------------------------------------------------|
A|-------------------------------|-------------------------------------------------|
F|-------7--7--6--6--------6-----|-------7--7--6--6--------------------------------|
C|-------------------7--7--6-----|-------------------7--7--6--6--------6--6--7--7--|
G|-9--9--------------------4-----|-9--9--------------------------9--9--------------|
D|-------------------------------|-------------------------------------------------|


D|-------------------------------------------------|-------------------------------------------------|
A|-------------------------------------------------|-------------------------------------------------|
F|-------7--7--6--6--------------------------------|-------7--7--6--6--------------------------------|
C|-------------------7--7--6--6--------------------|-------------------7--7--6--6--------6--6--7--7--|
G|-9--9--------------------------9--9--4--4--4--4--|-9--9--------------------------9--9--------------|
D|-------------------------------------------------|-------------------------------------------------|


D|-------------------------------|-------------------------------------------------|
A|-------------------------------|-------------------------------------------------|
F|-------7--7--6--6--------6-----|-------7--7--6--6--------------------------------|
C|-------------------7--7--6-----|-4--4--7--7--6--6--7--7--6--6--4--4--6--6--7--7--|
G|-9--9--------------------4-----|-4--4--5--5--4--4--7--7--6--6--4--4--6--6--7--7--|
D|-------------------------------|-2--2--------------5--5--4--4--2--2--4--4--5--5--|


D|-------------------------------------------------|-------------------------------------------------|
A|-------------------------------------------------|-------------------------------------------------|
F|-------7--7--6--6--------------------------------|-------7--7--6--6--------------------------------|
C|-4--4--7--7--6--6--7--7--6--6--4--4--2--2--2--2--|-4--4--7--7--6--6--7--7--6--6--4--4--6--6--7--7--|
G|-4--4--5--5--4--4--7--7--6--6--4--4--2--2--2--2--|-4--4--5--5--4--4--7--7--6--6--4--4--6--6--7--7--|
D|-2--2--------------5--5--4--4--2--2--0--0--0--0--|-2--2--------------5--5--4--4--2--2--4--4--5--5--|


D|-------------------------------|-------------------------------------------------|
A|-------------------------------|-------------------------------------------------|
F|-------7--7--6--6--------------|-------------------------------------------------|
C|-4--4--7--7--6--6--7--7--2-----|-------------------------------------------------|
G|-4--4--5--5--4--4--7--7--2-----|-------5--5--4--4--------------------------------|
D|-2--2--------------5--5--0-----|-2--2--------------5--5--4--4--2--2--4--4--5--5--|


D|------------------------------------------|-------------------------------------------------|
A|------------------------------------------|-------------------------------------------------|
F|------------------------------------------|-------------------------------------------------|
C|-------------------------------------2----|-------------------------------------------------|
G|-------5--5--4--4--------------------2----|-------5--5--4--4--------------------------------|
D|-2--2--------------5--5--4--4--2--2--0----|-2--2--------------5--5--4--4--2--2--4--4--5--5--|


D|-------------------------------|-------------------------------------------------|
A|-------------------------------|-------------------------------------------------|
F|-------------------------6-----|-------7--7--6--6--------------------------------|
C|-------------------------6-----|-4--4--7--7--6--6--7--7--6--6--4--4--6--6--7--7--|
G|-------5--5--4--4--------4-----|-4--4--5--5--4--4--7--7--6--6--4--4--6--6--7--7--|
D|-2--2--------------5--5--------|-2--2--------------5--5--4--4--2--2--4--4--5--5--|


D|-------------------------------------------------|-------------------------------------------------|
A|-------------------------------------------------|-------------------------------------------------|
F|-------7--7--6--6--------------------------------|-------7--7--6--6--------------------------------|
C|-4--4--7--7--6--6--7--7--6--6--4--4--2--2--2--2--|-4--4--7--7--6--6--7--7--6--6--4--4--6--6--7--7--|
G|-4--4--5--5--4--4--7--7--6--6--4--4--2--2--2--2--|-4--4--5--5--4--4--7--7--6--6--4--4--6--6--7--7--|
D|-2--2--------------5--5--4--4--2--2--0--0--0--0--|-2--2--------------5--5--4--4--2--2--4--4--5--5--|


D|-------------------------------|-------------------------------------------------|
A|-------------------------------|-------------------------------------------------|
F|-------7--7--6--6--------------|-------7--7--6--6--------------------------------|
C|-4--4--7--7--6--6--7--7--2-----|-4--4--7--7--6--6--7--7--6--6--4--4--6--6--7--7--|
G|-4--4--5--5--4--4--7--7--2-----|-4--4--5--5--4--4--7--7--6--6--4--4--6--6--7--7--|
D|-2--2--------------5--5--0-----|-2--2--------------5--5--4--4--2--2--4--4--5--5--|


D|-------------------------------------------------|-------------------------------------------------|
A|-------------------------------------------------|-------------------------------------------------|
F|-------7--7--6--6--------------------------------|-------7--7--6--6--------------------------------|
C|-4--4--7--7--6--6--7--7--6--6--4--4--2--2--2--2--|-4--4--7--7--6--6--7--7--6--6--4--4--6--6--7--7--|
G|-4--4--5--5--4--4--7--7--6--6--4--4--2--2--2--2--|-4--4--5--5--4--4--7--7--6--6--4--4--6--6--7--7--|
D|-2--2--------------5--5--4--4--2--2--0--0--0--0--|-2--2--------------5--5--4--4--2--2--4--4--5--5--|


D|-------------------------------|-------------------------------------------------|
A|-------------------------------|-7--7--7--7--7--7--7--7--7--10-10-10-10-10-10-10-|
F|-------7--7--6--6--------6-----|-6--6--6--6--6--6--6--6--6--9--9--9--9--9--9--9--|
C|-4--4--7--7--6--6--7--7--6-----|-4--4--4--4--4--4--4--4--4--7--7--7--7--7--7--7--|
G|-4--4--5--5--4--4--7--7--4-----|-------------------------------------------------|
D|-2--2--------------5--5--------|-------------------------------------------------|


D|-------------------------------------------------|-------------------------------------------------|
A|-7--7--7--7--7--7--7--7--7--10-10-10-10-10-10-10-|-7--7--7--7--7--7--7--7--7--10-10-10-10-10-10-10-|
F|-6--6--6--6--6--6--6--6--6--9--9--9--9--9--9--9--|-6--6--6--6--6--6--6--6--6--9--9--9--9--9--9--9--|
C|-4--4--4--4--4--4--4--4--4--7--7--7--7--7--7--7--|-4--4--4--4--4--4--4--4--4--7--7--7--7--7--7--7--|
G|-------------------------------------------------|-------------------------------------------------|
D|-------------------------------------------------|-------------------------------------------------|


D|------------------------------|-------------------------------------------------|
A|------------------------------|-------7--7--5--5--------------------------------|
F|-6---6---6---6---6---6--------|-------------------6--6--4--4--------4-----4--6--|
C|-6---6---6---6---6---6---5----|-4--4--------------------------7--7-----7--------|
G|-4---4---4---4---4---4---5----|-------------------------------------------------|
D|-------------------------3----|-------------------------------------------------|


D|-------------------------------------------------|-------------------------------------------------|
A|-------7--7--5--5--------------------------------|-------7--7--5--5--------------------------------|
F|-------------------6--6--4--4--------------------|-------------------6--6--4--4--------4-----4--6--|
C|-4--4--------------------------7--7--------------|-4--4--------------------------7--7-----7--------|
G|-------------------------------------7--7--7--7--|-------------------------------------------------|
D|-------------------------------------------------|-------------------------------------------------|


D|-------------------------------|-------------------------------------------------|
A|-------7--7--5--5--------------|-------------------------------------------------|
F|-------------------6--6--6-----|-------7--7--6--6--------------------------------|
C|-4--4--------------------6-----|-4--4--7--7--6--6--7--7--6--6--4--4--6--6--7--7--|
G|-------------------------4-----|-4--4--5--5--4--4--7--7--6--6--4--4--6--6--7--7--|
D|-------------------------------|-2--2--------------5--5--4--4--2--2--4--4--5--5--|


D|-------------------------------------------------|-------------------------------------------------|
A|-------------------------------------------------|-------------------------------------------------|
F|-------7--7--6--6--------------------------------|-------7--7--6--6--------------------------------|
C|-4--4--7--7--6--6--7--7--6--6--4--4--2--2--2--2--|-4--4--7--7--6--6--7--7--6--6--4--4--6--6--7--7--|
G|-4--4--5--5--4--4--7--7--6--6--4--4--2--2--2--2--|-4--4--5--5--4--4--7--7--6--6--4--4--6--6--7--7--|
D|-2--2--------------5--5--4--4--2--2--0--0--0--0--|-2--2--------------5--5--4--4--2--2--4--4--5--5--|


D|-------------------------------|-------------------------------------------------|
A|-------------------------------|-------------------------------------------------|
F|-------7--7--6--6--------------|-------7--7--6--6--------------------------------|
C|-4--4--7--7--6--6--7--7--2-----|-4--4--7--7--6--6--7--7--6--6--4--4--6--6--7--7--|
G|-4--4--5--5--4--4--7--7--2-----|-4--4--5--5--4--4--7--7--6--6--4--4--6--6--7--7--|
D|-2--2--------------5--5--0-----|-2--2--------------5--5--4--4--2--2--4--4--5--5--|


D|-------------------------------------------------|-------------------------------------------------|
A|-------------------------------------------------|-------------------------------------------------|
F|-------7--7--6--6--------------------------------|-------7--7--6--6--------------------------------|
C|-4--4--7--7--6--6--7--7--6--6--4--4--2--2--2--2--|-4--4--7--7--6--6--7--7--6--6--4--4--6--6--7--7--|
G|-4--4--5--5--4--4--7--7--6--6--4--4--2--2--2--2--|-4--4--5--5--4--4--7--7--6--6--4--4--6--6--7--7--|
D|-2--2--------------5--5--4--4--2--2--0--0--0--0--|-2--2--------------5--5--4--4--2--2--4--4--5--5--|


D|-------------------------------|-------------------------------------------------|
A|-------------------------------|-------------------------------------------------|
F|-------7--7--6--6--------6-----|-------7--7--6--6--------------------------------|
C|-4--4--7--7--6--6--7--7--6-----|-4--4--7--7--6--6--7--7--6--6--4--4--6--6--7--7--|
G|-4--4--5--5--4--4--7--7--4-----|-4--4--5--5--4--4--7--7--6--6--4--4--6--6--7--7--|
D|-2--2--------------5--5--------|-2--2--------------5--5--4--4--2--2--4--4--5--5--|


D|-------------------------------------------------|-------------------------------------------------|
A|-------------------------------------------------|-------------------------------------------------|
F|-------7--7--6--6--------------------------------|-------7--7--6--6--------------------------------|
C|-4--4--7--7--6--6--7--7--6--6--4--4--2--2--2--2--|-4--4--7--7--6--6--7--7--6--6--4--4--6--6--7--7--|
G|-4--4--5--5--4--4--7--7--6--6--4--4--2--2--2--2--|-4--4--5--5--4--4--7--7--6--6--4--4--6--6--7--7--|
D|-2--2--------------5--5--4--4--2--2--0--0--0--0--|-2--2--------------5--5--4--4--2--2--4--4--5--5--|


D|-------------------------------|-------------------------------------------------|
A|-------------------------------|-------------------------------------------------|
F|-------7--7--6--6--------------|-------7--7--6--6--------------------------------|
C|-4--4--7--7--6--6--7--7--2-----|-4--4--7--7--6--6--7--7--6--6--4--4--6--6--7--7--|
G|-4--4--5--5--4--4--7--7--2-----|-4--4--5--5--4--4--7--7--6--6--4--4--6--6--7--7--|
D|-2--2--------------5--5--0-----|-2--2--------------5--5--4--4--2--2--4--4--5--5--|


D|-------------------------------------------------|-------------------------------------------------|
A|-------------------------------------------------|-------------------------------------------------|
F|-------7--7--6--6--------------------------------|-------7--7--6--6--------------------------------|
C|-4--4--7--7--6--6--7--7--6--6--4--4--2--2--2--2--|-4--4--7--7--6--6--7--7--6--6--4--4--6--6--7--7--|
G|-4--4--5--5--4--4--7--7--6--6--4--4--2--2--2--2--|-4--4--5--5--4--4--7--7--6--6--4--4--6--6--7--7--|
D|-2--2--------------5--5--4--4--2--2--0--0--0--0--|-2--2--------------5--5--4--4--2--2--4--4--5--5--|


D|-------------------------------|
A|-------------------------------|
F|-------7--7--6--6--------6-----|
C|-4--4--7--7--6--6--7--7--6-----|
G|-4--4--5--5--4--4--7--7--4-----|
D|-2--2--------------5--5--------|





Track 2: Untitled

G|--------|--------|--------|--------|--------|--------|--------|--------|--------|
D|--------|--------|--------|--------|--------|--------|--------|--------|--------|
A|--------|--------|--------|--------|--------|--------|--------|--------|--------|
E|--------|--------|--------|--------|--------|--------|--------|--------|--------|


G|--------|--------|--------|--------|--------|--------|--------|--------|--------|
D|--------|--------|--------|--------|--------|--------|--------|--------|--------|
A|--------|--------|--------|--------|--------|--------|--------|--------|--------|
E|--------|--------|--------|--------|--------|--------|--------|--------|--------|


G|--------|--------|--------|--------|--------|--------|--------|--------|--------|
D|--------|--------|--------|--------|--------|--------|--------|--------|--------|
A|--------|--------|--------|--------|--------|--------|--------|--------|--------|
E|--------|--------|--------|--------|--------|--------|--------|--------|--------|


G|--------|--------|--------|--------|--------|--------|--------|--------|--------|
D|--------|--------|--------|--------|--------|--------|--------|--------|--------|
A|--------|--------|--------|--------|--------|--------|--------|--------|--------|
E|--------|--------|--------|--------|--------|--------|--------|--------|--------|


G|--------|--------|--------|--------|--------|--------|--------|--------|--------|
D|--------|--------|--------|--------|--------|--------|--------|--------|--------|
A|--------|--------|--------|--------|--------|--------|--------|--------|--------|
E|--------|--------|--------|--------|--------|--------|--------|--------|--------|


G|--------|--------|--------|--------|--------|--------|--------|--------|--------|
D|--------|--------|--------|--------|--------|--------|--------|--------|--------|
A|--------|--------|--------|--------|--------|--------|--------|--------|--------|
E|--------|--------|--------|--------|--------|--------|--------|--------|--------|


G|--------|--------|--------|--------|
D|--------|--------|--------|--------|
A|--------|--------|--------|--------|
E|--------|--------|--------|--------|