Site menu:

    

Browse: 0-9 A B C D E F G H I J K L N O P Q R S T U V W X Y Z

stone temple pilots - crackerman:



Title: Crackerman
Artist: 
Album: Core
Author: 


Track 1: Guitar 1

E|------------------------------|---------------------------------|---------------------------------|
B|------------------------------|---------------------------------|---------------------------------|
G|------------------------------|---------------------------------|---------------------------------|
D|------4---4---4---4---4---4---|-4---4---4---4---4---4---4---4---|-4---4---------------------------|
A|------0---2---2---0---2---2---|-0---2---2---0---2---2---0---2---|-2---0---4---4---4---4---4---4---|
E|------------------------------|---------------------------------|---------0---2---2---5---2---2---|


E|---------------------------------|---------------------------------|---------------------------------|
B|---------------------------------|---------------------------------|---------------------------------|
G|---------------------------------|---------------------------------|---------------------------------|
D|---------------------------------|---------4---4---4---4---4---4---|-4---4---4---4---4---4---4---4---|
A|-4---4---4---4---4---4---4---4---|-4---4---0---2---2---0---2---2---|-0---2---2---0---2---2---0---2---|
E|-0---2---2---5---2---2---0---2---|-2---2---------------------------|---------------------------------|


E|---------------------------------|---------------------------------|---------------------------------|
B|---------------------------------|---------------------------------|---------------------------------|
G|---------------------------------|---------------------------------|---------------------------------|
D|-4---4---------------------------|---------------------------------|---------4---4---4---4---4---4---|
A|-2---0---4---4---4---4---4---4---|-4---4---4---4---4---4---4---4---|-4---4---0---2---2---0---2---2---|
E|---------0---2---2---5---2---2---|-0---2---2---5---2---2---0---2---|-2---2---------------------------|


E|---------------------------------|---------------------------------|---------------------------------|
B|---------------------------------|---------------------------------|---------------------------------|
G|---------------------------------|---------------------------------|---------------------------------|
D|-4---4---4---4---4---4---4---4---|-4---4---------------------------|---------------------------------|
A|-0---2---2---0---2---2---0---2---|-2---0---4---4---4---4---4---4---|-4---4---4---4---4---4---4---4---|
E|---------------------------------|---------0---2---2---5---2---2---|-0---2---2---5---2---2---0---2---|


E|---------------------------------|---------------------------------|----------------|
B|---------------------------------|---------------------------------|----------------|
G|---------------------------------|---------------------------------|---------2------|
D|---------4---4---4---4---4---4---|-4---4---4---4---4---4---4---4---|-4---4---2------|
A|-4---4---0---2---2---0---2---2---|-0---2---2---0---2---2---0---2---|-2---0---0------|
E|-2---2---------------------------|---------------------------------|----------------|


E|-------------|------------------------------|---------------------------------|---------------------------------|
B|-------------|------------------------------|---------------------------------|---------------------------------|
G|------2------|------------------------------|---------------------------------|---------------------------------|
D|------2------|------------------------------|---------------------------------|---------------------------------|
A|------0------|------4---4---4---4---4---4---|-4---4---4---4---4---4---4---4---|-4---4---4---4---4---4---4---4---|
E|-------------|-9----0---2---2---5---2---2---|-0---2---2---5---2---2---0---2---|-2---2---0---2---2---5---2---2---|


E|---------------------------------|---------------------------------|---------------------------------|
B|---------------------------------|---------------------------------|---------------------------------|
G|---------------------------------|---------------------------------|---------------------------------|
D|---------------------------------|---------------------------------|---------------------------------|
A|-4---4---4---4---4---4---4---4---|-4---4---4---4---4---4---4---4---|-4---4---4---4---4---4---4---4---|
E|-0---2---2---5---2---2---0---2---|-2---2---0---2---2---5---2---2---|-0---2---2---5---2---2---0---2---|


E|---------------------------------|---------------------------------|---------------------------------|
B|---------------------------------|---------------------------------|---------------------------------|
G|---------------------------------|---------------------------------|---------------------------------|
D|---------------------------------|---------------------------------|---------4---4---4---4---4---4---|
A|-4---4---4---4---4---4---4---4---|-4---4---4---4---4---4---4---4---|-4---4---0---2---2---0---2---2---|
E|-2---2---0---2---2---5---2---2---|-0---2---2---5---2---2---0---2---|-2---2---------------------------|


E|---------------------------------|---------------------------------|---------------------------------|
B|---------------------------------|---------------------------------|---------------------------------|
G|---------------------------------|---------------------------------|---------------------------------|
D|-4---4---4---4---4---4---4---4---|-4---4---------------------------|---------------------------------|
A|-0---2---2---0---2---2---0---2---|-2---0---4---4---4---4---4---4---|-4---4---4---4---4---4---4---4---|
E|---------------------------------|---------0---2---2---5---2---2---|-0---2---2---5---2---2---0---2---|


E|---------------------------------|---------------------------------|---------------------------------|
B|---------------------------------|---------------------------------|---------------------------------|
G|---------------------------------|---------------------------------|---------------------------------|
D|---------4---4---4---4---4---4---|-4---4---4---4---4---4---4---4---|-4---4---------------------------|
A|-4---4---0---2---2---0---2---2---|-0---2---2---0---2---2---0---2---|-2---0---4---4---4---4---4---4---|
E|-2---2---------------------------|---------------------------------|---------0---2---2---5---2---2---|


E|---------------------------------|---------------------------------|---------------------------------|
B|---------------------------------|---------------------------------|---------------------------------|
G|---------------------------------|---------------------------------|---------------------------------|
D|---------------------------------|---------4---4---4---4---4---4---|-4---4---4---4---4---4---4---4---|
A|-4---4---4---4---4---4---4---4---|-4---4---0---2---2---0---2---2---|-0---2---2---0---2---2---0---2---|
E|-0---2---2---5---2---2---0---2---|-2---2---------------------------|---------------------------------|


E|---------------------------------|---------------------------------|---------------------------------|
B|---------------------------------|---------------------------------|---------------------------------|
G|---------------------------------|---------------------------------|---------------------------------|
D|-4---4---------------------------|---------------------------------|---------4---4---4---4---4---4---|
A|-2---0---4---4---4---4---4---4---|-4---4---4---4---4---4---4---4---|-4---4---0---2---2---0---2---2---|
E|---------0---2---2---5---2---2---|-0---2---2---5---2---2---0---2---|-2---2---------------------------|


E|---------------------------------|----------------|-------------|------------------------------|
B|---------------------------------|----------------|-------------|------------------------------|
G|---------------------------------|---------2------|------2------|------------------------------|
D|-4---4---4---4---4---4---4---4---|-4---4---2------|------2------|------------------------------|
A|-0---2---2---0---2---2---0---2---|-2---0---0------|------0------|------4---4---4---4---4---4---|
E|---------------------------------|----------------|-------------|-9----0---2---2---5---2---2---|


E|---------------------------------|---------------------------------|---------------------------------|
B|---------------------------------|---------------------------------|---------------------------------|
G|---------------------------------|---------------------------------|---------------------------------|
D|---------------------------------|---------------------------------|---------------------------------|
A|-4---4---4---4---4---4---4---4---|-4---4---4---4---4---4---4---4---|-4---4---4---4---4---4---4---4---|
E|-0---2---2---5---2---2---0---2---|-2---2---0---2---2---5---2---2---|-0---2---2---5---2---2---0---2---|


E|---------------------------------|---------------------------------|---------------------------------|
B|---------------------------------|---------------------------------|---------------------------------|
G|---------------------------------|---------------------------------|---------------------------------|
D|---------------------------------|---------------------------------|---------------------------------|
A|-4---4---4---4---4---4---4---4---|-4---4---4---4---4---4---4---4---|-4---4---4---4---4---4---4---4---|
E|-2---2---0---2---2---5---2---2---|-0---2---2---5---2---2---0---2---|-2---2---0---2---2---5---2---2---|


E|---------------------------------|---------------------------------|---------------------------------|
B|---------------------------------|---------------------------------|---------------------------------|
G|---------------------------------|---------------------------------|---------------------------------|
D|---------------------------------|---------4---4---4---4---4---4---|-4---4---4---4---4---4---4---4---|
A|-4---4---4---4---4---4---4---4---|-4---4---0---2---2---0---2---2---|-0---2---2---0---2---2---0---2---|
E|-0---2---2---5---2---2---0---2---|-2---2---------------------------|---------------------------------|


E|---------------------------------|---------------------------------|---------------------------------|
B|---------------------------------|---------------------------------|---------------------------------|
G|---------------------------------|---------------------------------|---------------------------------|
D|-4---4---------------------------|---------------------------------|---------4---4---4---4---4---4---|
A|-2---0---4---4---4---4---4---4---|-4---4---4---4---4---4---4---4---|-4---4---0---2---2---0---2---2---|
E|---------0---2---2---5---2---2---|-0---2---2---5---2---2---0---2---|-2---2---------------------------|


E|---------------------------------|---------------------------------|---------------------------------|
B|---------------------------------|---------------------------------|---------------------------------|
G|---------------------------------|---------------------------------|---------------------------------|
D|-4---4---4---4---4---4---4---4---|-4---4---------------------------|---------------------------------|
A|-0---2---2---0---2---2---0---2---|-2---0---4---4---4---4---4---4---|-4---4---4---4---4---4---4---4---|
E|---------------------------------|---------0---2---2---5---2---2---|-0---2---2---5---2---2---0---2---|


E|---------------------------------|---------------------------------|---------------------------------|
B|---------------------------------|---------------------------------|---------------------------------|
G|---------------------------------|---------------------------------|---------------------------------|
D|---------4---4---4---4---4---4---|-4---4---4---4---4---4---4---4---|-4---4---------------------------|
A|-4---4---0---2---2---0---2---2---|-0---2---2---0---2---2---0---2---|-2---0---4---4---4---4---4---4---|
E|-2---2---------------------------|---------------------------------|---------0---2---2---5---2---2---|


E|---------------------------------|---------------------------------|---------------------------------|
B|---------------------------------|---------------------------------|---------------------------------|
G|---------------------------------|---------------------------------|---------------------------------|
D|---------------------------------|---------4---4---4---4---4---4---|-4---4---4---4---4---4---4---4---|
A|-4---4---4---4---4---4---4---4---|-4---4---0---2---2---0---2---2---|-0---2---2---0---2---2---0---2---|
E|-0---2---2---5---2---2---0---2---|-2---2---------------------------|---------------------------------|


E|------------------------|--------------------------------|------------------------|
B|------------------------|-3----3---4---4-------4---------|-5---5------------------|
G|---------------2---2----|-2----2---4---4---2---4---2--4--|-4---4---------2---2----|
D|-4---4---4-----2---2----|-0----0-------------------------|---------4-----2---2----|
A|-2---0---4-----0---0----|--------------------------------|---------4-----0---0----|
E|---------2--------------|--------------------------------|---------2--------------|


E|-------------|------------------------|--------------------------------|------------------------|
B|-3----3------|------------------------|-3----3---4---4-------4---------|-5---5------------------|
G|-2----2------|---------------2---2----|-2----2---4---4---2---4---2--4--|-4---4---------2---2----|
D|-0----0------|---------4-----2---2----|-0----0-------------------------|---------4-----2---2----|
A|-------------|---------4-----0---0----|--------------------------------|---------4-----0---0----|
E|-------------|-5---5---2--------------|--------------------------------|---------2--------------|


E|---------------------------|------------------------------|---------------------------------|
B|-3----3----3---3---3---3---|------------------------------|---------------------------------|
G|-2----2----2---2---2---2---|------------------------------|---------------------------------|
D|-0----0----0---0---0---0---|------------------------------|---------------------------------|
A|---------------------------|------4---4---4---4---4---4---|-4---4---4---4---4---4---4---4---|
E|---------------------------|-12---0---2---2---5---2---2---|-0---2---2---5---2---2---0---2---|


E|---------------------------------|---------------------------------|---------------------------------|
B|---------------------------------|---------------------------------|---------------------------------|
G|---------------------------------|---------------------------------|---------------------------------|
D|---------------------------------|---------------------------------|---------------------------------|
A|-4---4---4---4---4---4---4---4---|-4---4---4---4---4---4---4---4---|-4---4---4---4---4---4---4---4---|
E|-2---2---0---2---2---5---2---2---|-0---2---2---5---2---2---0---2---|-2---2---0---2---2---5---2---2---|


E|---------------------------------|---------------------------------|---------------------------------|
B|---------------------------------|---------------------------------|---------------------------------|
G|---------------------------------|---------------------------------|---------------------------------|
D|---------------------------------|---------------------------------|---------------------------------|
A|-4---4---4---4---4---4---4---4---|-4---4---4---4---4---4---4---4---|-4---4---4---4---4---4---4---4---|
E|-0---2---2---5---2---2---0---2---|-2---2---0---2---2---5---2---2---|-0---2---2---5---2---2---0---2---|


E|---------------------------------|---------------------------------|---------------------------------|
B|---------------------------------|---------------------------------|---------------------------------|
G|---------------------------------|---------------------------------|---------------------------------|
D|---------------------------------|---------------------------------|---------------------------------|
A|-4---4---4---4---4---4---4---4---|-4---4---4---4---4---4---4---4---|-4---4---4---4---4---4---4---4---|
E|-2---2---0---2---2---5---2---2---|-0---2---2---5---2---2---0---2---|-2---2---0---2---2---5---2---2---|


E|---------------------------------|---------------------------------|---------------------------------|
B|---------------------------------|---------------------------------|---------------------------------|
G|---------------------------------|---------------------------------|---------------------------------|
D|---------------------------------|---------------------------------|---------------------------------|
A|-4---4---4---4---4---4---4---4---|-4---4---4---4---4---4---4---4---|-4---4---4---4---4---4---4---4---|
E|-0---2---0---2---2---5---2---2---|-0---2---2---5---2---2---0---2---|-2---2---0---2---2---5---2---2---|


E|---------------------------------|---------------------------------|---------------------------------|
B|---------------------------------|---------------------------------|---------------------------------|
G|---------------------------------|---------------------------------|---------------------------------|
D|---------------------------------|---------------------------------|---------4---4---4---4---4---4---|
A|-4---4---4---4---4---4---4---4---|-4---4---4---4---4---4---4---4---|-4---4---0---2---2---0---2---2---|
E|-0---2---0---2---2---5---2---2---|-0---2---2---5---2---2---0---2---|-2---2---------------------------|


E|---------------------------------|---------------------------------|---------------------------------|
B|---------------------------------|---------------------------------|---------------------------------|
G|---------------------------------|---------------------------------|---------------------------------|
D|-4---4---4---4---4---4---4---4---|-4---4---------------------------|---------------------------------|
A|-0---2---2---0---2---2---0---2---|-2---0---4---4---4---4---4---4---|-4---4---4---4---4---4---4---4---|
E|---------------------------------|---------0---2---2---5---2---2---|-0---2---2---5---2---2---0---2---|


E|---------------------------------|---------------------------------|---------------------------------|
B|---------------------------------|---------------------------------|---------------------------------|
G|---------------------------------|---------------------------------|---------------------------------|
D|---------4---4---4---4---4---4---|-4---4---4---4---4---4---4---4---|-4---4---------------------------|
A|-4---4---0---2---2---0---2---2---|-0---2---2---0---2---2---0---2---|-2---0---4---4---4---4---4---4---|
E|-2---2---------------------------|---------------------------------|---------0---2---2---5---2---2---|


E|---------------------------------|---------------------------------|---------------------------------|
B|---------------------------------|---------------------------------|---------------------------------|
G|---------------------------------|---------------------------------|---------------------------------|
D|---------------------------------|---------4---4---4---4---4---4---|-4---4---4---4---4---4---4---4---|
A|-4---4---4---4---4---4---4---4---|-4---4---0---2---2---0---2---2---|-0---2---2---0---2---2---0---2---|
E|-0---2---2---5---2---2---0---2---|-2---2---------------------------|---------------------------------|


E|---------------------------------|---------------------------------|---------------------------------|
B|---------------------------------|---------------------------------|---------------------------------|
G|---------------------------------|---------------------------------|---------------------------------|
D|-4---4---------------------------|---------------------------------|---------4---4---4---4---4---4---|
A|-2---0---4---4---4---4---4---4---|-4---4---4---4---4---4---4---4---|-4---4---0---2---2---0---2---2---|
E|---------0---2---2---5---2---2---|-0---2---2---5---2---2---0---2---|-2---2---------------------------|


E|---------------------------------|---------------------------------|---------------------------------|
B|---------------------------------|---------------------------------|---------------------------------|
G|---------------------------------|---------------------------------|---------------------------------|
D|-4---4---4---4---4---4---4---4---|-4---4---------------------------|---------------------------------|
A|-0---2---2---0---2---2---0---2---|-2---0---4---4---4---4---4---4---|-4---4---4---4---4---4---4---4---|
E|---------------------------------|---------0---2---2---5---2---2---|-0---2---2---5---2---2---0---2---|


E|------------------------|--------------------------------|------------------------|
B|------------------------|-3----3---4---4-------4---------|-5---5------------------|
G|---------------2---2----|-2----2---4---4---2---4---2--4--|-4---4---------2---2----|
D|---------4-----2---2----|-0----0-------------------------|---------4-----2---2----|
A|-4---4---4-----0---0----|--------------------------------|---------4-----0---0----|
E|-2---2---2--------------|--------------------------------|---------2--------------|


E|-------------|------------------------|--------------------------------|------------------------|
B|-3----3------|------------------------|-3----3---4---4-------4---------|-5---5------------------|
G|-2----2------|---------------2---2----|-2----2---4---4---2---4---2--4--|-4---4---------2---2----|
D|-0----0------|---------4-----2---2----|-0----0-------------------------|---------4-----2---2----|
A|-------------|---------4-----0---0----|--------------------------------|---------4-----0---0----|
E|-------------|-5---5---2--------------|--------------------------------|---------2--------------|


E|---------------------------|------------------------------|---------------------------------|
B|-3----3----3---3---3---3---|------------------------------|---------------------------------|
G|-2----2----2---2---2---2---|------------------------------|---------------------------------|
D|-0----0----0---0---0---0---|------------------------------|---------------------------------|
A|---------------------------|------4---4---4---4---4---4---|-4---4---4---4---4---4---4---4---|
E|---------------------------|-12---0---2---2---5---2---2---|-0---2---2---5---2---2---0---2---|


E|---------------------------------|---------------------------------|---------------------------------|
B|---------------------------------|---------------------------------|---------------------------------|
G|---------------------------------|---------------------------------|---------------------------------|
D|---------------------------------|---------------------------------|---------------------------------|
A|-4---4---4---4---4---4---4---4---|-4---4---4---4---4---4---4---4---|-4---4---4---4---4---4---4---4---|
E|-2---2---0---2---2---5---2---2---|-0---2---2---5---2---2---0---2---|-2---2---0---2---2---5---2---2---|


E|---------------------------------|---------------------------------|-------------|
B|---------------------------------|---------------------------------|-4----4------|
G|---------------------------------|---------------------------------|-2----2------|
D|---------------------------------|---------------------------------|-4----4------|
A|-4---4---4---4---4---4---4---4---|-4---4---4---4---4---4---4---0---|-0----0------|
E|-0---2---2---5---2---2---0---2---|-2---2---0---2---2---5---2---0---|-0----0------|


E|-------------|-------------|-------------|
B|------4------|------4------|-------------|
G|------2------|------2------|-------------|
D|------4------|------4------|-------------|
A|------0------|------0------|-------------|
E|------0------|------0------|-------------|





Track 2: Guitar 2

E|--------|--------|--------|--------|--------|--------|--------|--------|--------|
B|--------|--------|--------|--------|--------|--------|--------|--------|--------|
G|--------|--------|--------|--------|--------|--------|--------|--------|--------|
D|--------|--------|--------|--------|--------|--------|--------|--------|--------|
A|--------|--------|--------|--------|--------|--------|--------|--------|--------|
E|--------|--------|--------|--------|--------|--------|--------|--------|--------|


E|--------|--------|--------|------------------------------|---------------------------------|
B|--------|--------|--------|------------------------------|---------------------------------|
G|--------|--------|--------|------------------------------|---------------------------------|
D|--------|--------|--------|------4---4---4---4---4---4---|-4---4---4---4---4---4---4---4---|
A|--------|--------|--------|------0---2---2---0---2---2---|-0---2---2---0---2---2---0---2---|
E|--------|--------|--------|------------------------------|---------------------------------|


E|----------------|----------------|-------------|--------|--------|--------|--------|
B|----------------|----------------|-------------|--------|--------|--------|--------|
G|---------2------|-2---2---8------|-------------|--------|--------|--------|--------|
D|-4---4---2------|-2---2----------|-------------|--------|--------|--------|--------|
A|-2---0---0------|-0---0----------|-------------|--------|--------|--------|--------|
E|----------------|----------------|-9-----------|--------|--------|--------|--------|


E|--------|--------|--------|--------|--------|--------|--------|--------|--------|
B|--------|--------|--------|--------|--------|--------|--------|--------|--------|
G|--------|--------|--------|--------|--------|--------|--------|--------|--------|
D|--------|--------|--------|--------|--------|--------|--------|--------|--------|
A|--------|--------|--------|--------|--------|--------|--------|--------|--------|
E|--------|--------|--------|--------|--------|--------|--------|--------|--------|


E|--------|--------|--------|--------|--------|--------|------------------------------|
B|--------|--------|--------|--------|--------|--------|------------------------------|
G|--------|--------|--------|--------|--------|--------|------------------------------|
D|--------|--------|--------|--------|--------|--------|------4---4---4---4---4---4---|
A|--------|--------|--------|--------|--------|--------|------0---2---2---0---2---2---|
E|--------|--------|--------|--------|--------|--------|------------------------------|


E|---------------------------------|----------------|----------------|-------------|
B|---------------------------------|----------------|----------------|-------------|
G|---------------------------------|---------2------|-2---2---8------|-------------|
D|-4---4---4---4---4---4---4---4---|-4---4---2------|-2---2----------|-------------|
A|-0---2---2---0---2---2---0---2---|-2---0---0------|-0---0----------|-------------|
E|---------------------------------|----------------|----------------|-9-----------|


E|--------|--------|--------|--------|--------|--------|--------|--------|--------|
B|--------|--------|--------|--------|--------|--------|--------|--------|--------|
G|--------|--------|--------|--------|--------|--------|--------|--------|--------|
D|--------|--------|--------|--------|--------|--------|--------|--------|--------|
A|--------|--------|--------|--------|--------|--------|--------|--------|--------|
E|--------|--------|--------|--------|--------|--------|--------|--------|--------|


E|--------|--------|--------|--------|--------|--------|--------|--------|--------|
B|--------|--------|--------|--------|--------|--------|--------|--------|--------|
G|--------|--------|--------|--------|--------|--------|--------|--------|--------|
D|--------|--------|--------|--------|--------|--------|--------|--------|--------|
A|--------|--------|--------|--------|--------|--------|--------|--------|--------|
E|--------|--------|--------|--------|--------|--------|--------|--------|--------|


E|--------|--------|--------|--------|--------|--------|--------|--------|--------|
B|--------|--------|--------|--------|--------|--------|--------|--------|--------|
G|--------|--------|--------|--------|--------|--------|--------|--------|--------|
D|--------|--------|--------|--------|--------|--------|--------|--------|--------|
A|--------|--------|--------|--------|--------|--------|--------|--------|--------|
E|--------|--------|--------|--------|--------|--------|--------|--------|--------|


E|--------|--------|--------|--------|--------|--------|--------|--------|--------|
B|--------|--------|--------|--------|--------|--------|--------|--------|--------|
G|--------|--------|--------|--------|--------|--------|--------|--------|--------|
D|--------|--------|--------|--------|--------|--------|--------|--------|--------|
A|--------|--------|--------|--------|--------|--------|--------|--------|--------|
E|--------|--------|--------|--------|--------|--------|--------|--------|--------|


E|--------|--------|--------|--------|--------|--------|--------|--------|--------|
B|--------|--------|--------|--------|--------|--------|--------|--------|--------|
G|--------|--------|--------|--------|--------|--------|--------|--------|--------|
D|--------|--------|--------|--------|--------|--------|--------|--------|--------|
A|--------|--------|--------|--------|--------|--------|--------|--------|--------|
E|--------|--------|--------|--------|--------|--------|--------|--------|--------|


E|--------|--------|--------|--------|--------|--------|--------|--------|--------|
B|--------|--------|--------|--------|--------|--------|--------|--------|--------|
G|--------|--------|--------|--------|--------|--------|--------|--------|--------|
D|--------|--------|--------|--------|--------|--------|--------|--------|--------|
A|--------|--------|--------|--------|--------|--------|--------|--------|--------|
E|--------|--------|--------|--------|--------|--------|--------|--------|--------|


E|--------|--------|--------|--------|--------|--------|--------|--------|--------|
B|--------|--------|--------|--------|--------|--------|--------|--------|--------|
G|--------|--------|--------|--------|--------|--------|--------|--------|--------|
D|--------|--------|--------|--------|--------|--------|--------|--------|--------|
A|--------|--------|--------|--------|--------|--------|--------|--------|--------|
E|--------|--------|--------|--------|--------|--------|--------|--------|--------|


E|--------|--------|--------|--------|--------|--------|--------|--------|--------|
B|--------|--------|--------|--------|--------|--------|--------|--------|--------|
G|--------|--------|--------|--------|--------|--------|--------|--------|--------|
D|--------|--------|--------|--------|--------|--------|--------|--------|--------|
A|--------|--------|--------|--------|--------|--------|--------|--------|--------|
E|--------|--------|--------|--------|--------|--------|--------|--------|--------|


E|--------|--------|--------|------------------------------|-------------|-------------|
B|--------|--------|--------|------------------------------|-------------|-------------|
G|--------|--------|--------|------------------------------|-2----2------|------2------|
D|--------|--------|--------|------------------------------|-2----2------|------2------|
A|--------|--------|--------|------4---4---4---4---4---4---|-0----0------|------0------|
E|--------|--------|--------|------0---2---2---5---2---0---|-------------|-------------|


E|-------------|-------------|
B|-------------|-------------|
G|------2------|-------------|
D|------2------|-------------|
A|------0------|-------------|
E|-------------|-------------|





Track 3: Guitar 3

E|--------|--------|--------|--------|--------|--------|--------|--------|--------|
B|--------|--------|--------|--------|--------|--------|--------|--------|--------|
G|--------|--------|--------|--------|--------|--------|--------|--------|--------|
D|--------|--------|--------|--------|--------|--------|--------|--------|--------|
A|--------|--------|--------|--------|--------|--------|--------|--------|--------|
E|--------|--------|--------|--------|--------|--------|--------|--------|--------|


E|--------|--------|--------|--------|--------|--------|--------|--------|--------|
B|--------|--------|--------|--------|--------|--------|--------|--------|--------|
G|--------|--------|--------|--------|--------|--------|--------|--------|--------|
D|--------|--------|--------|--------|--------|--------|--------|--------|--------|
A|--------|--------|--------|--------|--------|--------|--------|--------|--------|
E|--------|--------|--------|--------|--------|--------|--------|--------|--------|


E|--------|--------|--------|--------|--------|--------|--------|--------|--------|
B|--------|--------|--------|--------|--------|--------|--------|--------|--------|
G|--------|--------|--------|--------|--------|--------|--------|--------|--------|
D|--------|--------|--------|--------|--------|--------|--------|--------|--------|
A|--------|--------|--------|--------|--------|--------|--------|--------|--------|
E|--------|--------|--------|--------|--------|--------|--------|--------|--------|


E|--------|--------|--------|--------|--------|--------|--------|--------|--------|
B|--------|--------|--------|--------|--------|--------|--------|--------|--------|
G|--------|--------|--------|--------|--------|--------|--------|--------|--------|
D|--------|--------|--------|--------|--------|--------|--------|--------|--------|
A|--------|--------|--------|--------|--------|--------|--------|--------|--------|
E|--------|--------|--------|--------|--------|--------|--------|--------|--------|


E|--------|--------|--------|--------|--------|--------|--------|--------|--------|
B|--------|--------|--------|--------|--------|--------|--------|--------|--------|
G|--------|--------|--------|--------|--------|--------|--------|--------|--------|
D|--------|--------|--------|--------|--------|--------|--------|--------|--------|
A|--------|--------|--------|--------|--------|--------|--------|--------|--------|
E|--------|--------|--------|--------|--------|--------|--------|--------|--------|


E|--------|--------|--------|--------|--------|--------|--------|--------|--------|
B|--------|--------|--------|--------|--------|--------|--------|--------|--------|
G|--------|--------|--------|--------|--------|--------|--------|--------|--------|
D|--------|--------|--------|--------|--------|--------|--------|--------|--------|
A|--------|--------|--------|--------|--------|--------|--------|--------|--------|
E|--------|--------|--------|--------|--------|--------|--------|--------|--------|


E|--------|--------|--------|--------|--------|--------|--------|--------|--------|
B|--------|--------|--------|--------|--------|--------|--------|--------|--------|
G|--------|--------|--------|--------|--------|--------|--------|--------|--------|
D|--------|--------|--------|--------|--------|--------|--------|--------|--------|
A|--------|--------|--------|--------|--------|--------|--------|--------|--------|
E|--------|--------|--------|--------|--------|--------|--------|--------|--------|


E|--------|--------|--------|--------|--------|--------|--------|------14---14--14--14--14--|
B|--------|--------|--------|--------|--------|--------|--------|------17-------17--17------|
G|--------|--------|--------|--------|--------|--------|--------|---------------------------|
D|--------|--------|--------|--------|--------|--------|--------|---------------------------|
A|--------|--------|--------|--------|--------|--------|--------|---------------------------|
E|--------|--------|--------|--------|--------|--------|--------|---------------------------|


E|-14---14--14--14--14--14---|---------------------------|------------------------|
B|-17-------17--17------17---|-17---17---17--17--17--17--|-17---17-------17--17---|
G|---------------------------|------16-------------------|---------------16--16---|
D|---------------------------|---------------------------|------------------------|
A|---------------------------|---------------------------|------------------------|
E|---------------------------|---------------------------|------------------------|


E|---------------------|---------------------------|---------------------------------|
B|-19--19--19----19----|-19--17--17---17---17------|---------17--17--17--14--14------|
G|-18--18--18----18----|-18--16--16------------16--|-----16--------------16--16--16--|
D|---------------------|---------------------------|---------------------16--16------|
A|---------------------|---------------------------|---------------------------------|
E|---------------------|---------------------------|---------------------------------|


E|---------------------------|-----17--17--17--17----|-----17--17-----|-17--17--17--17--14----------------------|
B|---------------------------|-----------------------|----------------|--------------------17-14----------------|
G|-16---16---14--16--16--16--|-----------------------|-0--------------|--------------------------16-14----------|
D|---------------------------|-14--------------------|----------------|---------------------------------16--14--|
A|---------------------------|-----------------------|----------------|-----------------------------------------|
E|---------------------------|-----------------------|----------------|-----------------------------------------|


E|----------------------------------|------------------------|------------------------|
B|----------------------------------|---------14---14---14---|-----14--14----14--14---|
G|----------------------------------|------------------------|------------------------|
D|------------------0---------------|-----11-----------------|------------------------|
A|-16--15--14--12-------------------|------------------------|------------------------|
E|-------------------------14--14---|------------------------|------------------------|


E|------------------|------------------------|--------|--------|--------|--------|
B|-14-----17-17-----|-17---17----------------|--------|--------|--------|--------|
G|-----18-----------|-----------4---2---2----|--------|--------|--------|--------|
D|------------------|------------------------|--------|--------|--------|--------|
A|------------------|------------------------|--------|--------|--------|--------|
E|------------------|------------------------|--------|--------|--------|--------|


E|--------|--------|--------|--------|--------|--------|--------|--------|--------|
B|--------|--------|--------|--------|--------|--------|--------|--------|--------|
G|--------|--------|--------|--------|--------|--------|--------|--------|--------|
D|--------|--------|--------|--------|--------|--------|--------|--------|--------|
A|--------|--------|--------|--------|--------|--------|--------|--------|--------|
E|--------|--------|--------|--------|--------|--------|--------|--------|--------|


E|--------|--------|--------|--------|--------|--------|--------|--------|--------|
B|--------|--------|--------|--------|--------|--------|--------|--------|--------|
G|--------|--------|--------|--------|--------|--------|--------|--------|--------|
D|--------|--------|--------|--------|--------|--------|--------|--------|--------|
A|--------|--------|--------|--------|--------|--------|--------|--------|--------|
E|--------|--------|--------|--------|--------|--------|--------|--------|--------|


E|--------|--------|--------|--------|--------|--------|--------|--------|--------|
B|--------|--------|--------|--------|--------|--------|--------|--------|--------|
G|--------|--------|--------|--------|--------|--------|--------|--------|--------|
D|--------|--------|--------|--------|--------|--------|--------|--------|--------|
A|--------|--------|--------|--------|--------|--------|--------|--------|--------|
E|--------|--------|--------|--------|--------|--------|--------|--------|--------|


E|--------|--------|-------------|-----------------|
B|--------|--------|-------------|-----------------|
G|--------|--------|-------------|-----------------|
D|--------|--------|-------------|-----------------|
A|--------|--------|------7------|------7----------|
E|--------|--------|-------------|-----------------|





Track 4: Guitar 1

E|--------|--------|--------|--------|--------|--------|--------|--------|--------|
B|--------|--------|--------|--------|--------|--------|--------|--------|--------|
G|--------|--------|--------|--------|--------|--------|--------|--------|--------|
D|--------|--------|--------|--------|--------|--------|--------|--------|--------|
A|--------|--------|--------|--------|--------|--------|--------|--------|--------|
E|--------|--------|--------|--------|--------|--------|--------|--------|--------|


E|--------|--------|--------|--------|--------|--------|--------|--------|--------|
B|--------|--------|--------|--------|--------|--------|--------|--------|--------|
G|--------|--------|--------|--------|--------|--------|--------|--------|--------|
D|--------|--------|--------|--------|--------|--------|--------|--------|--------|
A|--------|--------|--------|--------|--------|--------|--------|--------|--------|
E|--------|--------|--------|--------|--------|--------|--------|--------|--------|


E|--------|--------|--------|--------|--------|--------|--------|--------|--------|
B|--------|--------|--------|--------|--------|--------|--------|--------|--------|
G|--------|--------|--------|--------|--------|--------|--------|--------|--------|
D|--------|--------|--------|--------|--------|--------|--------|--------|--------|
A|--------|--------|--------|--------|--------|--------|--------|--------|--------|
E|--------|--------|--------|--------|--------|--------|--------|--------|--------|


E|--------|--------|--------|--------|--------|--------|--------|--------|--------|
B|--------|--------|--------|--------|--------|--------|--------|--------|--------|
G|--------|--------|--------|--------|--------|--------|--------|--------|--------|
D|--------|--------|--------|--------|--------|--------|--------|--------|--------|
A|--------|--------|--------|--------|--------|--------|--------|--------|--------|
E|--------|--------|--------|--------|--------|--------|--------|--------|--------|


E|--------|--------|--------|--------|--------|--------|--------|--------|--------|
B|--------|--------|--------|--------|--------|--------|--------|--------|--------|
G|--------|--------|--------|--------|--------|--------|--------|--------|--------|
D|--------|--------|--------|--------|--------|--------|--------|--------|--------|
A|--------|--------|--------|--------|--------|--------|--------|--------|--------|
E|--------|--------|--------|--------|--------|--------|--------|--------|--------|


E|--------|--------|--------|--------|--------|--------|--------|--------|--------|
B|--------|--------|--------|--------|--------|--------|--------|--------|--------|
G|--------|--------|--------|--------|--------|--------|--------|--------|--------|
D|--------|--------|--------|--------|--------|--------|--------|--------|--------|
A|--------|--------|--------|--------|--------|--------|--------|--------|--------|
E|--------|--------|--------|--------|--------|--------|--------|--------|--------|


E|--------|--------|--------|--------|--------|--------|--------|--------|--------|
B|--------|--------|--------|--------|--------|--------|--------|--------|--------|
G|--------|--------|--------|--------|--------|--------|--------|--------|--------|
D|--------|--------|--------|--------|--------|--------|--------|--------|--------|
A|--------|--------|--------|--------|--------|--------|--------|--------|--------|
E|--------|--------|--------|--------|--------|--------|--------|--------|--------|


E|--------|--------|--------|--------|--------|--------|--------|--------|--------|
B|--------|--------|--------|--------|--------|--------|--------|--------|--------|
G|--------|--------|--------|--------|--------|--------|--------|--------|--------|
D|--------|--------|--------|--------|--------|--------|--------|--------|--------|
A|--------|--------|--------|--------|--------|--------|--------|--------|--------|
E|--------|--------|--------|--------|--------|--------|--------|--------|--------|


E|--------|--------|--------|--------|--------|--------|--------|--------|--------|
B|--------|--------|--------|--------|--------|--------|--------|--------|--------|
G|--------|--------|--------|--------|--------|--------|--------|--------|--------|
D|--------|--------|--------|--------|--------|--------|--------|--------|--------|
A|--------|--------|--------|--------|--------|--------|--------|--------|--------|
E|--------|--------|--------|--------|--------|--------|--------|--------|--------|


E|--------|--------|--------|--------|--------|--------|--------|--------|--------|
B|--------|--------|--------|--------|--------|--------|--------|--------|--------|
G|--------|--------|--------|--------|--------|--------|--------|--------|--------|
D|--------|--------|--------|--------|--------|--------|--------|--------|--------|
A|--------|--------|--------|--------|--------|--------|--------|--------|--------|
E|--------|--------|--------|--------|--------|--------|--------|--------|--------|


E|--------|--------|--------|--------|--------|--------|--------|--------|--------|
B|--------|--------|--------|--------|--------|--------|--------|--------|--------|
G|--------|--------|--------|--------|--------|--------|--------|--------|--------|
D|--------|--------|--------|--------|--------|--------|--------|--------|--------|
A|--------|--------|--------|--------|--------|--------|--------|--------|--------|
E|--------|--------|--------|--------|--------|--------|--------|--------|--------|


E|--------|--------|--------|--------|--------|--------|--------|--------|--------|
B|--------|--------|--------|--------|--------|--------|--------|--------|--------|
G|--------|--------|--------|--------|--------|--------|--------|--------|--------|
D|--------|--------|--------|--------|--------|--------|--------|--------|--------|
A|--------|--------|--------|--------|--------|--------|--------|--------|--------|
E|--------|--------|--------|--------|--------|--------|--------|--------|--------|


E|--------|--------|--------|--------|--------|--------|--------|--------|-------------|
B|--------|--------|--------|--------|--------|--------|--------|--------|-------------|
G|--------|--------|--------|--------|--------|--------|--------|--------|-------------|
D|--------|--------|--------|--------|--------|--------|--------|--------|-------------|
A|--------|--------|--------|--------|--------|--------|--------|--------|-------------|
E|--------|--------|--------|--------|--------|--------|--------|--------|-------------|


E|-------------|-------------|--------|--------|
B|-------------|-------------|--------|--------|
G|-------------|-------------|--------|--------|
D|-------------|-------------|--------|--------|
A|-------------|-------------|--------|--------|
E|-------------|-------------|--------|--------|





Track 5: Bass

G|------------------------------|---------------------------------|---------------------------------|
D|------------------------------|---------------------------------|---------------------------------|
A|------0---2---2---0---2---2---|-0---2---2---0---2---2---0---2---|-2---0---------------------------|
E|------------------------------|---------------------------------|---------0---2---2---5---2---2---|


G|---------------------------------|---------------------------------|---------------------------------|
D|---------------------------------|---------------------------------|---------------------------------|
A|---------------------------------|---------0---2---2---0---2---2---|-0---2---2---0---2---2---0---2---|
E|-0---2---2---5---2---2---0---2---|-2---2---------------------------|---------------------------------|


G|---------------------------------|---------------------------------|---------------------------------|
D|---------------------------------|---------------------------------|---------------------------------|
A|-2---0---------------------------|---------------------------------|---------0---2---2---0---2---2---|
E|---------0---2---2---5---2---2---|-0---2---2---5---2---2---0---2---|-2---2---------------------------|


G|---------------------------------|---------------------------------|---------------------------------|
D|---------------------------------|---------------------------------|---------------------------------|
A|-0---2---2---0---2---2---0---2---|-2---0---------------------------|---------------------------------|
E|---------------------------------|---------0---2---2---5---2---2---|-0---2---2---5---2---2---0---2---|


G|---------------------------------|---------------------------------|----------------|
D|---------------------------------|---------------------------------|----------------|
A|---------0---2---2---0---2---2---|-0---2---2---0---2---2---0---2---|-2---0---0------|
E|-2---2---------------------------|---------------------------------|----------------|


G|-------------|------------------------------|---------------------------------|---------------------------------|
D|-------------|------------------------------|---------------------------------|---------------------------------|
A|------0------|------------------------------|---------------------------------|---------------------------------|
E|-------------|-9----0---2---2---5---2---2---|-0---2---2---5---2---2---0---2---|-2---2---0---2---2---5---2---2---|


G|---------------------------------|---------------------------------|---------------------------------|
D|---------------------------------|---------------------------------|---------------------------------|
A|---------------------------------|---------------------------------|---------------------------------|
E|-0---2---2---5---2---2---0---2---|-2---2---0---2---2---5---2---2---|-0---2---2---5---2---2---0---2---|


G|---------------------------------|---------------------------------|---------------------------------|
D|---------------------------------|---------------------------------|---------------------------------|
A|---------------------------------|---------------------------------|---------0---2---2---0---2---2---|
E|-2---2---0---2---2---5---2---2---|-0---2---2---5---2---2---0---2---|-2---2---------------------------|


G|---------------------------------|---------------------------------|---------------------------------|
D|---------------------------------|---------------------------------|---------------------------------|
A|-0---2---2---0---2---2---0---2---|-2---0---------------------------|---------------------------------|
E|---------------------------------|---------0---2---2---5---2---2---|-0---2---2---5---2---2---0---2---|


G|---------------------------------|---------------------------------|---------------------------------|
D|---------------------------------|---------------------------------|---------------------------------|
A|---------0---2---2---0---2---2---|-0---2---2---0---2---2---0---2---|-2---0---------------------------|
E|-2---2---------------------------|---------------------------------|---------0---2---2---5---2---2---|


G|---------------------------------|---------------------------------|---------------------------------|
D|---------------------------------|---------------------------------|---------------------------------|
A|---------------------------------|---------0---2---2---0---2---2---|-0---2---2---0---2---2---0---2---|
E|-0---2---2---5---2---2---0---2---|-2---2---------------------------|---------------------------------|


G|---------------------------------|---------------------------------|---------------------------------|
D|---------------------------------|---------------------------------|---------------------------------|
A|-2---0---------------------------|---------------------------------|---------0---2---2---0---2---2---|
E|---------0---2---2---5---2---2---|-0---2---2---5---2---2---0---2---|-2---2---------------------------|


G|---------------------------------|----------------|-------------|------------------------------|
D|---------------------------------|----------------|-------------|------------------------------|
A|-0---2---2---0---2---2---0---2---|-2---0---0------|------0------|------------------------------|
E|---------------------------------|----------------|-------------|-9----0---2---2---5---2---2---|


G|---------------------------------|---------------------------------|---------------------------------|
D|---------------------------------|---------------------------------|---------------------------------|
A|---------------------------------|---------------------------------|---------------------------------|
E|-0---2---2---5---2---2---0---2---|-2---2---0---2---2---5---2---2---|-0---2---2---5---2---2---0---2---|


G|---------------------------------|---------------------------------|---------------------------------|
D|---------------------------------|---------------------------------|---------------------------------|
A|---------------------------------|---------------------------------|---------------------------------|
E|-2---2---0---2---2---5---2---2---|-0---2---2---5---2---2---0---2---|-2---2---0---2---2---5---2---2---|


G|---------------------------------|---------------------------------|---------------------------------|
D|---------------------------------|---------------------------------|---------------------------------|
A|---------------------------------|---------0---2---2---0---2---2---|-0---2---2---0---2---2---0---2---|
E|-0---2---2---5---2---2---0---2---|-2---2---------------------------|---------------------------------|


G|---------------------------------|---------------------------------|---------------------------------|
D|---------------------------------|---------------------------------|---------------------------------|
A|-2---0---------------------------|---------------------------------|---------0---2---2---0---2---2---|
E|---------0---2---2---5---2---2---|-0---2---2---5---2---2---0---2---|-2---2---------------------------|


G|---------------------------------|---------------------------------|---------------------------------|
D|---------------------------------|---------------------------------|---------------------------------|
A|-0---2---2---0---2---2---0---2---|-2---0---------------------------|---------------------------------|
E|---------------------------------|---------0---2---2---5---2---2---|-0---2---2---5---2---2---0---2---|


G|---------------------------------|---------------------------------|---------------------------------|
D|---------------------------------|---------------------------------|---------------------------------|
A|---------0---2---2---0---2---2---|-0---2---2---0---2---2---0---2---|-2---0---------------------------|
E|-2---2---------------------------|---------------------------------|---------0---2---2---5---2---2---|


G|---------------------------------|---------------------------------|---------------------------------|
D|---------------------------------|---------------------------------|---------------------------------|
A|---------------------------------|---------0---2---2---0---2---2---|-0---2---2---0---2---2---0---2---|
E|-0---2---2---5---2---2---0---2---|-2---2---------------------------|---------------------------------|


G|------------------------|----------6---4-------4-------|-9---9------------------|
D|------------------------|-0----0-----------7-------7---|------------------------|
A|-2---0---------0---0----|------------------------------|---------------0---0----|
E|---------2--------------|------------------------------|---------2--------------|


G|-------------|---------------------|----------6---4-------4-------|-9---9------------------|
D|-0----0------|---------------------|-0----0-----------7-------7---|------------------------|
A|-------------|------------0---0----|------------------------------|---------------0---0----|
E|-------------|------2--------------|------------------------------|---------2--------------|


G|-------------|------------------------------|---------------------------------|---------------------------------|
D|-0----0------|------------------------------|---------------------------------|---------------------------------|
A|-------------|------------------------------|---------------------------------|---------------------------------|
E|-------------|-12---0---2---2---5---2---2---|-0---2---2---5---2---2---0---2---|-2---2---0---2---2---5---2---2---|


G|---------------------------------|---------------------------------|---------------------------------|
D|---------------------------------|---------------------------------|---------------------------------|
A|---------------------------------|---------------------------------|---------------------------------|
E|-0---2---2---5---2---2---0---2---|-2---2---0---2---2---5---2---2---|-0---2---2---5---2---2---0---2---|


G|---------------------------------|---------------------------------|---------------------------------|
D|---------------------------------|---------------------------------|---------------------------------|
A|---------------------------------|---------------------------------|---------------------------------|
E|-2---2---0---2---2---5---2---2---|-0---2---2---5---2---2---0---2---|-2---2---0---2---2---5---2---2---|


G|---------------------------------|---------------------------------|---------------------------------|
D|---------------------------------|---------------------------------|---------------------------------|
A|---------------------------------|---------------------------------|---------------------------------|
E|-0---2---2---5---2---2---0---2---|-2---2---0---2---2---5---2---2---|-0---2---2---5---2---2---0---2---|


G|---------------------------------|---------------------------------|---------------------------------|
D|---------------------------------|---------------------------------|---------------------------------|
A|---------------------------------|---------------------------------|---------------------------------|
E|-2---2---0---2---2---5---2---2---|-0---2---2---5---2---2---0---2---|-2---2---0---2---2---5---2---2---|


G|---------------------------------|---------------------------------|---------------------------------|
D|---------------------------------|---------------------------------|---------------------------------|
A|---------------------------------|---------0---2---2---0---2---2---|-0---2---2---0---2---2---0---2---|
E|-0---2---2---5---2---2---0---2---|-2---2---------------------------|---------------------------------|


G|---------------------------------|---------------------------------|---------------------------------|
D|---------------------------------|---------------------------------|---------------------------------|
A|-2---0---------------------------|---------------------------------|---------0---2---2---0---2---2---|
E|---------0---2---2---5---2---2---|-0---2---2---5---2---2---0---2---|-2---2---------------------------|


G|---------------------------------|---------------------------------|---------------------------------|
D|---------------------------------|---------------------------------|---------------------------------|
A|-0---2---2---0---2---2---0---2---|-2---0---------------------------|---------------------------------|
E|---------------------------------|---------0---2---2---5---2---2---|-0---2---2---5---2---2---0---2---|


G|---------------------------------|---------------------------------|---------------------------------|
D|---------------------------------|---------------------------------|---------------------------------|
A|---------0---2---2---0---2---2---|-0---2---2---0---2---2---0---2---|-2---0---------------------------|
E|-2---2---------------------------|---------------------------------|---------0---2---2---5---2---2---|


G|---------------------------------|---------------------------------|---------------------------------|
D|---------------------------------|---------------------------------|---------------------------------|
A|---------------------------------|---------0---2---2---0---2---2---|-0---2---2---0---2---2---0---2---|
E|-0---2---2---5---2---2---0---2---|-2---2---------------------------|---------------------------------|


G|---------------------------------|---------------------------------|------------------------|
D|---------------------------------|---------------------------------|------------------------|
A|-2---0---------------------------|---------------------------------|---------------0---0----|
E|---------0---2---2---5---2---2---|-0---2---2---5---2---2---0---2---|-2---2---2--------------|


G|----------6---4-------4-------|-9---9------------------|-------------|---------------------|
D|-0----0-----------7-------7---|------------------------|-0----0------|---------------------|
A|------------------------------|---------------0---0----|-------------|------------0---0----|
E|------------------------------|---------2--------------|-------------|------2--------------|


G|----------6---4-------4-------|-9---9------------------|-------------|------------------------------|
D|-0----0-----------7-------7---|------------------------|-0----0------|------------------------------|
A|------------------------------|---------------0---0----|-------------|------------------------------|
E|------------------------------|---------2--------------|-------------|-12---0---2---2---5---2---2---|


G|---------------------------------|---------------------------------|---------------------------------|
D|---------------------------------|---------------------------------|---------------------------------|
A|---------------------------------|---------------------------------|---------------------------------|
E|-0---2---2---5---2---2---0---2---|-2---2---0---2---2---5---2---2---|-0---2---2---5---2---2---0---2---|


G|---------------------------------|---------------------------------|---------------------------------|
D|---------------------------------|---------------------------------|---------------------------------|
A|---------------------------------|---------------------------------|---------------------------------|
E|-2---2---0---2---2---5---2---2---|-0---2---2---5---2---2---0---2---|-2---2---0---2---2---5---2---0---|


G|-------------|-------------|-------------|-------------|
D|-------------|-------------|-------------|-------------|
A|-------------|-------------|-------------|-------------|
E|-5----5------|------5------|------5------|-------------|