Site menu:

    

Browse: 0-9 A B C D E F G H I J K L N O P Q R S T U V W X Y Z

steely dan - rikki dont lose that number:



Title: Rikki Don't Lose That Number
Artist: 
Album: 
Author: 


Track 1: Acoustic I

E|--------|--------|------------------------|------------------------|---------------------------|
B|--------|--------|-7---7---5----3----2----|-7---7---5----3----2----|-7---7---5----3----2---3---|
G|--------|--------|-7---7---6----4----2----|-7---7---6----4----2----|-7---7---6----4----2---4---|
D|--------|--------|------------------------|------------------------|---------------------------|
A|--------|--------|------------------------|------------------------|---------------------------|
E|--------|--------|------------------------|------------------------|---------------------------|


E|-----------------|-0----2--2----2-----|---------------------0-----|---------------------|
B|-----3-----3-----|-3------------------|-------------0---0---------|---------------------|
G|-----4-----4-----|-2------------2-----|---------2-----------------|---------------------|
D|-----------------|-0------------------|-----2---------------------|---------------------|
A|-----------------|--------------------|-0-------------------------|------7--------7-----|
E|-----------------|--------------------|---------------------------|-0-------------------|


E|---------------------|------------------0-----|-----------------0-----|---------------------|
B|---------------------|----------3---3---------|---------0---0---------|---------------------|
G|---------------------|------2-----------------|-----2-----------------|---------------------|
D|------2--------2-----|------------------------|-2---------------------|---------------------|
A|---------------------|------------------------|-----------------------|------7--------7-----|
E|-0-------------------|------------------------|-----------------------|-0-------------------|


E|---------------------------|-------------0---0---------|---------0----0-----|--------------------|
B|---------------------------|---------3-----------3-----|---------2----2-----|--------------------|
G|---------6------------4----|-----2---------------------|-----2---2----------|--------------------|
D|-----6------------4--------|-0-------------------------|-2---2---2----------|------2---------2---|
A|-4------------2------------|---------------------------|--------------------|--------------------|
E|---------------------------|---------------------------|--------------------|-0------------------|


E|---------------------------|---------------------------|-----------------------|
B|---------------------------|-------------2---2---------|-0---2-------2---2-----|
G|-2---1---------------1-----|---------2-----------4-----|-2-------2-------------|
D|---------2---4-------------|-----4---------------------|-----------------------|
A|---------------------------|---------------------------|-----------------------|
E|---------------------------|---------------------------|-----------------------|


E|---------------------------------|-2----2---2---2---2---2---2---|-2---2---2---2---2---2---2---2---|
B|-----------------3---------------|-3----3---3---3---3---3---3---|-3---3---3---3---3---3---3---3---|
G|---------1---2-------1---2-------|-1----1---1---1---1---1---1---|-1---1---1---1---1---1---1---1---|
D|-----1-----------------------2---|------------------------------|---------------------------------|
A|---------------------------------|-2----2---2---2---2---2---2---|-2---2---2---2---2---2---2---2---|
E|---------------------------------|-0----0---0---0---0---0---0---|-0---0---0---0---0---0---0---0---|


E|-3----3---3---3---3---3---3---|-3----3---3---3---3---3---3---|-0-----0---0---0---0---0---|
B|-0----0---0---0---0---0---0---|-0----0---0---0---0---0---0---|-2-----2---2---2---2---2---|
G|-0----0---0---0---0---0---0---|-0----0---0---0---0---0---0---|-2-----2---2---2---2---2---|
D|-0----0---0---0---0---0---0---|-0----0---0---0---0---0---0---|-2-----2---2---2---2---2---|
A|-2----2---2---2---2---2---2---|-2----2---2---2---2---2---2---|-0-----0---0---0---0---0---|
E|-3----3---3---3---3---3---3---|-3----3---3---3---3---3---3---|---------------------------|


E|-3-----3---3---3---3---3---|-2-----2---2---2---2---2---|-2---2---2---2---2---2---2---2---|
B|-0-----0---0---0---0---0---|-3-----3---3---3---3---3---|-3---3---3---3---3---3---3---3---|
G|-0-----0---0---0---0---0---|-2-----2---2---2---2---2---|-2---2---2---2---2---2---2---2---|
D|-0-----0---0---0---0---0---|-0-----0---0---0---0---0---|-0---0---0---0---0---0---0---0---|
A|-2-----2---2---2---2---2---|---------------------------|---------------------------------|
E|-3-----3---3---3---3---3---|---------------------------|---------------------------------|


E|-0----0---0---0---0---0---0---|-0----0---0---0---0---0---0---|-0----0---0---0---0---0---0---|
B|-1----1---1---1---1---1---1---|-1----1---1---1---1---1---1---|-0----0---0---0---0---0---0---|
G|-0----0---0---0---0---0---0---|-0----0---0---0---0---0---0---|-0----0---0---0---0---0---0---|
D|-2----2---2---2---2---2---2---|-2----2---2---2---2---2---2---|-2----2---2---2---2---2---2---|
A|-3----3---3---3---3---3---3---|-3----3---3---3---3---3---3---|-2----2---2---2---2---2---2---|
E|------------------------------|------------------------------|-0----0---0---0---0---0---0---|


E|-0----0---0---0---0---0---0---|-0----0---0---0---0---0---0---|------------------------|
B|-0----0---0---0---0---0---0---|-1----1---1---1---1---1---1---|--------------0----0----|
G|-0----0---0---0---0---0---0---|-0----0---0---0---0---0---0---|--------------2----2----|
D|-2----2---2---2---2---2---2---|-2----2---2---2---2---2---2---|-----2----2---2----2----|
A|-2----2---2---2---2---2---2---|-3----3---3---3---3---3---3---|-----0----0---0----0----|
E|-0----0---0---0---0---0---0---|------------------------------|------------------------|


E|--------------------|--------|--------|--------|--------|-0----2--2----2-----|---------------------0-----|
B|-2------------------|--------|--------|--------|--------|-3------------------|-------------0---0---------|
G|-2------------------|--------|--------|--------|--------|-2------------2-----|---------2-----------------|
D|-2------------------|--------|--------|--------|--------|-0------------------|-----2---------------------|
A|-0------------------|--------|--------|--------|--------|--------------------|-0-------------------------|
E|--------------------|--------|--------|--------|--------|--------------------|---------------------------|


E|---------------------|---------------------|------------------0-----|-----------------0-----|
B|---------------------|---------------------|----------3---3---------|---------0---0---------|
G|---------------------|---------------------|------2-----------------|-----2-----------------|
D|---------------------|------2--------2-----|------------------------|-2---------------------|
A|------7--------7-----|---------------------|------------------------|-----------------------|
E|-0-------------------|-0-------------------|------------------------|-----------------------|


E|---------------------|---------------------------|-------------0---0---------|---------0----0-----|
B|---------------------|---------------------------|---------3-----------3-----|---------2----2-----|
G|---------------------|---------6------------4----|-----2---------------------|-----2---2----------|
D|---------------------|-----6------------4--------|-0-------------------------|-2---2---2----------|
A|------7--------7-----|-4------------2------------|---------------------------|--------------------|
E|-0-------------------|---------------------------|---------------------------|--------------------|


E|--------------------|---------------------------|---------------------------|-----------------------|
B|--------------------|---------------------------|-------------2---2---------|-0---2-------2---2-----|
G|--------------------|-2---1---------------1-----|---------2-----------4-----|-2-------2-------------|
D|------2---------2---|---------2---4-------------|-----4---------------------|-----------------------|
A|--------------------|---------------------------|---------------------------|-----------------------|
E|-0------------------|---------------------------|---------------------------|-----------------------|


E|---------------------------------|-2----2---2---2---2---2---2---|-2---2---2---2---2---2---2---2---|
B|-----------------3---------------|-3----3---3---3---3---3---3---|-3---3---3---3---3---3---3---3---|
G|---------1---2-------1---2-------|-1----1---1---1---1---1---1---|-1---1---1---1---1---1---1---1---|
D|-----1-----------------------2---|------------------------------|---------------------------------|
A|---------------------------------|-2----2---2---2---2---2---2---|-2---2---2---2---2---2---2---2---|
E|---------------------------------|-0----0---0---0---0---0---0---|-0---0---0---0---0---0---0---0---|


E|-3----3---3---3---3---3---3---|-3----3---3---3---3---3---3---|-0-----0---0---0---0---0---|
B|-0----0---0---0---0---0---0---|-0----0---0---0---0---0---0---|-2-----2---2---2---2---2---|
G|-0----0---0---0---0---0---0---|-0----0---0---0---0---0---0---|-2-----2---2---2---2---2---|
D|-0----0---0---0---0---0---0---|-0----0---0---0---0---0---0---|-2-----2---2---2---2---2---|
A|-2----2---2---2---2---2---2---|-2----2---2---2---2---2---2---|-0-----0---0---0---0---0---|
E|-3----3---3---3---3---3---3---|-3----3---3---3---3---3---3---|---------------------------|


E|-3-----3---3---3---3---3---|-2-----2---2---2---2---2---|-2---2---2---2---2---2---2---2---|
B|-0-----0---0---0---0---0---|-3-----3---3---3---3---3---|-3---3---3---3---3---3---3---3---|
G|-0-----0---0---0---0---0---|-2-----2---2---2---2---2---|-2---2---2---2---2---2---2---2---|
D|-0-----0---0---0---0---0---|-0-----0---0---0---0---0---|-0---0---0---0---0---0---0---0---|
A|-2-----2---2---2---2---2---|---------------------------|---------------------------------|
E|-3-----3---3---3---3---3---|---------------------------|---------------------------------|


E|-0----0---0---0---0---0---0---|-0----0---0---0---0---0---0---|-0----0---0---0---0---0---0---|
B|-1----1---1---1---1---1---1---|-1----1---1---1---1---1---1---|-0----0---0---0---0---0---0---|
G|-0----0---0---0---0---0---0---|-0----0---0---0---0---0---0---|-0----0---0---0---0---0---0---|
D|-2----2---2---2---2---2---2---|-2----2---2---2---2---2---2---|-2----2---2---2---2---2---2---|
A|-3----3---3---3---3---3---3---|-3----3---3---3---3---3---3---|-2----2---2---2---2---2---2---|
E|------------------------------|------------------------------|-0----0---0---0---0---0---0---|


E|-0----0---0---0---0---0---0---|-0----0---0---0---0---0---0---|--------|--------|
B|-0----0---0---0---0---0---0---|-1----1---1---1---1---1---1---|--------|--------|
G|-0----0---0---0---0---0---0---|-0----0---0---0---0---0---0---|--------|--------|
D|-2----2---2---2---2---2---2---|-2----2---2---2---2---2---2---|--------|--------|
A|-2----2---2---2---2---2---2---|-3----3---3---3---3---3---3---|--------|--------|
E|-0----0---0---0---0---0---0---|------------------------------|--------|--------|


E|--------|--------|--------|--------|--------|--------|--------|--------|--------|
B|--------|--------|--------|--------|--------|--------|--------|--------|--------|
G|--------|--------|--------|--------|--------|--------|--------|--------|--------|
D|--------|--------|--------|--------|--------|--------|--------|--------|--------|
A|--------|--------|--------|--------|--------|--------|--------|--------|--------|
E|--------|--------|--------|--------|--------|--------|--------|--------|--------|


E|--------|--------|--------|--------|--------|--------|--------|--------|--------|
B|--------|--------|--------|--------|--------|--------|--------|--------|--------|
G|--------|--------|--------|--------|--------|--------|--------|--------|--------|
D|--------|--------|--------|--------|--------|--------|--------|--------|--------|
A|--------|--------|--------|--------|--------|--------|--------|--------|--------|
E|--------|--------|--------|--------|--------|--------|--------|--------|--------|


E|--------|--------|-0---0---0---0---0---0---0----|-4---4---4---4---4---4---4----|
B|--------|--------|-2---2---2---2---2---2---2----|-4---4---4---4---4---4---4----|
G|--------|--------|-1---1---1---1---1---1---1----|-4---4---4---4---4---4---4----|
D|--------|--------|-2---2---2---2---2---2---2----|-4---4---4---4---4---4---4----|
A|--------|--------|-0---0---0---0---0---0---0----|-6---6---6---6---6---6---6----|
E|--------|--------|------------------------------|-4---4---4---4---4---4---4----|


E|-0---0---0---0---0---0---0----|-4---4---4---4---4---4---4----|-2---2---2---2---2---2---2----|
B|-2---2---2---2---2---2---2----|-5---5---5---5---5---5---5----|-2---2---2---2---2---2---2----|
G|-1---1---1---1---1---1---1----|-4---4---4---4---4---4---4----|-2---2---2---2---2---2---2----|
D|-2---2---2---2---2---2---2----|-6---6---6---6---6---6---6----|-2---2---2---2---2---2---2----|
A|-0---0---0---0---0---0---0----|-4---4---4---4---4---4---4----|-4---4---4---4---4---4---4----|
E|------------------------------|------------------------------|-2---2---2---2---2---2---2----|


E|-0---0---0---0---0---0---0----|---------------------------------|-2----2---2---2---2---2---2---|
B|-2---2---2---2---2---2---2----|-----------------3---------------|-3----3---3---3---3---3---3---|
G|-2---2---2---2---2---2---2----|---------1---2-------1---2-------|-1----1---1---1---1---1---1---|
D|-2---2---2---2---2---2---2----|-----1-----------------------2---|------------------------------|
A|-0---0---0---0---0---0---0----|---------------------------------|-2----2---2---2---2---2---2---|
E|------------------------------|---------------------------------|-0----0---0---0---0---0---0---|


E|-2---2---2---2---2---2---2---2---|-3----3---3---3---3---3---3---|-3----3---3---3---3---3---3---|
B|-3---3---3---3---3---3---3---3---|-0----0---0---0---0---0---0---|-0----0---0---0---0---0---0---|
G|-1---1---1---1---1---1---1---1---|-0----0---0---0---0---0---0---|-0----0---0---0---0---0---0---|
D|---------------------------------|-0----0---0---0---0---0---0---|-0----0---0---0---0---0---0---|
A|-2---2---2---2---2---2---2---2---|-2----2---2---2---2---2---2---|-2----2---2---2---2---2---2---|
E|-0---0---0---0---0---0---0---0---|-3----3---3---3---3---3---3---|-3----3---3---3---3---3---3---|


E|-0-----0---0---0---0---0---|-3-----3---3---3---3---3---|-2-----2---2---2---2---2---|
B|-2-----2---2---2---2---2---|-0-----0---0---0---0---0---|-3-----3---3---3---3---3---|
G|-2-----2---2---2---2---2---|-0-----0---0---0---0---0---|-2-----2---2---2---2---2---|
D|-2-----2---2---2---2---2---|-0-----0---0---0---0---0---|-0-----0---0---0---0---0---|
A|-0-----0---0---0---0---0---|-2-----2---2---2---2---2---|---------------------------|
E|---------------------------|-3-----3---3---3---3---3---|---------------------------|


E|-2---2---2---2---2---2---2---2---|-0----0---0---0---0---0---0---|-0----0---0---0---0---0---0---|
B|-3---3---3---3---3---3---3---3---|-1----1---1---1---1---1---1---|-1----1---1---1---1---1---1---|
G|-2---2---2---2---2---2---2---2---|-0----0---0---0---0---0---0---|-0----0---0---0---0---0---0---|
D|-0---0---0---0---0---0---0---0---|-2----2---2---2---2---2---2---|-2----2---2---2---2---2---2---|
A|---------------------------------|-3----3---3---3---3---3---3---|-3----3---3---3---3---3---3---|
E|---------------------------------|------------------------------|------------------------------|


E|-0----0---0---0---0---0---0---|-0----0---0---0---0---0---0---|-0----0---0---0---0---0---0---|
B|-0----0---0---0---0---0---0---|-0----0---0---0---0---0---0---|-1----1---1---1---1---1---1---|
G|-0----0---0---0---0---0---0---|-0----0---0---0---0---0---0---|-0----0---0---0---0---0---0---|
D|-2----2---2---2---2---2---2---|-2----2---2---2---2---2---2---|-2----2---2---2---2---2---2---|
A|-2----2---2---2---2---2---2---|-2----2---2---2---2---2---2---|-3----3---3---3---3---3---3---|
E|-0----0---0---0---0---0---0---|-0----0---0---0---0---0---0---|------------------------------|


E|------------------------|--------------------|--------|--------|------------------------|
B|--------------0----0----|-2------------------|--------|--------|-7---7---5----3----2----|
G|--------------2----2----|-2------------------|--------|--------|-7---7---6----4----2----|
D|-----2----2---2----2----|-2------------------|--------|--------|------------------------|
A|-----0----0---0----0----|-0------------------|--------|--------|------------------------|
E|------------------------|--------------------|--------|--------|------------------------|


E|------------------------|---------------------------|-----------------|
B|-7---7---5----3----2----|-7---7---5----3----2---3---|-----3-----3-----|
G|-7---7---6----4----2----|-7---7---6----4----2---4---|-----4-----4-----|
D|------------------------|---------------------------|-----------------|
A|------------------------|---------------------------|-----------------|
E|------------------------|---------------------------|-----------------|





Track 2: Piano arr. for guitar

E|---------------------|---------------------|---------------------|---------------------|
B|---------------------|---------------------|---------------------|---------------------|
G|---------------------|---------------------|---------------------|---------------------|
D|---------------------|---------------------|---------------------|---------------------|
A|-------2---2---------|-------2---2---------|-------2---2---------|-------2---2---------|
E|-0---------------0---|-0---------------0---|-0---------------0---|-0---------------0---|


E|---------------------|---------------------|-5--5----5---------5--5----|---------------5-------|
B|---------------------|---------------------|-5--7----7---------5--7----|-5-----5---5-------7---|
G|---------------------|---------------------|-6--7----7---------6--7----|-6-----6---------------|
D|---------------------|---------------------|-0------------0------------|-7-----7---------------|
A|-------2---2---------|-------2---2---------|---------------------------|-0-----0---------------|
E|-0---------------0---|-0--------------0----|---------------------------|-----------------------|


E|-4------7----|---------------------------|-5--5----5---------5--5----|---------------5-------|
B|-5------9----|-10--9-------7---7----9----|-5--7----7---------5--7----|-5-----5---5-------7---|
G|-4------9----|-9---9---9-----------------|-6--7----7---------6--7----|-6-----6---------------|
D|-6------9----|-9---9---9---9---9----9----|-0------------0------------|-7-----7---------------|
A|--------7----|-7-------------------------|---------------------------|-0-----0---------------|
E|-------------|---------------------------|---------------------------|-----------------------|


E|-4------4----|-4-----2-----|-5--5----5---------5--5----|---------------5-------|
B|-5------5----|-6-----4-----|-5--7----7---------5--7----|-5-----5---5-------7---|
G|-4------4----|-6-----4-----|-6--7----7---------6--7----|-6-----6---------------|
D|-6------6----|-6-----4-----|-0------------0------------|-7-----7---------------|
A|-------------|-------------|---------------------------|-0-----0---------------|
E|-------------|-------------|---------------------------|-----------------------|


E|-4------7----|---------------------------|-2------2----|-0------|---------------------------------|
B|-5------9----|-10--9-------7---7---9-----|-2------2----|-2------|-----------------3---------------|
G|-4------9----|-9---9---9-----------------|-4------4----|-2------|---------1---2-------1---2-------|
D|-6------9----|-9---9---9---9---9---9-----|-4-----------|-2------|-----1-----------------------2---|
A|--------7----|-7-------------------------|-4-----------|--------|-2-------------------------------|
E|-------------|---------------------------|-2-----------|--------|---------------------------------|


E|---------------------------|---------------------------|------------------------------|
B|-7---7---5----3----2---3---|-----3-----7---5---3---5---|-3----2---0---0---2---2---0---|
G|-7---7---6----4----2---4---|-----4-----7---6---4---6---|-4----2---0---0---2---2---0---|
D|---------------------------|---------------------------|------------------------------|
A|---------------------------|---------------------------|------------------------------|
E|---------------------------|---------------------------|------------------------------|


E|-----------------------------0---|-0---0-----0---0----|-3---3-----3---3---3---|--------|
B|-----3-----------3-------3-------|-0---2-----2---0----|-3---3-----3---3---3---|--------|
G|-----2-------0---2---0---2-------|-2---2-----2---2----|-2---4-----4---4---4---|--------|
D|---------------------------------|-2---2-----2---2----|-5---5-----5---5---5---|--------|
A|---------------------------------|--------------------|-----------------------|--------|
E|---------------------------------|--------------------|-3---3-----------------|--------|


E|--------|--------|--------|--------|--------|--------|--------|--------|---------------------|
B|--------|--------|--------|--------|--------|--------|--------|--------|---------------------|
G|--------|--------|--------|--------|--------|--------|--------|--------|---------------------|
D|--------|--------|--------|--------|--------|--------|--------|--------|---------------------|
A|--------|--------|--------|--------|--------|--------|--------|--------|-------2---2---------|
E|--------|--------|--------|--------|--------|--------|--------|--------|-0---------------0---|


E|---------------------|---------------------|---------------------|-5--5----5---------5--5----|
B|---------------------|---------------------|---------------------|-5--7----7---------5--7----|
G|---------------------|---------------------|---------------------|-6--7----7---------6--7----|
D|---------------------|---------------------|---------------------|-0------------0------------|
A|-------2---2---------|-------2---2---------|-------2---2---------|---------------------------|
E|-0---------------0---|-0---------------0---|-0--------------0----|---------------------------|


E|---------------5-------|-4------7----|---------------------------|-5--5----5---------5--5----|
B|-5-----5---5-------7---|-5------9----|-10--9-------7---7----9----|-5--7----7---------5--7----|
G|-6-----6---------------|-4------9----|-9---9---9-----------------|-6--7----7---------6--7----|
D|-7-----7---------------|-6------9----|-9---9---9---9---9----9----|-0------------0------------|
A|-0-----0---------------|--------7----|-7-------------------------|---------------------------|
E|-----------------------|-------------|---------------------------|---------------------------|


E|---------------5-------|-4------4----|-4-----2-----|-5--5----5---------5--5----|
B|-5-----5---5-------7---|-5------5----|-6-----4-----|-5--7----7---------5--7----|
G|-6-----6---------------|-4------4----|-6-----4-----|-6--7----7---------6--7----|
D|-7-----7---------------|-6------6----|-6-----4-----|-0------------0------------|
A|-0-----0---------------|-------------|-------------|---------------------------|
E|-----------------------|-------------|-------------|---------------------------|


E|---------------5-------|-4------7----|---------------------------|-2------2----|
B|-5-----5---5-------7---|-5------9----|-10--9-------7---7---9-----|-2------2----|
G|-6-----6---------------|-4------9----|-9---9---9-----------------|-4------4----|
D|-7-----7---------------|-6------9----|-9---9---9---9---9---9-----|-4-----------|
A|-0-----0---------------|--------7----|-7-------------------------|-4-----------|
E|-----------------------|-------------|---------------------------|-2-----------|


E|-0------|---------------------------------|---------------------------|---------------------------|
B|-2------|-----------------3---------------|-7---7---5----3----2---3---|-----3-----7---5---3---5---|
G|-2------|---------1---2-------1---2-------|-7---7---6----4----2---4---|-----4-----7---6---4---6---|
D|-2------|-----1-----------------------2---|---------------------------|---------------------------|
A|--------|-2-------------------------------|---------------------------|---------------------------|
E|--------|---------------------------------|---------------------------|---------------------------|


E|------------------------------|-----------------------------0---|-0---0-----0---0----|
B|-3----2---0---0---2---2---0---|-----3-----------3-------3-------|-0---2-----2---0----|
G|-4----2---0---0---2---2---0---|-----2-------0---2---0---2-------|-2---2-----2---2----|
D|------------------------------|---------------------------------|-2---2-----2---2----|
A|------------------------------|---------------------------------|--------------------|
E|------------------------------|---------------------------------|--------------------|


E|-3---3-----3---3---3---|--------|--------|--------|--------|--------|--------|--------|
B|-3---3-----3---3---3---|--------|--------|--------|--------|--------|--------|--------|
G|-2---4-----4---4---4---|--------|--------|--------|--------|--------|--------|--------|
D|-5---5-----5---5---5---|--------|--------|--------|--------|--------|--------|--------|
A|-----------------------|--------|--------|--------|--------|--------|--------|--------|
E|-3---3-----------------|--------|--------|--------|--------|--------|--------|--------|


E|--------|--------|---------------------|---------------------|---------------------|
B|--------|--------|---------------------|---------------------|---------------------|
G|--------|--------|---------------------|---------------------|---------------------|
D|--------|--------|---------------------|---------------------|---------------------|
A|--------|--------|-------2---2---------|-------2---2---------|-------2---2---------|
E|--------|--------|-0---------------0---|-0---------------0---|-0---------------0---|


E|--------|--------|--------|--------|--------|--------|--------|--------|--------|
B|--------|--------|--------|--------|--------|--------|--------|--------|--------|
G|--------|--------|--------|--------|--------|--------|--------|--------|--------|
D|--------|--------|--------|--------|--------|--------|--------|--------|--------|
A|--------|--------|--------|--------|--------|--------|--------|--------|--------|
E|--------|--------|--------|--------|--------|--------|--------|--------|--------|


E|--------|--------|--------|--------|--------|--------|--------|--------|--------|
B|--------|--------|--------|--------|--------|--------|--------|--------|--------|
G|--------|--------|--------|--------|--------|--------|--------|--------|--------|
D|--------|--------|--------|--------|--------|--------|--------|--------|--------|
A|--------|--------|--------|--------|--------|--------|--------|--------|--------|
E|--------|--------|--------|--------|--------|--------|--------|--------|--------|


E|--------|--------|--------|--------|--------|---------------------------------|---------------------------|
B|--------|--------|--------|--------|--------|-----------------3---------------|-7---7---5----3----2---3---|
G|--------|--------|--------|--------|--------|---------1---2-------1---2-------|-7---7---6----4----2---4---|
D|--------|--------|--------|--------|--------|-----1-----------------------2---|---------------------------|
A|--------|--------|--------|--------|--------|-2-------------------------------|---------------------------|
E|--------|--------|--------|--------|--------|---------------------------------|---------------------------|


E|---------------------------|------------------------------|-----------------------------0---|
B|-----3-----7---5---3---5---|-3----2---0---0---2---2---0---|-----3-----------3-------3-------|
G|-----4-----7---6---4---6---|-4----2---0---0---2---2---0---|-----2-------0---2---0---2-------|
D|---------------------------|------------------------------|---------------------------------|
A|---------------------------|------------------------------|---------------------------------|
E|---------------------------|------------------------------|---------------------------------|


E|-0---0-----0---0----|-3---3-----3---3---3---|--------|--------|--------|--------|
B|-0---2-----2---0----|-3---3-----3---3---3---|--------|--------|--------|--------|
G|-2---2-----2---2----|-2---4-----4---4---4---|--------|--------|--------|--------|
D|-2---2-----2---2----|-5---5-----5---5---5---|--------|--------|--------|--------|
A|--------------------|-----------------------|--------|--------|--------|--------|
E|--------------------|-3---3-----------------|--------|--------|--------|--------|


E|--------|--------|--------|--------|--------|---------------------|---------------------|
B|--------|--------|--------|--------|--------|---------------------|---------------------|
G|--------|--------|--------|--------|--------|---------------------|---------------------|
D|--------|--------|--------|--------|--------|---------------------|---------------------|
A|--------|--------|--------|--------|--------|-------2---2---------|-------2---2---------|
E|--------|--------|--------|--------|--------|-0---------------0---|-0---------------0---|


E|---------------------|---------------------|---------------------|-------------|
B|---------------------|---------------------|---------------------|-------------|
G|---------------------|---------------------|---------------------|-------------|
D|---------------------|---------------------|---------------------|-------------|
A|-------2---2---------|-------2---2---------|-------2---2---------|-------------|
E|-0---------------0---|-0---------------0---|-0---------------0---|-0-----0-----|





Track 3: Electric

E|--------|--------|--------|--------|--------|--------|--------|--------|--------|
B|--------|--------|--------|--------|--------|--------|--------|--------|--------|
G|--------|--------|--------|--------|--------|--------|--------|--------|--------|
D|--------|--------|--------|--------|--------|--------|--------|--------|--------|
A|--------|--------|--------|--------|--------|--------|--------|--------|--------|
E|--------|--------|--------|--------|--------|--------|--------|--------|--------|


E|--------|--------|--------|--------|--------|--------|--------|--------|--------|
B|--------|--------|--------|--------|--------|--------|--------|--------|--------|
G|--------|--------|--------|--------|--------|--------|--------|--------|--------|
D|--------|--------|--------|--------|--------|--------|--------|--------|--------|
A|--------|--------|--------|--------|--------|--------|--------|--------|--------|
E|--------|--------|--------|--------|--------|--------|--------|--------|--------|


E|--------|--------|--------|--------|--------|--------|--------|--------|--------|
B|--------|--------|--------|--------|--------|--------|--------|--------|--------|
G|--------|--------|--------|--------|--------|--------|--------|--------|--------|
D|--------|--------|--------|--------|--------|--------|--------|--------|--------|
A|--------|--------|--------|--------|--------|--------|--------|--------|--------|
E|--------|--------|--------|--------|--------|--------|--------|--------|--------|


E|----------5-------5---5---5---|-----5-----------0------------|---------------------|
B|----------5---5---3---5---3---|-----3--------3-------3-------|---------------------|
G|------------------------------|-4---4---2----2-----------2---|---------------------|
D|------------------------------|------------------------------|-5-----5---5-----5---|
A|------------------------------|------------------------------|-3-----3---3-----3---|
E|------------------------------|------------------------------|---------------------|


E|-----------------------------------|------------------------|----------------------------------|
B|-----------------------------------|------------------------|----------------------------------|
G|---------------------------5---7---|-9----7--------7----9---|-9---7--9--7-------7--9--7---7----|
D|------5-------5--7--5------5---7---|-9----7----9---7----9---|-9---7--9--7---9---7--9--7---7----|
A|------3---7------------7-----------|-----------9------------|---------------9------------------|
E|-----------------------------------|------------------------|----------------------------------|


E|------------------------|------------------------------|-----------------|--------|
B|------------------------|--------------0-------0-------|-2---------------|--------|
G|-5-----5---5----5---7---|-----2--------2-------2-------|-2---------------|--------|
D|-5-----5---5----5---7---|-----2----2---2---2---2---2---|-2---------------|--------|
A|-3-----3---3------------|-----0------------------------|-0---------------|--------|
E|------------------------|------------------------------|-----------------|--------|


E|--------|--------|--------|--------|--------|--------|--------|--------|--------|
B|--------|--------|--------|--------|--------|--------|--------|--------|--------|
G|--------|--------|--------|--------|--------|--------|--------|--------|--------|
D|--------|--------|--------|--------|--------|--------|--------|--------|--------|
A|--------|--------|--------|--------|--------|--------|--------|--------|--------|
E|--------|--------|--------|--------|--------|--------|--------|--------|--------|


E|--------|--------|--------|--------|--------|--------|--------|--------|--------|
B|--------|--------|--------|--------|--------|--------|--------|--------|--------|
G|--------|--------|--------|--------|--------|--------|--------|--------|--------|
D|--------|--------|--------|--------|--------|--------|--------|--------|--------|
A|--------|--------|--------|--------|--------|--------|--------|--------|--------|
E|--------|--------|--------|--------|--------|--------|--------|--------|--------|


E|--------|--------|--------|--------|--------|--------|------7-----------7-----------|
B|--------|--------|--------|--------|--------|--------|----------10----------10------|
G|--------|--------|--------|--------|--------|--------|--------------9-----------9---|
D|--------|--------|--------|--------|--------|--------|------------------------------|
A|--------|--------|--------|--------|--------|--------|------------------------------|
E|--------|--------|--------|--------|--------|--------|------------------------------|


E|-----0-----------------------|---------------------|-----------------------------------|
B|-----------------------------|---------------------|-----------------------------------|
G|-9--------9--7----------7----|---------------------|---------------------------5---7---|
D|----------------7---9--------|-5-----5---5-----5---|------5-------5--7--5------5---7---|
A|-----------------------------|-3-----3---3-----3---|------3---7------------7-----------|
E|-----------------------------|---------------------|-----------------------------------|


E|------------------------|----------------------------------|------------------------|
B|------------------------|----------------------------------|------------------------|
G|-9----7--------7----9---|-9---7--9--7-------7--9--7---7----|-5-----5---5----5---7---|
D|-9----7----9---7----9---|-9---7--9--7---9---7--9--7---7----|-5-----5---5----5---7---|
A|-----------9------------|---------------9------------------|-3-----3---3------------|
E|------------------------|----------------------------------|------------------------|


E|------------------------------|-----------------|--------|--------|--------|------------------------|
B|--------------0-------0-------|-2---------------|--------|--------|--------|------------15-15-12-15-|
G|-----2--------2-------2-------|-2---------------|--------|--------|--------|------------------------|
D|-----2----2---2---2---2---2---|-2---------------|--------|--------|--------|------------------------|
A|-----0------------------------|-0---------------|--------|--------|--------|------------------------|
E|------------------------------|-----------------|--------|--------|--------|------------------------|


E|------------------------|------------------------|------------------|-------15--12--------------------------|
B|-15---------------------|------------------------|------------12----|-15-12---------------------------------|
G|------------14-14-12-14-|-14---------11-11-9--11-|-11-----14-----14-|---------------15-14-12-14-12-12-------|
D|------------------------|------------------------|------------------|----------------------------------14---|
A|------------------------|------------------------|------------------|---------------------------------------|
E|------------------------|------------------------|------------------|---------------------------------------|


E|--------------------|---------------------------12--------------|--------------------3--------|
B|--------------------|---------15----15----15-------15-----------|----------------6------------|
G|-14---14---12-------|-----14-----14----14----14-------14-14-12--|-----5--5--5------------5----|
D|--------------14----|-------------------------------------------|-----------------------------|
A|--------------------|-------------------------------------------|-----------------------------|
E|--------------------|-------------------------------------------|-----------------------------|


E|------------------------|---------------------------------------------|--------------------------------|
B|-3----------------------|-----5------------------8--8--8--8--10----5--|--------------------------------|
G|------5----3------------|-----5---8--9--9--9--9--9--9--9--9--------5--|-----7---9----------------------|
D|-------------------3----|---------9--10-10-10-10-10-10-10-10----10----|-9-----------9---9----9--7--5---|
A|---------------5--------|---------------------------------------------|--------------------------------|
E|------------------------|---------------------------------------------|--------------------------------|


E|------------------------------|-----------------------|-----10-12--------------------------|
B|---------0--------------------|-----------------------|-----10-12-----10-12----------------|
G|------------------------------|-------------7-----7---|---------------9--11-----7--7--7----|
D|-7-------5----7-------7-------|-----------------------|-------------------------7--9--7----|
A|-----7--------------------5---|-7---------------------|------------------------------------|
E|------------------------------|-----0-----------------|------------------------------------|


E|-----------------------------------------|-12--12--------------12------12--|-----12------12------12------12--|
B|-----10----10--------------10--10--------|-9---10------12------9-------10--|-----12------9-------12----------|
G|-----9--11-9---9--9--------9---11-9------|---------------------------------|---------------------------------|
D|---------------9--12-9--11---------------|---------------------------------|---------------------------------|
A|-----------------------------------------|---------------------------------|---------------------------------|
E|-----------------------------------------|---------------------------------|---------------------------------|


E|-12-------------|----------------------|------------------|--------|--------------------|
B|-----9---10-----|----------------------|------------------|--------|--------------------|
G|----------------|------------4--4--2---|-2----------------|--------|-2--4--2--4--2------|
D|----------------|------------4--6--2---|-2--4--2---2------|--------|-2--4--2--4--2------|
A|----------------|----------------------|------------------|--------|--------------------|
E|----------------|----------------------|------------------|--------|--------------------|


E|--------|--------|--------|--------|--------|--------|--------|--------|-------5---5---5---5---|
B|--------|--------|--------|--------|--------|--------|--------|--------|-------5---5---5---3---|
G|--------|--------|--------|--------|--------|--------|--------|--------|-----------------------|
D|--------|--------|--------|--------|--------|--------|--------|--------|-----------------------|
A|--------|--------|--------|--------|--------|--------|--------|--------|-----------------------|
E|--------|--------|--------|--------|--------|--------|--------|--------|-----------------------|


E|---------------------------------|---------------------|-----------------------------------|
B|-3---0---0-----------------------|---------------------|-----------------------------------|
G|-------------2---------------2---|---------------------|---------------------------5---7---|
D|-----------------0---2---4-------|-5-----5---5-----5---|------5-------5--7--5------5---7---|
A|---------------------------------|-3-----3---3-----3---|------3---7------------7-----------|
E|---------------------------------|---------------------|-----------------------------------|


E|------------------------|--------------------------------|------------------------|
B|------------------------|-----8-----8-------8------------|------------------------|
G|-9----7--------7----9---|-----7--9--7-------7---7--------|-5-----5---5----5---7---|
D|-9----7----9---7----9---|---------------9-----------9----|-5-----5---5----5---7---|
A|-----------9------------|--------------------------------|-3-----3---3------------|
E|------------------------|--------------------------------|------------------------|


E|------------------------------|-----------------|--------|--------|--------|--------|
B|--------------0-------0-------|-2---------------|--------|--------|--------|--------|
G|-----2--------2-------2-------|-2---------------|--------|--------|--------|--------|
D|-----2----2---2---2---2---2---|-2---------------|--------|--------|--------|--------|
A|-----0------------------------|-0---------------|--------|--------|--------|--------|
E|------------------------------|-----------------|--------|--------|--------|--------|


E|--------|--------|
B|--------|--------|
G|--------|--------|
D|--------|--------|
A|--------|--------|
E|--------|--------|





Track 4: Acoustic I

E|--------|--------|--------|--------|--------|--------|--------|--------|--------|
B|--------|--------|--------|--------|--------|--------|--------|--------|--------|
G|--------|--------|--------|--------|--------|--------|--------|--------|--------|
D|--------|--------|--------|--------|--------|--------|--------|--------|--------|
A|--------|--------|--------|--------|--------|--------|--------|--------|--------|
E|--------|--------|--------|--------|--------|--------|--------|--------|--------|


E|--------|--------|--------|--------|--------|--------|--------|--------|--------|
B|--------|--------|--------|--------|--------|--------|--------|--------|--------|
G|--------|--------|--------|--------|--------|--------|--------|--------|--------|
D|--------|--------|--------|--------|--------|--------|--------|--------|--------|
A|--------|--------|--------|--------|--------|--------|--------|--------|--------|
E|--------|--------|--------|--------|--------|--------|--------|--------|--------|


E|--------|--------|--------|--------|--------|--------|--------|--------|--------|
B|--------|--------|--------|--------|--------|--------|--------|--------|--------|
G|--------|--------|--------|--------|--------|--------|--------|--------|--------|
D|--------|--------|--------|--------|--------|--------|--------|--------|--------|
A|--------|--------|--------|--------|--------|--------|--------|--------|--------|
E|--------|--------|--------|--------|--------|--------|--------|--------|--------|


E|--------|--------|--------|--------|--------|--------|--------|--------|--------|
B|--------|--------|--------|--------|--------|--------|--------|--------|--------|
G|--------|--------|--------|--------|--------|--------|--------|--------|--------|
D|--------|--------|--------|--------|--------|--------|--------|--------|--------|
A|--------|--------|--------|--------|--------|--------|--------|--------|--------|
E|--------|--------|--------|--------|--------|--------|--------|--------|--------|


E|--------|--------|--------|--------|--------|--------|--------|--------|--------|
B|--------|--------|--------|--------|--------|--------|--------|--------|--------|
G|--------|--------|--------|--------|--------|--------|--------|--------|--------|
D|--------|--------|--------|--------|--------|--------|--------|--------|--------|
A|--------|--------|--------|--------|--------|--------|--------|--------|--------|
E|--------|--------|--------|--------|--------|--------|--------|--------|--------|


E|--------|--------|--------|--------|--------|--------|--------|--------|--------|
B|--------|--------|--------|--------|--------|--------|--------|--------|--------|
G|--------|--------|--------|--------|--------|--------|--------|--------|--------|
D|--------|--------|--------|--------|--------|--------|--------|--------|--------|
A|--------|--------|--------|--------|--------|--------|--------|--------|--------|
E|--------|--------|--------|--------|--------|--------|--------|--------|--------|


E|--------|--------|--------|--------|--------|--------|--------|--------|--------|
B|--------|--------|--------|--------|--------|--------|--------|--------|--------|
G|--------|--------|--------|--------|--------|--------|--------|--------|--------|
D|--------|--------|--------|--------|--------|--------|--------|--------|--------|
A|--------|--------|--------|--------|--------|--------|--------|--------|--------|
E|--------|--------|--------|--------|--------|--------|--------|--------|--------|


E|--------|--------|--------|--------|--------|------------------------|--------------------|
B|--------|--------|--------|--------|--------|--------------0----0----|-2------------------|
G|--------|--------|--------|--------|--------|--------------2----2----|-2------------------|
D|--------|--------|--------|--------|--------|-----2----2---2----2----|-2------------------|
A|--------|--------|--------|--------|--------|-----0----0---0----0----|-0------------------|
E|--------|--------|--------|--------|--------|------------------------|--------------------|


E|--------|--------|--------|--------|--------|--------|--------|--------|--------|
B|--------|--------|--------|--------|--------|--------|--------|--------|--------|
G|--------|--------|--------|--------|--------|--------|--------|--------|--------|
D|--------|--------|--------|--------|--------|--------|--------|--------|--------|
A|--------|--------|--------|--------|--------|--------|--------|--------|--------|
E|--------|--------|--------|--------|--------|--------|--------|--------|--------|


E|--------|--------|--------|--------|--------|--------|--------|--------|--------|
B|--------|--------|--------|--------|--------|--------|--------|--------|--------|
G|--------|--------|--------|--------|--------|--------|--------|--------|--------|
D|--------|--------|--------|--------|--------|--------|--------|--------|--------|
A|--------|--------|--------|--------|--------|--------|--------|--------|--------|
E|--------|--------|--------|--------|--------|--------|--------|--------|--------|


E|--------|--------|--------|--------|--------|--------|--------|--------|--------|
B|--------|--------|--------|--------|--------|--------|--------|--------|--------|
G|--------|--------|--------|--------|--------|--------|--------|--------|--------|
D|--------|--------|--------|--------|--------|--------|--------|--------|--------|
A|--------|--------|--------|--------|--------|--------|--------|--------|--------|
E|--------|--------|--------|--------|--------|--------|--------|--------|--------|


E|--------|--------|--------|--------|--------|--------|--------|--------|--------|
B|--------|--------|--------|--------|--------|--------|--------|--------|--------|
G|--------|--------|--------|--------|--------|--------|--------|--------|--------|
D|--------|--------|--------|--------|--------|--------|--------|--------|--------|
A|--------|--------|--------|--------|--------|--------|--------|--------|--------|
E|--------|--------|--------|--------|--------|--------|--------|--------|--------|


E|--------|--------|--------|--------|--------|--------|--------|--------|--------|
B|--------|--------|--------|--------|--------|--------|--------|--------|--------|
G|--------|--------|--------|--------|--------|--------|--------|--------|--------|
D|--------|--------|--------|--------|--------|--------|--------|--------|--------|
A|--------|--------|--------|--------|--------|--------|--------|--------|--------|
E|--------|--------|--------|--------|--------|--------|--------|--------|--------|


E|--------|--------|--------|
B|--------|--------|--------|
G|--------|--------|--------|
D|--------|--------|--------|
A|--------|--------|--------|
E|--------|--------|--------|





Track 5: Piano arr. for guitar

E|--------|--------|--------|--------|--------|--------|--------|--------|--------|
B|--------|--------|--------|--------|--------|--------|--------|--------|--------|
G|--------|--------|--------|--------|--------|--------|--------|--------|--------|
D|--------|--------|--------|--------|--------|--------|--------|--------|--------|
A|--------|--------|--------|--------|--------|--------|--------|--------|--------|
E|--------|--------|--------|--------|--------|--------|--------|--------|--------|


E|--------|--------|--------|--------|--------|--------|--------|--------|--------|
B|--------|--------|--------|--------|--------|--------|--------|--------|--------|
G|--------|--------|--------|--------|--------|--------|--------|--------|--------|
D|--------|--------|--------|--------|--------|--------|--------|--------|--------|
A|--------|--------|--------|--------|--------|--------|--------|--------|--------|
E|--------|--------|--------|--------|--------|--------|--------|--------|--------|


E|--------|--------|--------|--------|--------|--------|--------|--------|--------|
B|--------|--------|--------|--------|--------|--------|--------|--------|--------|
G|--------|--------|--------|--------|--------|--------|--------|--------|--------|
D|--------|--------|--------|--------|--------|--------|--------|--------|--------|
A|--------|--------|--------|--------|--------|--------|--------|--------|--------|
E|--------|--------|--------|--------|--------|--------|--------|--------|--------|


E|--------|--------|--------|--------|--------|--------|--------|--------|--------|
B|--------|--------|--------|--------|--------|--------|--------|--------|--------|
G|--------|--------|--------|--------|--------|--------|--------|--------|--------|
D|--------|--------|--------|--------|--------|--------|--------|--------|--------|
A|--------|--------|--------|--------|--------|--------|--------|--------|--------|
E|--------|--------|--------|--------|--------|--------|--------|--------|--------|


E|--------|--------|--------|--------|--------|--------|--------|--------|--------|
B|--------|--------|--------|--------|--------|--------|--------|--------|--------|
G|--------|--------|--------|--------|--------|--------|--------|--------|--------|
D|--------|--------|--------|--------|--------|--------|--------|--------|--------|
A|--------|--------|--------|--------|--------|--------|--------|--------|--------|
E|--------|--------|--------|--------|--------|--------|--------|--------|--------|


E|--------|--------|--------|--------|--------|--------|--------|--------|--------|
B|--------|--------|--------|--------|--------|--------|--------|--------|--------|
G|--------|--------|--------|--------|--------|--------|--------|--------|--------|
D|--------|--------|--------|--------|--------|--------|--------|--------|--------|
A|--------|--------|--------|--------|--------|--------|--------|--------|--------|
E|--------|--------|--------|--------|--------|--------|--------|--------|--------|


E|--------|--------|--------|--------|--------|--------|--------|--------|--------|
B|--------|--------|--------|--------|--------|--------|--------|--------|--------|
G|--------|--------|--------|--------|--------|--------|--------|--------|--------|
D|--------|--------|--------|--------|--------|--------|--------|--------|--------|
A|--------|--------|--------|--------|--------|--------|--------|--------|--------|
E|--------|--------|--------|--------|--------|--------|--------|--------|--------|


E|--------|--------|--------|--------|--------|----------------|--------|--------|
B|--------|--------|--------|--------|--------|----------------|--------|--------|
G|--------|--------|--------|--------|--------|----------------|--------|--------|
D|--------|--------|--------|--------|--------|----------------|--------|--------|
A|--------|--------|--------|--------|--------|----------------|--------|--------|
E|--------|--------|--------|--------|--------|----------------|--------|--------|


E|--------|--------|--------|--------|--------|--------|--------|--------|--------|
B|--------|--------|--------|--------|--------|--------|--------|--------|--------|
G|--------|--------|--------|--------|--------|--------|--------|--------|--------|
D|--------|--------|--------|--------|--------|--------|--------|--------|--------|
A|--------|--------|--------|--------|--------|--------|--------|--------|--------|
E|--------|--------|--------|--------|--------|--------|--------|--------|--------|


E|--------|--------|--------|--------|--------|--------|--------|--------|--------|
B|--------|--------|--------|--------|--------|--------|--------|--------|--------|
G|--------|--------|--------|--------|--------|--------|--------|--------|--------|
D|--------|--------|--------|--------|--------|--------|--------|--------|--------|
A|--------|--------|--------|--------|--------|--------|--------|--------|--------|
E|--------|--------|--------|--------|--------|--------|--------|--------|--------|


E|--------|--------|--------|--------|--------|--------|--------|--------|--------|
B|--------|--------|--------|--------|--------|--------|--------|--------|--------|
G|--------|--------|--------|--------|--------|--------|--------|--------|--------|
D|--------|--------|--------|--------|--------|--------|--------|--------|--------|
A|--------|--------|--------|--------|--------|--------|--------|--------|--------|
E|--------|--------|--------|--------|--------|--------|--------|--------|--------|


E|--------|--------|--------|--------|--------|--------|--------|--------|--------|
B|--------|--------|--------|--------|--------|--------|--------|--------|--------|
G|--------|--------|--------|--------|--------|--------|--------|--------|--------|
D|--------|--------|--------|--------|--------|--------|--------|--------|--------|
A|--------|--------|--------|--------|--------|--------|--------|--------|--------|
E|--------|--------|--------|--------|--------|--------|--------|--------|--------|


E|--------|--------|--------|--------|--------|--------|--------|--------|--------|
B|--------|--------|--------|--------|--------|--------|--------|--------|--------|
G|--------|--------|--------|--------|--------|--------|--------|--------|--------|
D|--------|--------|--------|--------|--------|--------|--------|--------|--------|
A|--------|--------|--------|--------|--------|--------|--------|--------|--------|
E|--------|--------|--------|--------|--------|--------|--------|--------|--------|


E|--------|--------|
B|--------|--------|
G|--------|--------|
D|--------|--------|
A|--------|--------|
E|--------|--------|





Track 6: Piano arr. for guitar

E|--------|--------|--------|--------|--------|--------|--------|--------|--------|
B|--------|--------|--------|--------|--------|--------|--------|--------|--------|
G|--------|--------|--------|--------|--------|--------|--------|--------|--------|
D|--------|--------|--------|--------|--------|--------|--------|--------|--------|
A|--------|--------|--------|--------|--------|--------|--------|--------|--------|
E|--------|--------|--------|--------|--------|--------|--------|--------|--------|


E|--------|--------|--------|--------|--------|--------|--------|--------|--------|
B|--------|--------|--------|--------|--------|--------|--------|--------|--------|
G|--------|--------|--------|--------|--------|--------|--------|--------|--------|
D|--------|--------|--------|--------|--------|--------|--------|--------|--------|
A|--------|--------|--------|--------|--------|--------|--------|--------|--------|
E|--------|--------|--------|--------|--------|--------|--------|--------|--------|


E|--------|--------|--------|--------|--------|--------|--------|--------|--------|
B|--------|--------|--------|--------|--------|--------|--------|--------|--------|
G|--------|--------|--------|--------|--------|--------|--------|--------|--------|
D|--------|--------|--------|--------|--------|--------|--------|--------|--------|
A|--------|--------|--------|--------|--------|--------|--------|--------|--------|
E|--------|--------|--------|--------|--------|--------|--------|--------|--------|


E|--------|--------|--------|--------|--------|--------|--------|--------|--------|
B|--------|--------|--------|--------|--------|--------|--------|--------|--------|
G|--------|--------|--------|--------|--------|--------|--------|--------|--------|
D|--------|--------|--------|--------|--------|--------|--------|--------|--------|
A|--------|--------|--------|--------|--------|--------|--------|--------|--------|
E|--------|--------|--------|--------|--------|--------|--------|--------|--------|


E|--------|--------|--------|--------|--------|--------|--------|--------|--------|
B|--------|--------|--------|--------|--------|--------|--------|--------|--------|
G|--------|--------|--------|--------|--------|--------|--------|--------|--------|
D|--------|--------|--------|--------|--------|--------|--------|--------|--------|
A|--------|--------|--------|--------|--------|--------|--------|--------|--------|
E|--------|--------|--------|--------|--------|--------|--------|--------|--------|


E|--------|--------|--------|--------|--------|--------|--------|--------|--------|
B|--------|--------|--------|--------|--------|--------|--------|--------|--------|
G|--------|--------|--------|--------|--------|--------|--------|--------|--------|
D|--------|--------|--------|--------|--------|--------|--------|--------|--------|
A|--------|--------|--------|--------|--------|--------|--------|--------|--------|
E|--------|--------|--------|--------|--------|--------|--------|--------|--------|


E|--------|--------|--------|--------|--------|--------|--------|--------|--------|
B|--------|--------|--------|--------|--------|--------|--------|--------|--------|
G|--------|--------|--------|--------|--------|--------|--------|--------|--------|
D|--------|--------|--------|--------|--------|--------|--------|--------|--------|
A|--------|--------|--------|--------|--------|--------|--------|--------|--------|
E|--------|--------|--------|--------|--------|--------|--------|--------|--------|


E|--------|--------|--------|--------|--------|--------|--------|--------|--------|
B|--------|--------|--------|--------|--------|--------|--------|--------|--------|
G|--------|--------|--------|--------|--------|--------|--------|--------|--------|
D|--------|--------|--------|--------|--------|--------|--------|--------|--------|
A|--------|--------|--------|--------|--------|--------|--------|--------|--------|
E|--------|--------|--------|--------|--------|--------|--------|--------|--------|


E|--------|--------|-------------0---0---0---0---0---|---------------------------------|
B|--------|--------|---------3-----------3---3---3---|-------------0---0---0---0---0---|
G|--------|--------|-----2---------------2---2---2---|---------2-----------2---2---2---|
D|--------|--------|-0-------------------0---0---0---|-----2---------------2---2---2---|
A|--------|--------|---------------------------------|-0-------------------0---0---0---|
E|--------|--------|---------------------------------|---------------------------------|


E|-0----0---0---0---0---0---0---|-0----0---0---0---0---0---0---|-------------0---0---0---0---0---|
B|-0----0---0---0---0---0---0---|-0----0---0---0---0---0---0---|---------3-----------3---3---3---|
G|-1----1---1---1---1---1---1---|-1----1---1---1---1---1---1---|-----2---------------2---2---2---|
D|-2----2---2---2---2---2---2---|-2----2---2---2---2---2---2---|-0-------------------0---0---0---|
A|-2----2---2---2---2---2---2---|-2----2---2---2---2---2---2---|---------------------------------|
E|-0----0---0---0---0---0---0---|-0----0---0---0---0---0---0---|---------------------------------|


E|-0----0---0---0---0---0---0---|-3----3---3---3---3---3---3---|-3----3---3---3---3---3---3---|
B|-2----2---2---2---2---2---2---|-0----0---0---0---0---0---0---|-0----0---0---0---0---0---0---|
G|-2----2---2---2---2---2---2---|-0----0---0---0---0---0---0---|-0----0---0---0---0---0---0---|
D|-2----2---2---2---2---2---2---|-0----0---0---0---0---0---0---|-0----0---0---0---0---0---0---|
A|-0----0---0---0---0---0---0---|-2----2---2---2---2---2---2---|-2----2---2---2---2---2---2---|
E|------------------------------|-3----3---3---3---3---3---3---|-3----3---3---3---3---3---3---|


E|-0----0---0---0---0---0---0---|-2----2---2---2---2---2---2---|-0----0---0---0---0---0---0---|
B|-1----1---1---1---1---1---1---|-3----3---3---3---3---3---3---|-1----1---1---1---1---1---1---|
G|-2----2---2---2---2---2---2---|-0----0---0---0---0---0---0---|-2----2---2---2---2---2---2---|
D|-3----3---3---3---3---3---3---|-0----0---0---0---0---0---0---|-3----3---3---3---3---3---3---|
A|-3----3---3---3---3---3---3---|-2----2---2---2---2---2---2---|-3----3---3---3---3---3---3---|
E|------------------------------|-3----3---3---3---3---3---3---|------------------------------|


E|-0----0---0---0---0---0---0---|-2----2---2---2---2---2---2---|-0----0---0---0---0---0---0---|
B|-3----3---3---3---3---3---3---|-3----3---3---3---3---3---3---|-2----2---2---2---2---2---2---|
G|-0----0---0---0---0---0---0---|-2----2---2---2---2---2---2---|-2----2---2---2---2---2---2---|
D|-2----2---2---2---2---2---2---|-0----0---0---0---0---0---0---|-2----2---2---2---2---2---2---|
A|-2----2---2---2---2---2---2---|------------------------------|-0----0---0---0---0---0---0---|
E|-0----0---0---0---0---0---0---|------------------------------|------------------------------|


E|-0---0---0---0---0---0---0---0---|-0---0---0---0---0---0---0----|--------|--------|
B|-0---0---0---0---0---0---0---0---|-0---0---0---0---0---0---0----|--------|--------|
G|-1---2---2---2---1---1---1---2---|-1---1---1---1---1---1---1----|--------|--------|
D|-2---2---2---2---2---2---2---2---|-2---2---2---2---2---2---2----|--------|--------|
A|-2---2---2---2---2---2---2---2---|-2---2---2---2---2---2---2----|--------|--------|
E|-0---0---0---0---0---0---0---0---|-0---0---0---0---0---0---0----|--------|--------|


E|--------|--------|--------|--------|--------|--------|--------|--------|--------|
B|--------|--------|--------|--------|--------|--------|--------|--------|--------|
G|--------|--------|--------|--------|--------|--------|--------|--------|--------|
D|--------|--------|--------|--------|--------|--------|--------|--------|--------|
A|--------|--------|--------|--------|--------|--------|--------|--------|--------|
E|--------|--------|--------|--------|--------|--------|--------|--------|--------|


E|--------|--------|--------|--------|--------|--------|--------|--------|--------|
B|--------|--------|--------|--------|--------|--------|--------|--------|--------|
G|--------|--------|--------|--------|--------|--------|--------|--------|--------|
D|--------|--------|--------|--------|--------|--------|--------|--------|--------|
A|--------|--------|--------|--------|--------|--------|--------|--------|--------|
E|--------|--------|--------|--------|--------|--------|--------|--------|--------|


E|--------|--------|--------|--------|--------|--------|--------|--------|
B|--------|--------|--------|--------|--------|--------|--------|--------|
G|--------|--------|--------|--------|--------|--------|--------|--------|
D|--------|--------|--------|--------|--------|--------|--------|--------|
A|--------|--------|--------|--------|--------|--------|--------|--------|
E|--------|--------|--------|--------|--------|--------|--------|--------|





Track 7: Piano arr. for guitar

E|--------|--------|--------|--------|--------|--------|--------|--------|--------|
B|--------|--------|--------|--------|--------|--------|--------|--------|--------|
G|--------|--------|--------|--------|--------|--------|--------|--------|--------|
D|--------|--------|--------|--------|--------|--------|--------|--------|--------|
A|--------|--------|--------|--------|--------|--------|--------|--------|--------|
E|--------|--------|--------|--------|--------|--------|--------|--------|--------|


E|--------|--------|--------|--------|--------|--------|--------|--------|--------|
B|--------|--------|--------|--------|--------|--------|--------|--------|--------|
G|--------|--------|--------|--------|--------|--------|--------|--------|--------|
D|--------|--------|--------|--------|--------|--------|--------|--------|--------|
A|--------|--------|--------|--------|--------|--------|--------|--------|--------|
E|--------|--------|--------|--------|--------|--------|--------|--------|--------|


E|--------|--------|--------|--------|--------|--------|--------|--------|--------|
B|--------|--------|--------|--------|--------|--------|--------|--------|--------|
G|--------|--------|--------|--------|--------|--------|--------|--------|--------|
D|--------|--------|--------|--------|--------|--------|--------|--------|--------|
A|--------|--------|--------|--------|--------|--------|--------|--------|--------|
E|--------|--------|--------|--------|--------|--------|--------|--------|--------|


E|--------|--------|--------|--------|--------|--------|--------|--------|--------|
B|--------|--------|--------|--------|--------|--------|--------|--------|--------|
G|--------|--------|--------|--------|--------|--------|--------|--------|--------|
D|--------|--------|--------|--------|--------|--------|--------|--------|--------|
A|--------|--------|--------|--------|--------|--------|--------|--------|--------|
E|--------|--------|--------|--------|--------|--------|--------|--------|--------|


E|--------|--------|--------|--------|--------|--------|--------|--------|--------|
B|--------|--------|--------|--------|--------|--------|--------|--------|--------|
G|--------|--------|--------|--------|--------|--------|--------|--------|--------|
D|--------|--------|--------|--------|--------|--------|--------|--------|--------|
A|--------|--------|--------|--------|--------|--------|--------|--------|--------|
E|--------|--------|--------|--------|--------|--------|--------|--------|--------|


E|--------|--------|--------|--------|--------|--------|--------|--------|--------|
B|--------|--------|--------|--------|--------|--------|--------|--------|--------|
G|--------|--------|--------|--------|--------|--------|--------|--------|--------|
D|--------|--------|--------|--------|--------|--------|--------|--------|--------|
A|--------|--------|--------|--------|--------|--------|--------|--------|--------|
E|--------|--------|--------|--------|--------|--------|--------|--------|--------|


E|--------|--------|--------|--------|--------|--------|--------|--------|--------|
B|--------|--------|--------|--------|--------|--------|--------|--------|--------|
G|--------|--------|--------|--------|--------|--------|--------|--------|--------|
D|--------|--------|--------|--------|--------|--------|--------|--------|--------|
A|--------|--------|--------|--------|--------|--------|--------|--------|--------|
E|--------|--------|--------|--------|--------|--------|--------|--------|--------|


E|--------|--------|--------|--------|--------|--------|--------|--------|--------|
B|--------|--------|--------|--------|--------|--------|--------|--------|--------|
G|--------|--------|--------|--------|--------|--------|--------|--------|--------|
D|--------|--------|--------|--------|--------|--------|--------|--------|--------|
A|--------|--------|--------|--------|--------|--------|--------|--------|--------|
E|--------|--------|--------|--------|--------|--------|--------|--------|--------|


E|--------|---------------------|--------|--------|--------|--------|--------|--------|
B|--------|---------------------|--------|--------|--------|--------|--------|--------|
G|--------|---------------------|--------|--------|--------|--------|--------|--------|
D|--------|---------------------|--------|--------|--------|--------|--------|--------|
A|--------|-------2---2---------|--------|--------|--------|--------|--------|--------|
E|--------|-0--------------0----|--------|--------|--------|--------|--------|--------|


E|--------|--------|--------|--------|--------|--------|--------|--------|--------|
B|--------|--------|--------|--------|--------|--------|--------|--------|--------|
G|--------|--------|--------|--------|--------|--------|--------|--------|--------|
D|--------|--------|--------|--------|--------|--------|--------|--------|--------|
A|--------|--------|--------|--------|--------|--------|--------|--------|--------|
E|--------|--------|--------|--------|--------|--------|--------|--------|--------|


E|--------|--------|--------|--------|--------|--------|--------|--------|--------|
B|--------|--------|--------|--------|--------|--------|--------|--------|--------|
G|--------|--------|--------|--------|--------|--------|--------|--------|--------|
D|--------|--------|--------|--------|--------|--------|--------|--------|--------|
A|--------|--------|--------|--------|--------|--------|--------|--------|--------|
E|--------|--------|--------|--------|--------|--------|--------|--------|--------|


E|--------|--------|--------|--------|--------|--------|--------|--------|--------|
B|--------|--------|--------|--------|--------|--------|--------|--------|--------|
G|--------|--------|--------|--------|--------|--------|--------|--------|--------|
D|--------|--------|--------|--------|--------|--------|--------|--------|--------|
A|--------|--------|--------|--------|--------|--------|--------|--------|--------|
E|--------|--------|--------|--------|--------|--------|--------|--------|--------|


E|--------|--------|--------|--------|--------|--------|--------|--------|--------|
B|--------|--------|--------|--------|--------|--------|--------|--------|--------|
G|--------|--------|--------|--------|--------|--------|--------|--------|--------|
D|--------|--------|--------|--------|--------|--------|--------|--------|--------|
A|--------|--------|--------|--------|--------|--------|--------|--------|--------|
E|--------|--------|--------|--------|--------|--------|--------|--------|--------|


E|--------|--------|
B|--------|--------|
G|--------|--------|
D|--------|--------|
A|--------|--------|
E|--------|--------|





Track 8: Untitled

G|---------------------|---------------------|---------------------|---------------------|
D|-------9---9---------|-------9---9---------|-------9---9---------|-------9---9---------|
A|-7---------------7---|-7---------------7---|-7---------------7---|-7---------------7---|
E|---------------------|---------------------|---------------------|---------------------|


G|---------------------|---------------------|--------------------|------------------------|
D|-------9---9---------|-------9---9---------|--------------------|---------------2--------|
A|-7---------------7---|-7--------------7----|-5-----5----5---7---|-0-----0---4------------|
E|---------------------|---------------------|--------------------|--------------------0---|


G|---------------------|---------------------------|--------------------|------------------------|
D|---------------------|-2-----2-------2---2-------|--------------------|------------------------|
A|-----------------2---|-----------2-----------2---|-5-----5----5---7---|-----------4---7--------|
E|-0-----0---0---------|---------------------------|--------------------|-5-----5------------0---|


G|---------------------|---------------------|--------------------|---------------------|
D|---------------------|---------------------|--------------------|---------------2-----|
A|---------------------|---------------------|-5-----5----5---7---|-0-----0---4---------|
E|-0-----0---0-----7---|-9-----9---7-----7---|--------------------|---------------------|


G|----------------|---------------------------------|---------------------|---------------------|
D|----------------|---------------------------------|---------------------|---------------------|
A|----------------|-7---7---7---7-------7---7---7---|---------------------|---------------------|
E|-0------0---7---|-----------------7---------------|-2-----2---2-----2---|-5-----5---5----5----|


G|--------|-------------------9-------|-------------------9-------|-----------12------12------|
D|--------|-----------9-----------9---|-----------9-----------9---|-5-----12------12------12--|
A|--------|-7-----7-------7-----------|-7-----7-------7-----------|---------------------------|
E|--------|---------------------------|---------------------------|---------------------------|


G|-------7-------7-------7---|------------------------|------------------------|---------------------------------|
D|-5---------5-------5-------|-7-----7----------------|-5-----5-------5----5---|---------------------------------|
A|---------------------------|-----------7---7----7---|-----------5------------|-5---5---------------5-----------|
E|---------------------------|------------------------|------------------------|---------7---5-----------7---5---|


G|---------------------------------|------------------------|---------------------------|
D|---------------------------------|-----------10--10-------|-----------10--------------|
A|-----5-----------5---5-----------|-3-----10-----------10--|-------10------10----------|
E|---------7---5-----------7---5---|------------------------|-8-----------------8---7---|


G|--------------9---------------|---------------------------|-----------5---------------|
D|----------9-------------------|---------------------------|---------------5-----------|
A|-7---7------------------------|-7-----7-------------------|-3-----3-----------3-------|
E|------------------0-------0---|-----------0---2---3---5---|---------------------------|


G|------------------------------|---------------------------|---------------------|
D|--------------7-------7-------|-7-------------------------|-------9---9---------|
A|-----0----7---------------7---|-----------------------5---|-7---------------7---|
E|------------------------------|---------------0---7-------|---------------------|


G|---------------------|---------------------|---------------------|--------------------|
D|-------9---9---------|-------9---9---------|-------9---9---------|--------------------|
A|-7---------------7---|-7---------------7---|-7--------------7----|-5-----5----5---7---|
E|---------------------|---------------------|---------------------|--------------------|


G|------------------------|---------------------|---------------------------|--------------------|
D|---------------2--------|---------------------|-2-----2-------2---2-------|--------------------|
A|-0-----0---4------------|-----------------2---|-----------2-----------2---|-5-----5----5---7---|
E|--------------------0---|-0-----0---0---------|---------------------------|--------------------|


G|------------------------|---------------------|---------------------|--------------------|
D|------------------------|---------------------|---------------------|--------------------|
A|-----------4---7--------|---------------------|---------------------|-5-----5----5---7---|
E|-5-----5------------0---|-0-----0---0-----7---|-9-----9---7-----7---|--------------------|


G|---------------------|----------------|---------------------------------|---------------------|
D|---------------2-----|----------------|---------------------------------|---------------------|
A|-0-----0---4---------|----------------|-7---7---7---7-------7---7---7---|---------------------|
E|---------------------|-0------0---7---|-----------------7---------------|-2-----2---2-----2---|


G|---------------------|--------|-------------------9-------|-------------------9-------|
D|---------------------|--------|-----------9-----------9---|-----------9-----------9---|
A|---------------------|--------|-7-----7-------7-----------|-7-----7-------7-----------|
E|-5-----5---5----5----|--------|---------------------------|---------------------------|


G|-----------12------12------|-------7-------7-------7---|------------------------|
D|-5-----12------12------12--|-5---------5-------5-------|-7-----7----------------|
A|---------------------------|---------------------------|-----------7---7----7---|
E|---------------------------|---------------------------|------------------------|


G|------------------------|---------------------------------|---------------------------------|
D|-5-----5-------5----5---|---------------------------------|---------------------------------|
A|-----------5------------|-5---5---------------5-----------|-----5-----------5---5-----------|
E|------------------------|---------7---5-----------7---5---|---------7---5-----------7---5---|


G|------------------------|---------------------------|--------------9---------------|
D|-----------10--10-------|-----------10--------------|----------9-------------------|
A|-3-----10-----------10--|-------10------10----------|-7---7------------------------|
E|------------------------|-8-----------------8---7---|------------------0-------0---|


G|---------------------------|-----------5---------------|------------------------------|
D|---------------------------|---------------5-----------|--------------7-------7-------|
A|-7-----7-------------------|-3-----3-----------3-------|-----0----7---------------7---|
E|-----------0---2---3---5---|---------------------------|------------------------------|


G|---------------------------|---------------------|---------------------|---------------------|
D|-7-------------------------|-------9---9---------|-------9---9---------|-------9---9---------|
A|-----------------------5---|-7---------------7---|-7---------------7---|-7---------------7---|
E|---------------0---7-------|---------------------|---------------------|---------------------|


G|---------------------|---------------------------|-----------2---0---2---4---|---------------------------|
D|-------9---9---------|-------7-------------------|-------2-------------------|-2---------2---2-----------|
A|-7--------------7----|-5-----------------5---7---|-0-------------------------|-------2-----------2-------|
E|---------------------|-----------5---5-----------|---------------------------|-----------------------0---|


G|---------------------------------|-------------7---------------|---------2-----------------|
D|-----2-------2-------2-----------|-------5--7------7-----------|-----2---------2-------2---|
A|-------------------------2-------|-5-------------------5---7---|-0-----------------0-------|
E|-0-------0-------0-----------0---|-----------------------------|---------------------------|


G|-------------------7-------|---------------------------------|---------------------------|
D|-5---------5---5-----------|-5---5---3-------5---5---3-------|-3--------3---3--------3---|
A|-------5---------------5---|-------------5---------------5---|-------------------3-------|
E|---------------------------|---------------------------------|---------------------------|


G|------------------------------|---------------------------|-------------9----------------|
D|-5--------5---5-------5-------|-3--------3---3--------3---|---------9-------9------------|
A|------------------5-------5---|-------------------3-------|-7---7----------------7-------|
E|------------------------------|---------------------------|--------------------------0---|


G|-----------7---------------|-------------------9-------|-----------9---------------|
D|-------7-------7-----------|-----------7---------------|-------9-------9-------9---|
A|-5-----------------5---7---|-------7-------7-------7---|-7-----------------7-------|
E|---------------------------|-5-------------------------|---------------------------|


G|---------------------------|--------------------|---------------------|--------------------|
D|-7-----6-------4-----------|--------------------|---------------------|--------------------|
A|-----------------------7---|--------------------|---------------------|--------------------|
E|---------------------------|-5--------5---5-----|-4-----4---4---------|-5--------5---5-----|


G|------------------------|--------------------|--------------------|--------------------|
D|--------------------6---|--------------------|--------------------|--------------------|
A|-4--------4---4---------|--------------------|--------------------|--------------------|
E|------------------------|-2--------2---2-----|-5--------5---5-----|-7------------------|


G|-------------------9-------|-------------------9-------|-----------12------12------|
D|-----------9-----------9---|-----------9-----------9---|-5-----12------12------12--|
A|-7-----7-------7-----------|-7-----7-------7-----------|---------------------------|
E|---------------------------|---------------------------|---------------------------|


G|-------7-------7-------7---|------------------------|------------------------|---------------------------------|
D|-5---------5-------5-------|-7-----7----------------|-5-----5-------5----5---|---------------------------------|
A|---------------------------|-----------7---7----7---|-----------5------------|-5---5---------------5-----------|
E|---------------------------|------------------------|------------------------|---------7---5-----------7---5---|


G|---------------------------------|------------------------|---------------------------|
D|---------------------------------|--------------------10--|-10--------10--------------|
A|-----5-----------5---5-----------|-------10--10--10-------|-------10------10------10--|
E|---------7---5-----------7---5---|-8----------------------|-------------------8-------|


G|--------------------9---|-12--11-12-11-9-----------------------|------------------------|
D|-------9---9---9--------|------------------12--10--9-----------|-----------10-----------|
A|-7----------------------|------------------------------0---5---|-------10------10-------|
E|------------------------|--------------------------------------|-8-----------------8----|


G|------------------------------|---------------------------|---------------------|
D|--------------7-------7-------|-7-------------------------|-------9---9---------|
A|-----0----7---------------7---|-----------------------5---|-7---------------7---|
E|------------------------------|---------------0---7-------|---------------------|


G|---------------------|---------------------|---------------------|---------------------|
D|-------9---9---------|-------9---9---------|-------9---9---------|-------9---9---------|
A|-7---------------7---|-7---------------7---|-7---------------7---|-7---------------7---|
E|---------------------|---------------------|---------------------|---------------------|


G|--------|
D|--------|
A|-7------|
E|--------|