Site menu:

    

Browse: 0-9 A B C D E F G H I J K L N O P Q R S T U V W X Y Z

steely dan - peg:



Title: Peg
Artist: 
Album: Aja
Author: Donald Fagan & Walter Becker


Track 1: rhythm guitar

E|-2------|-5------|-3------|-3------|--------|--------|--------|-------------------------------------------|
B|-3------|-5------|-1------|-3------|-6------|-6------|--------|-----------8--8-----8-----8--------8-------|
G|-2------|-3------|-2------|-1------|-3------|-5------|--------|-----7--9--------9-----------9-------------|
D|-0------|--------|--------|--------|-5------|-4------|--------|-------------------------------------------|
A|--------|-4------|-3------|-2------|-6------|-5------|--------|-------------------------------------------|
E|-3------|-2------|-1------|-0------|--------|--------|--------|-------------------------------------------|


E|-------------------------------------------|---------------------------7-----------|
B|-----------8--8-----8-----8--------8-------|-----------8--8-----8----------10--8---|
G|-----7--9--------9-----------9-------------|-----7--9--------9---------------------|
D|-------------------------------------------|---------------------------------------|
A|-------------------------------------------|---------------------------------------|
E|-------------------------------------------|---------------------------------------|


E|-------------------------------------------|---------------------------7-----------|
B|-----------8--8-----8-----8--------8-------|-----------8--8-----8----------10--8---|
G|-----7--9--------9-----------9-------------|-----7--9--------9---------------------|
D|-------------------------------------------|---------------------------------------|
A|-------------------------------------------|---------------------------------------|
E|-------------------------------------------|---------------------------------------|


E|-----------8--8-----8-----8--------8-------|-----------8--8-----8-----8--------8-------|
B|-----8--10-------10----------10------------|-----8--10-------10----------10--------10--|
G|-------------------------------------------|-------------------------------------------|
D|-------------------------------------------|-------------------------------------------|
A|-------------------------------------------|-------------------------------------------|
E|-------------------------------------------|-------------------------------------------|


E|-------------------------------------------|-------------------------------------------|
B|-----------8--8-----8-----8--------8-------|-----------8--8-----8-----8--------8-------|
G|-----7--9--------9-----------9-------------|-----7--9--------9-----------9---------9---|
D|-------------------------------------------|-------------------------------------------|
A|-------------------------------------------|-------------------------------------------|
E|-------------------------------------------|-------------------------------------------|


E|-----------10-10----10----10-------10------|-----------8--8-----8-----8--------8-------|
B|-----10-12-------12----------12------------|-----8--10-------10----------10------------|
G|-------------------------------------------|-------------------------------------------|
D|-------------------------------------------|-------------------------------------------|
A|-------------------------------------------|-------------------------------------------|
E|-------------------------------------------|-------------------------------------------|


E|-------------------------------------------|---------------------------7-----------|
B|-----------8--8-----8-----8--------8-------|-----------8--8-----8----------10--8---|
G|-----7--9--------9-----------9-------------|-----7--9--------9---------------------|
D|-------------------------------------------|---------------------------------------|
A|-------------------------------------------|---------------------------------------|
E|-------------------------------------------|---------------------------------------|


E|-------------------------------------------|---------------------------7-----------|
B|-----------8--8-----8-----8--------8-------|-----------8--8-----8----------10--8---|
G|-----7--9--------9-----------9-------------|-----7--9--------9---------------------|
D|-------------------------------------------|---------------------------------------|
A|-------------------------------------------|---------------------------------------|
E|-------------------------------------------|---------------------------------------|


E|-------------------------------------------|---------------------------7-----------|
B|-----------8--8-----8-----8--------8-------|-----------8--8-----8----------10--8---|
G|-----7--9--------9-----------9-------------|-----7--9--------9---------------------|
D|-------------------------------------------|---------------------------------------|
A|-------------------------------------------|---------------------------------------|
E|-------------------------------------------|---------------------------------------|


E|-----------8--8-----8-----8--------8-------|-----------8--8-----8-----8--------8-------|
B|-----8--10-------10----------10------------|-----8--10-------10----------10--------10--|
G|-------------------------------------------|-------------------------------------------|
D|-------------------------------------------|-------------------------------------------|
A|-------------------------------------------|-------------------------------------------|
E|-------------------------------------------|-------------------------------------------|


E|-------------------------------------------|-------------------------------------------|
B|-----------8--8-----8-----8--------8-------|-----------8--8-----8-----8--------8-------|
G|-----7--9--------9-----------9-------------|-----7--9--------9-----------9---------9---|
D|-------------------------------------------|-------------------------------------------|
A|-------------------------------------------|-------------------------------------------|
E|-------------------------------------------|-------------------------------------------|


E|-----------10-10----10----10-------10------|-----------8--8-----8-----8--------8-------|
B|-----10-12-------12----------12------------|-----8--10-------10----------10------------|
G|-------------------------------------------|-------------------------------------------|
D|-------------------------------------------|-------------------------------------------|
A|-------------------------------------------|-------------------------------------------|
E|-------------------------------------------|-------------------------------------------|


E|-------------------------------------------|-6--7--7----------------------------|
B|-----------8--8-----8-----8--------8-------|----------10-10-10-8---8------------|
G|-----7--9--------9-----------9-------------|------------------------------------|
D|-------------------------------------------|------------------------------------|
A|-------------------------------------------|------------------------------------|
E|-------------------------------------------|------------------------------------|


E|-----------------|-10-----10-----12--12---12---|-----------------|-10-----10-----12--12---12---|
B|-8-----8---8-----|-10-----10-----12--12---12---|-8-----8---8-----|-10-----10-----12--12---12---|
G|-9-----7---7-----|-12-----12-----14--14---14---|-9-----7---7-----|-12-----12-----14--14---14---|
D|-9-----7---7-----|---------------12--12---12---|-9-----7---7-----|---------------12--12---12---|
A|-----------------|-----------------------------|-----------------|-----------------------------|
E|-8-----7---7-----|-----------------------------|-8-----7---7-----|-----------------------------|


E|-12----12--12---12---|-----------------|-----------------|-------10--10----|-------------------------------------------|
B|-14----13--13---13---|-8-----7---7-----|-7-----8---8-----|-5-----8---8-----|-----------8--8-----8-----8--------8-------|
G|-14----12--12---12---|-7-----9---9-----|-7-----7---7-----|-5-----9---9-----|-----7--9--------9-----------9-------------|
D|---------------------|-9-----8---8-----|-7-----6---6-----|-5---------------|-------------------------------------------|
A|---------------------|-----------------|-----------------|-----------------|-------------------------------------------|
E|---------------------|-----------------|-----------------|-----------------|-------------------------------------------|


E|---------------------------7-----------|--------|--------|-2------|-5------|-3------|
B|-----------8--8-----8----------10--8---|--------|--------|-3------|-5------|-1------|
G|-----7--9--------9---------------------|--------|--------|-2------|-3------|-2------|
D|---------------------------------------|--------|--------|-0------|--------|--------|
A|---------------------------------------|--------|--------|--------|-4------|-3------|
E|---------------------------------------|--------|--------|-3------|-2------|-1------|


E|-3------|--------|--------|--------|-------------------------------------------|
B|-3------|-6------|-6------|--------|-----------8--8-----8-----8--------8-------|
G|-1------|-3------|-5------|--------|-----7--9--------9-----------9-------------|
D|--------|-5------|-4------|--------|-------------------------------------------|
A|-2------|-6------|-5------|--------|-------------------------------------------|
E|-0------|--------|--------|--------|-------------------------------------------|


E|-------------------------------------------|---------------------------7-----------|
B|-----------8--8-----8-----8--------8-------|-----------8--8-----8----------10--8---|
G|-----7--9--------9-----------9-------------|-----7--9--------9---------------------|
D|-------------------------------------------|---------------------------------------|
A|-------------------------------------------|---------------------------------------|
E|-------------------------------------------|---------------------------------------|


E|-------------------------------------------|---------------------------7-----------|
B|-----------8--8-----8-----8--------8-------|-----------8--8-----8----------10--8---|
G|-----7--9--------9-----------9-------------|-----7--9--------9---------------------|
D|-------------------------------------------|---------------------------------------|
A|-------------------------------------------|---------------------------------------|
E|-------------------------------------------|---------------------------------------|


E|-----------8--8-----8-----8--------8-------|-----------8--8-----8-----8--------8-------|
B|-----8--10-------10----------10------------|-----8--10-------10----------10--------10--|
G|-------------------------------------------|-------------------------------------------|
D|-------------------------------------------|-------------------------------------------|
A|-------------------------------------------|-------------------------------------------|
E|-------------------------------------------|-------------------------------------------|


E|-------------------------------------------|-------------------------------------------|
B|-----------8--8-----8-----8--------8-------|-----------8--8-----8-----8--------8-------|
G|-----7--9--------9-----------9-------------|-----7--9--------9-----------9---------9---|
D|-------------------------------------------|-------------------------------------------|
A|-------------------------------------------|-------------------------------------------|
E|-------------------------------------------|-------------------------------------------|


E|-----------10-10----10----10-------10------|-----------8--8-----8-----8--------8-------|
B|-----10-12-------12----------12------------|-----8--10-------10----------10------------|
G|-------------------------------------------|-------------------------------------------|
D|-------------------------------------------|-------------------------------------------|
A|-------------------------------------------|-------------------------------------------|
E|-------------------------------------------|-------------------------------------------|


E|-------------------------------------------|---------------------------7-----------|
B|-----------8--8-----8-----8--------8-------|-----------8--8-----8----------10--8---|
G|-----7--9--------9-----------9-------------|-----7--9--------9---------------------|
D|-------------------------------------------|---------------------------------------|
A|-------------------------------------------|---------------------------------------|
E|-------------------------------------------|---------------------------------------|


E|-------------------------------------------|---------------------------7-----------|
B|-----------8--8-----8-----8--------8-------|-----------8--8-----8----------10--8---|
G|-----7--9--------9-----------9-------------|-----7--9--------9---------------------|
D|-------------------------------------------|---------------------------------------|
A|-------------------------------------------|---------------------------------------|
E|-------------------------------------------|---------------------------------------|


E|-------------------------------------------|---------------------------7-----------|
B|-----------8--8-----8-----8--------8-------|-----------8--8-----8----------10--8---|
G|-----7--9--------9-----------9-------------|-----7--9--------9---------------------|
D|-------------------------------------------|---------------------------------------|
A|-------------------------------------------|---------------------------------------|
E|-------------------------------------------|---------------------------------------|


E|-----------8--8-----8-----8--------8-------|-----------8--8-----8-----8--------8-------|
B|-----8--10-------10----------10------------|-----8--10-------10----------10--------10--|
G|-------------------------------------------|-------------------------------------------|
D|-------------------------------------------|-------------------------------------------|
A|-------------------------------------------|-------------------------------------------|
E|-------------------------------------------|-------------------------------------------|


E|-------------------------------------------|-------------------------------------------|
B|-----------8--8-----8-----8--------8-------|-----------8--8-----8-----8--------8-------|
G|-----7--9--------9-----------9-------------|-----7--9--------9-----------9---------9---|
D|-------------------------------------------|-------------------------------------------|
A|-------------------------------------------|-------------------------------------------|
E|-------------------------------------------|-------------------------------------------|


E|-----------10-10----10----10-------10------|-----------8--8-----8-----8--------8-------|
B|-----10-12-------12----------12------------|-----8--10-------10----------10------------|
G|-------------------------------------------|-------------------------------------------|
D|-------------------------------------------|-------------------------------------------|
A|-------------------------------------------|-------------------------------------------|
E|-------------------------------------------|-------------------------------------------|


E|-------------------------------------------|---------------------------7-----------|
B|-----------8--8-----8-----8--------8-------|-----------8--8-----8----------10--8---|
G|-----7--9--------9-----------9-------------|-----7--9--------9---------------------|
D|-------------------------------------------|---------------------------------------|
A|-------------------------------------------|---------------------------------------|
E|-------------------------------------------|---------------------------------------|


E|-6--7--7----------------------------|-----------------|-10-----10-----12--12---12---|
B|----------10-10-10-8---8------------|-8-----8---8-----|-10-----10-----12--12---12---|
G|------------------------------------|-9-----7---7-----|-12-----12-----14--14---14---|
D|------------------------------------|-9-----7---7-----|---------------12--12---12---|
A|------------------------------------|-----------------|-----------------------------|
E|------------------------------------|-8-----7---7-----|-----------------------------|


E|-----------------|-10-----10-----12--12---12---|-12----12--12---12---|-----------------|
B|-8-----8---8-----|-10-----10-----12--12---12---|-14----13--13---13---|-8-----7---7-----|
G|-9-----7---7-----|-12-----12-----14--14---14---|-14----12--12---12---|-7-----9---9-----|
D|-9-----7---7-----|---------------12--12---12---|---------------------|-9-----8---8-----|
A|-----------------|-----------------------------|---------------------|-----------------|
E|-8-----7---7-----|-----------------------------|---------------------|-----------------|


E|-----------------|-------10--10----|-------------------------------------------|
B|-7-----8---8-----|-5-----8---8-----|-----------8--8-----8-----8--------8-------|
G|-7-----7---7-----|-5-----9---9-----|-----7--9--------9-----------9-------------|
D|-7-----6---6-----|-5---------------|-------------------------------------------|
A|-----------------|-----------------|-------------------------------------------|
E|-----------------|-----------------|-------------------------------------------|


E|---------------------------7-----------|--------|--------|-2------|-5------|-3------|
B|-----------8--8-----8----------10--8---|--------|--------|-3------|-5------|-1------|
G|-----7--9--------9---------------------|--------|--------|-2------|-3------|-2------|
D|---------------------------------------|--------|--------|-0------|--------|--------|
A|---------------------------------------|--------|--------|--------|-4------|-3------|
E|---------------------------------------|--------|--------|-3------|-2------|-1------|


E|-3------|--------|--------|--------|-------------------------------------------|
B|-3------|-6------|-6------|--------|-----------8--8-----8-----8--------8-------|
G|-1------|-3------|-5------|--------|-----7--9--------9-----------9-------------|
D|--------|-5------|-4------|--------|-------------------------------------------|
A|-2------|-6------|-5------|--------|-------------------------------------------|
E|-0------|--------|--------|--------|-------------------------------------------|


E|-------------------------------------------|---------------------------7-----------|
B|-----------8--8-----8-----8--------8-------|-----------8--8-----8----------10--8---|
G|-----7--9--------9-----------9-------------|-----7--9--------9---------------------|
D|-------------------------------------------|---------------------------------------|
A|-------------------------------------------|---------------------------------------|
E|-------------------------------------------|---------------------------------------|


E|-------------------------------------------|---------------------------7-----------|
B|-----------8--8-----8-----8--------8-------|-----------8--8-----8----------10--8---|
G|-----7--9--------9-----------9-------------|-----7--9--------9---------------------|
D|-------------------------------------------|---------------------------------------|
A|-------------------------------------------|---------------------------------------|
E|-------------------------------------------|---------------------------------------|


E|-----------8--8-----8-----8--------8-------|-----------8--8-----8-----8--------8-------|
B|-----8--10-------10----------10------------|-----8--10-------10----------10--------10--|
G|-------------------------------------------|-------------------------------------------|
D|-------------------------------------------|-------------------------------------------|
A|-------------------------------------------|-------------------------------------------|
E|-------------------------------------------|-------------------------------------------|


E|-------------------------------------------|-------------------------------------------|
B|-----------8--8-----8-----8--------8-------|-----------8--8-----8-----8--------8-------|
G|-----7--9--------9-----------9-------------|-----7--9--------9-----------9---------9---|
D|-------------------------------------------|-------------------------------------------|
A|-------------------------------------------|-------------------------------------------|
E|-------------------------------------------|-------------------------------------------|


E|-----------10-10----10----10-------10------|-----------8--8-----8-----8--------8-------|
B|-----10-12-------12----------12------------|-----8--10-------10----------10------------|
G|-------------------------------------------|-------------------------------------------|
D|-------------------------------------------|-------------------------------------------|
A|-------------------------------------------|-------------------------------------------|
E|-------------------------------------------|-------------------------------------------|


E|-------------------------------------------|---------------------------7-----------|
B|-----------8--8-----8-----8--------8-------|-----------8--8-----8----------10--8---|
G|-----7--9--------9-----------9-------------|-----7--9--------9---------------------|
D|-------------------------------------------|---------------------------------------|
A|-------------------------------------------|---------------------------------------|
E|-------------------------------------------|---------------------------------------|


E|-----------------|-10-----10-----12--12---12---|-----------------|-10-----10-----12--12---12---|
B|-8-----8---8-----|-10-----10-----12--12---12---|-8-----8---8-----|-10-----10-----12--12---12---|
G|-9-----7---7-----|-12-----12-----14--14---14---|-9-----7---7-----|-12-----12-----14--14---14---|
D|-9-----7---7-----|---------------12--12---12---|-9-----7---7-----|---------------12--12---12---|
A|-----------------|-----------------------------|-----------------|-----------------------------|
E|-8-----7---7-----|-----------------------------|-8-----7---7-----|-----------------------------|


E|-12----12--12---12---|-----------------|-----------------|--------|--------|--------|
B|-14----13--13---13---|-8-----7---7-----|-7-----8---8-----|--------|--------|--------|
G|-14----12--12---12---|-7-----9---9-----|-7-----7---7-----|--------|--------|--------|
D|---------------------|-9-----8---8-----|-7-----6---6-----|--------|--------|--------|
A|---------------------|-----------------|-----------------|--------|--------|--------|
E|---------------------|-----------------|-----------------|--------|--------|--------|


E|--------|--------|--------|--------|--------|--------|--------|--------|--------|
B|--------|--------|--------|--------|--------|--------|--------|--------|--------|
G|--------|--------|--------|--------|--------|--------|--------|--------|--------|
D|--------|--------|--------|--------|--------|--------|--------|--------|--------|
A|--------|--------|--------|--------|--------|--------|--------|--------|--------|
E|--------|--------|--------|--------|--------|--------|--------|--------|--------|


E|--------|--------|--------|--------|--------|--------|--------|--------|--------|
B|--------|--------|--------|--------|--------|--------|--------|--------|--------|
G|--------|--------|--------|--------|--------|--------|--------|--------|--------|
D|--------|--------|--------|--------|--------|--------|--------|--------|--------|
A|--------|--------|--------|--------|--------|--------|--------|--------|--------|
E|--------|--------|--------|--------|--------|--------|--------|--------|--------|


E|--------|--------|
B|--------|--------|
G|--------|--------|
D|--------|--------|
A|--------|--------|
E|--------|--------|





Track 2: Lead Guitar ( Jay Graydon )

E|--------|--------|--------|--------|--------|--------|--------|--------|--------|
B|--------|--------|--------|--------|--------|--------|--------|--------|--------|
G|--------|--------|--------|--------|--------|--------|--------|--------|--------|
D|--------|--------|--------|--------|--------|--------|--------|--------|--------|
A|--------|--------|--------|--------|--------|--------|--------|--------|--------|
E|--------|--------|--------|--------|--------|--------|--------|--------|--------|


E|--------|--------|--------|--------|--------|--------|--------|--------|--------|
B|--------|--------|--------|--------|--------|--------|--------|--------|--------|
G|--------|--------|--------|--------|--------|--------|--------|--------|--------|
D|--------|--------|--------|--------|--------|--------|--------|--------|--------|
A|--------|--------|--------|--------|--------|--------|--------|--------|--------|
E|--------|--------|--------|--------|--------|--------|--------|--------|--------|


E|--------|--------|--------|--------|--------|--------|--------|--------|--------|
B|--------|--------|--------|--------|--------|--------|--------|--------|--------|
G|--------|--------|--------|--------|--------|--------|--------|--------|--------|
D|--------|--------|--------|--------|--------|--------|--------|--------|--------|
A|--------|--------|--------|--------|--------|--------|--------|--------|--------|
E|--------|--------|--------|--------|--------|--------|--------|--------|--------|


E|--------|--------|--------|--------|--------|--------|--------|--------|--------|
B|--------|--------|--------|--------|--------|--------|--------|--------|--------|
G|--------|--------|--------|--------|--------|--------|--------|--------|--------|
D|--------|--------|--------|--------|--------|--------|--------|--------|--------|
A|--------|--------|--------|--------|--------|--------|--------|--------|--------|
E|--------|--------|--------|--------|--------|--------|--------|--------|--------|


E|--------|--------|--------|--------|--------|--------|--------|--------|--------|
B|--------|--------|--------|--------|--------|--------|--------|--------|--------|
G|--------|--------|--------|--------|--------|--------|--------|--------|--------|
D|--------|--------|--------|--------|--------|--------|--------|--------|--------|
A|--------|--------|--------|--------|--------|--------|--------|--------|--------|
E|--------|--------|--------|--------|--------|--------|--------|--------|--------|


E|--------|--------|--------|--------|--------|--------|----------------------|----------------|
B|--------|--------|--------|--------|--------|--------|------------8--6--8---|-6------12--12--|
G|--------|--------|--------|--------|--------|--------|------------------9---|-7------12--12--|
D|--------|--------|--------|--------|--------|--------|----------------------|----------------|
A|--------|--------|--------|--------|--------|--------|----------------------|----------------|
E|--------|--------|--------|--------|--------|--------|----------------------|----------------|


E|-------------------------|---------------------|-------17--10-----------10---|-10---10------------------|
B|-12----12--8---8--6--8---|-6----10---8----15---|-15-------------8---8--------|-----------8----8---8-----|
G|-12----12--9---9--7--9---|-7----10---9----16---|-16--------------------------|--------------------------|
D|-------------------------|---------------------|-----------------------------|--------------------------|
A|-------------------------|---------------------|-----------------------------|--------------------------|
E|-------------------------|---------------------|-----------------------------|--------------------------|


E|---------------------------------------------|------------------------------------|
B|-6--8--6-----5--6--5---3--5--3-----3---------|------------------------------------|
G|--------------------------------5-----3--4---|----------2--0--0--3--0--2--5-------|
D|---------------------------------------------|-5----------------------------------|
A|---------------------------------------------|------------------------------------|
E|---------------------------------------------|------------------------------------|


E|------------------------------------------|-------------------7--9--7--9--12-9--12-14-14-14--14--14--|
B|------------------------------------------|-7--10-7-----7--10----------------------------------------|
G|----3--6--0--4--7--0--5--9--0--7--10------|----------9-----------------------------------------------|
D|------------------------------------------|----------------------------------------------------------|
A|------------------------------------------|----------------------------------------------------------|
E|------------------------------------------|----------------------------------------------------------|


E|-14-----------------------|-------------------------------------------|-----------------------------|
B|------10----10--10--8-----|-8--10-8-----8---------8---------8---------|-6----6--5--3---5---3---3----|
G|-----------------------9--|----------9-----7--5------5--4------4--2---|-----------------------------|
D|--------------------------|-------------------------------------------|-----------------------------|
A|--------------------------|-------------------------------------------|-----------------------------|
E|--------------------------|-------------------------------------------|-----------------------------|


E|--------|--------|--------|--------|--------|--------|--------|--------|--------|
B|--------|--------|--------|--------|--------|--------|--------|--------|--------|
G|--------|--------|--------|--------|--------|--------|--------|--------|--------|
D|--------|--------|--------|--------|--------|--------|--------|--------|--------|
A|--------|--------|--------|--------|--------|--------|--------|--------|--------|
E|--------|--------|--------|--------|--------|--------|--------|--------|--------|


E|--------|--------|--------|--------|--------|--------|--------|--------|--------|
B|--------|--------|--------|--------|--------|--------|--------|--------|--------|
G|--------|--------|--------|--------|--------|--------|--------|--------|--------|
D|--------|--------|--------|--------|--------|--------|--------|--------|--------|
A|--------|--------|--------|--------|--------|--------|--------|--------|--------|
E|--------|--------|--------|--------|--------|--------|--------|--------|--------|


E|--------|--------|--------|--------|--------|--------|--------|--------|--------|
B|--------|--------|--------|--------|--------|--------|--------|--------|--------|
G|--------|--------|--------|--------|--------|--------|--------|--------|--------|
D|--------|--------|--------|--------|--------|--------|--------|--------|--------|
A|--------|--------|--------|--------|--------|--------|--------|--------|--------|
E|--------|--------|--------|--------|--------|--------|--------|--------|--------|


E|--------|--------|--------|--------|--------|----------------------|----------------|
B|--------|--------|--------|--------|--------|------------8--6--8---|-6------12--12--|
G|--------|--------|--------|--------|--------|------------------9---|-7------12--12--|
D|--------|--------|--------|--------|--------|----------------------|----------------|
A|--------|--------|--------|--------|--------|----------------------|----------------|
E|--------|--------|--------|--------|--------|----------------------|----------------|


E|-------------------------|---------------------|-------17--10-----------10---|-10---10------------------|
B|-12----12--8---8--6--8---|-6----10---8----15---|-15-------------8---8--------|-----------8----8---8-----|
G|-12----12--9---9--7--9---|-7----10---9----16---|-16--------------------------|--------------------------|
D|-------------------------|---------------------|-----------------------------|--------------------------|
A|-------------------------|---------------------|-----------------------------|--------------------------|
E|-------------------------|---------------------|-----------------------------|--------------------------|


E|---------------------------------------------|------------------------------------|
B|-6--8--6-----5--6--5---3--5--3-----3---------|------------------------------------|
G|--------------------------------5-----3--4---|----------2--0--0--3--0--2--5-------|
D|---------------------------------------------|-5----------------------------------|
A|---------------------------------------------|------------------------------------|
E|---------------------------------------------|------------------------------------|


E|------------------------------------------|-------------------7--9--7--9--12-9--12-14-14-14--14--14--|
B|------------------------------------------|-7--10-7-----7--10----------------------------------------|
G|----3--6--0--4--7--0--5--9--0--7--10------|----------9-----------------------------------------------|
D|------------------------------------------|----------------------------------------------------------|
A|------------------------------------------|----------------------------------------------------------|
E|------------------------------------------|----------------------------------------------------------|


E|-14-----------------------|-------------------------------------------|-----------------------------|
B|------10----10--10--8-----|-8--10-8-----8---------8---------8---------|-6----6--5--3---5---3---3----|
G|-----------------------9--|----------9-----7--5------5--4------4--2---|-----------------------------|
D|--------------------------|-------------------------------------------|-----------------------------|
A|--------------------------|-------------------------------------------|-----------------------------|
E|--------------------------|-------------------------------------------|-----------------------------|


E|--------|--------|--------|--------|--------|--------|--------|------------------------------------|
B|--------|--------|--------|--------|--------|--------|--------|--------------------------8--10-12--|
G|--------|--------|--------|--------|--------|--------|--------|----------------9--11-12------------|
D|--------|--------|--------|--------|--------|--------|--------|------9--10-12----------------------|
A|--------|--------|--------|--------|--------|--------|--------|------------------------------------|
E|--------|--------|--------|--------|--------|--------|--------|------------------------------------|


E|-----------------|----------------------|-----------------|-------------|--------|
B|-10---12---8-----|-8-----10---8----10---|-10---12---8-----|-8-----------|--------|
G|-----------------|----------------------|-----------------|-------------|--------|
D|-----------------|----------------------|-----------------|-------------|--------|
A|-----------------|----------------------|-----------------|-------------|--------|
E|-----------------|----------------------|-----------------|-------------|--------|


E|--------|----------------------------------|---------------------------|-------------|
B|--------|----------------------------------|---------------------------|------12-----|
G|--------|-----14-11-11---9---9--10-10--9---|-7---5-----5---5---4---4---|-4-----------|
D|--------|----------------------------------|---------------------------|-------------|
A|--------|----------------------------------|---------------------------|-------------|
E|--------|----------------------------------|---------------------------|-------------|


E|-------------------------------|---------------------|-----------------------------|
B|-12--15---15--15---------------|---------------------|-----------------------------|
G|------------------14--14--14---|-14----14------------|-----------------12--14--12--|
D|-------------------------------|----------------12---|-12-----------14-------------|
A|-------------------------------|---------------------|-----------------------------|
E|-------------------------------|---------------------|-----------------------------|


E|-------12--12----|-----12----------------|--------------------|--------------------------------------------------|
B|-14----13--13----|-12--12------11--11----|--------------------|--------------------------------------------------|
G|-----------------|---------12------------|--------------------|---------------------------------9--11-12-9---9---|
D|-----------------|-----------------------|--------------------|------------------------9--10-12------------------|
A|-----------------|-----------------------|------------2---14--|---------------9--10-12---------------------------|
E|-----------------|-----------------------|--------------------|------8--10-12------------------------------------|


E|-------------------12-----|-17---17-15-----17--17--17-15----15-|-17--17----17---17--15-17-15-|
B|----------12-13-15--------|------------17----------------17----|-----------------------------|
G|-11-12-14-----------------|------------------------------------|-----------------------------|
D|--------------------------|------------------------------------|-----------------------------|
A|--------------------------|------------------------------------|-----------------------------|
E|--------------------------|------------------------------------|-----------------------------|


E|-15------------------------|-10-7-----------------------------------|----------------------|
B|-------15--15---15-15--15--|-------8-----10-7-----------------------|----------------------|
G|---------------------------|----------9--------7----------9----11---|-12---11---12---15----|
D|---------------------------|----------------------7--9--------------|----------------------|
A|---------------------------|----------------------------------------|----------------------|
E|---------------------------|----------------------------------------|----------------------|





Track 3: lyricon

E|------12-----10-10--12---------|----------12-14-17-17--14----|--------------10--------------------|
B|------5------3--3---5----------|-------14----7--10-10--------|-----13-------3------13-------------|
G|-------------------------------|----------9------------11----|-----5---------------5--------------|
D|-------------------------------|-------11--------------------|------------------------------------|
A|-------------------------------|-----------------------------|------------------------------------|
E|-------------------------------|-----------------------------|------------------------------------|


E|-------------12-15-15--12----|-----6--------8------6--------------|----------------13-13-15-13-------|
B|-------12-15-5--8--8---5-----|--------------1---------------------|----------13-15-------------15----|
G|-------4--7------------------|-----3---------------3--------------|-------14-------10-10-------------|
D|-----------------------------|------------------------------------|-------------12-------------12----|
A|-----------------------------|------------------------------------|-------12-15----------------------|
E|-----------------------------|------------------------------------|----------------------------------|


E|--------|--------|--------|--------|--------|--------|--------|--------|--------|
B|--------|--------|--------|--------|--------|--------|--------|--------|--------|
G|--------|--------|--------|--------|--------|--------|--------|--------|--------|
D|--------|--------|--------|--------|--------|--------|--------|--------|--------|
A|--------|--------|--------|--------|--------|--------|--------|--------|--------|
E|--------|--------|--------|--------|--------|--------|--------|--------|--------|


E|--------|--------|--------|--------|--------|--------|--------|-3----3---5--7-----------10----|
B|--------|--------|--------|--------|--------|--------|--------|-8----8---10-12----------15----|
G|--------|--------|--------|--------|--------|--------|--------|-------------------------------|
D|--------|--------|--------|--------|--------|--------|--------|-------------------------------|
A|--------|--------|--------|--------|--------|--------|--------|-------------------------------|
E|--------|--------|--------|--------|--------|--------|--------|-------------------------------|


E|-3----3---5--7--------|--------|--------|-3----3---5--7-----------10----|-3----3---5--7--------|
B|-8----8---10-12-------|--------|--------|-8----8---10-12----------15----|-8----8---10-12-------|
G|----------------------|--------|--------|-------------------------------|----------------------|
D|----------------------|--------|--------|-------------------------------|----------------------|
A|----------------------|--------|--------|-------------------------------|----------------------|
E|----------------------|--------|--------|-------------------------------|----------------------|


E|--------|--------|--------|--------|--------|--------|--------|--------|--------|
B|--------|--------|--------|--------|--------|--------|--------|--------|--------|
G|--------|--------|--------|--------|--------|--------|--------|--------|--------|
D|--------|--------|--------|--------|--------|--------|--------|--------|--------|
A|--------|--------|--------|--------|--------|--------|--------|--------|--------|
E|--------|--------|--------|--------|--------|--------|--------|--------|--------|


E|--------|--------|--------|--------|--------|--------|--------|------12-----10-10--12---------|
B|--------|--------|--------|--------|--------|--------|--------|------5------3--3---5----------|
G|--------|--------|--------|--------|--------|--------|--------|-------------------------------|
D|--------|--------|--------|--------|--------|--------|--------|-------------------------------|
A|--------|--------|--------|--------|--------|--------|--------|-------------------------------|
E|--------|--------|--------|--------|--------|--------|--------|-------------------------------|


E|----------12-14-17-17--14----|-----8--------10-----8--------------|----------10-12-15-15--12----|
B|-------14----7--10-10--7-----|--------------3---------------------|-------12-------8------------|
G|----------9------------------|-----5---------------5--------------|----------7--9-----12--9-----|
D|-------11--------------------|------------------------------------|-------9---------------------|
A|-----------------------------|------------------------------------|-----------------------------|
E|-----------------------------|------------------------------------|-----------------------------|


E|-----6--------8------6--------------|----------------13-13-15-13-------|--------|
B|--------------1---------------------|----------13-15-6--------6--15----|--------|
G|-----3---------------3--------------|-------14----7--------------7-----|--------|
D|------------------------------------|-------7--10----------------------|--------|
A|------------------------------------|----------------------------------|--------|
E|------------------------------------|----------------------------------|--------|


E|--------|--------|--------|--------|--------|--------|--------|--------|--------|
B|--------|--------|--------|--------|--------|--------|--------|--------|--------|
G|--------|--------|--------|--------|--------|--------|--------|--------|--------|
D|--------|--------|--------|--------|--------|--------|--------|--------|--------|
A|--------|--------|--------|--------|--------|--------|--------|--------|--------|
E|--------|--------|--------|--------|--------|--------|--------|--------|--------|


E|--------|--------|--------|--------|--------|--------|-3----3---5--7-----------10----|
B|--------|--------|--------|--------|--------|--------|-8----8---10-12----------15----|
G|--------|--------|--------|--------|--------|--------|-------------------------------|
D|--------|--------|--------|--------|--------|--------|-------------------------------|
A|--------|--------|--------|--------|--------|--------|-------------------------------|
E|--------|--------|--------|--------|--------|--------|-------------------------------|


E|-3----3---5--7--------|--------|--------|-3----3---5--7-----------10----|-3----3---5--7--------|
B|-8----8---10-12-------|--------|--------|-8----8---10-12----------15----|-8----8---10-12-------|
G|----------------------|--------|--------|-------------------------------|----------------------|
D|----------------------|--------|--------|-------------------------------|----------------------|
A|----------------------|--------|--------|-------------------------------|----------------------|
E|----------------------|--------|--------|-------------------------------|----------------------|


E|--------|--------|--------|--------|--------|--------|--------|--------|--------|
B|--------|--------|--------|--------|--------|--------|--------|--------|--------|
G|--------|--------|--------|--------|--------|--------|--------|--------|--------|
D|--------|--------|--------|--------|--------|--------|--------|--------|--------|
A|--------|--------|--------|--------|--------|--------|--------|--------|--------|
E|--------|--------|--------|--------|--------|--------|--------|--------|--------|


E|--------|--------|--------|--------|--------|--------|--------|--------|--------|
B|--------|--------|--------|--------|--------|--------|--------|--------|--------|
G|--------|--------|--------|--------|--------|--------|--------|--------|--------|
D|--------|--------|--------|--------|--------|--------|--------|--------|--------|
A|--------|--------|--------|--------|--------|--------|--------|--------|--------|
E|--------|--------|--------|--------|--------|--------|--------|--------|--------|


E|--------|--------|--------|--------|--------|--------|--------|--------|--------|
B|--------|--------|--------|--------|--------|--------|--------|--------|--------|
G|--------|--------|--------|--------|--------|--------|--------|--------|--------|
D|--------|--------|--------|--------|--------|--------|--------|--------|--------|
A|--------|--------|--------|--------|--------|--------|--------|--------|--------|
E|--------|--------|--------|--------|--------|--------|--------|--------|--------|


E|--------|--------|--------|--------|--------|--------|--------|--------|--------|
B|--------|--------|--------|--------|--------|--------|--------|--------|--------|
G|--------|--------|--------|--------|--------|--------|--------|--------|--------|
D|--------|--------|--------|--------|--------|--------|--------|--------|--------|
A|--------|--------|--------|--------|--------|--------|--------|--------|--------|
E|--------|--------|--------|--------|--------|--------|--------|--------|--------|


E|--------|--------|--------|--------|--------|--------|--------|--------|--------|
B|--------|--------|--------|--------|--------|--------|--------|--------|--------|
G|--------|--------|--------|--------|--------|--------|--------|--------|--------|
D|--------|--------|--------|--------|--------|--------|--------|--------|--------|
A|--------|--------|--------|--------|--------|--------|--------|--------|--------|
E|--------|--------|--------|--------|--------|--------|--------|--------|--------|


E|--------|--------|--------|--------|--------|--------|--------|--------|--------|
B|--------|--------|--------|--------|--------|--------|--------|--------|--------|
G|--------|--------|--------|--------|--------|--------|--------|--------|--------|
D|--------|--------|--------|--------|--------|--------|--------|--------|--------|
A|--------|--------|--------|--------|--------|--------|--------|--------|--------|
E|--------|--------|--------|--------|--------|--------|--------|--------|--------|


E|--------|--------|--------|--------|--------|--------|--------|--------|--------|
B|--------|--------|--------|--------|--------|--------|--------|--------|--------|
G|--------|--------|--------|--------|--------|--------|--------|--------|--------|
D|--------|--------|--------|--------|--------|--------|--------|--------|--------|
A|--------|--------|--------|--------|--------|--------|--------|--------|--------|
E|--------|--------|--------|--------|--------|--------|--------|--------|--------|


E|--------|--------|--------|--------|
B|--------|--------|--------|--------|
G|--------|--------|--------|--------|
D|--------|--------|--------|--------|
A|--------|--------|--------|--------|
E|--------|--------|--------|--------|





Track 4: high bass

G|--------|--------|---------------------14--|-13-----|-12-----|-11-----|-------------------------|
D|--------|--------|-----------------12------|--------|--------|--------|-------------------------|
A|--------|--------|-----------10-12---------|--------|--------|--------|-3------3------2---2-----|
E|-3------|-2------|-1-----1-----------------|-0------|-11-----|-10-----|-------------------------|


G|-----------------------------|-------------------------------------------|-------------------------------------------|
D|-----------------------------|---------------------------5---------0-----|---------------------------5---------0-----|
A|-3------3--------------------|-3------3-----5------------------2---------|-3------3-----5------------------2---------|
E|---------------3---3-----2---|-----------------3---3--3-----3------------|-----------------3---3--3-----3------------|


G|-------------------------------------------|-------------------------------------------|
D|---------------------------5---------0-----|---------------------------5---------0-----|
A|-3------3-----5------------------2---------|-3------3-----5------------------2---------|
E|-----------------3---3--3-----3------------|-----------------3---3--3-----3------------|


G|---------------------------5---------0-----|---------------------------5---------0-----|
D|-3------3-----5------------------2---------|-3------3-----5------------------2---------|
A|-----------------3---3--3-----3------------|-----------------3---3--3-----3------------|
E|-------------------------------------------|-------------------------------------------|


G|-------------------------------------------|-------------------------------------------|
D|---------------------------5---------0-----|---------------------------5---------0-----|
A|-3------3-----5------------------2---------|-3------3-----5------------------2---------|
E|-----------------3---3--3-----3------------|-----------------3---3--3-----3------------|


G|---------------------------7---------------|--------------0------------5---------0--0--|
D|-5------5-----7---------------0--4---7-----|-3------3------------------------2---------|
A|-----------------5---5--5------------------|-----------------3---3--3-----3------------|
E|-------------------------------------------|-------------------------------------------|


G|-2---0----------------------------|---------------------------------------|-------------------------------------------|
D|--------2--2--2--0----------------|-----5--5--7---5-----------------------|---------------------------5---------0-----|
A|----------------------------------|------------------7--7--7--5-------2---|-3------3-----5------------------2---------|
E|---------------------3---3---3----|-------------------------------3-------|-----------------3---3--3-----3------------|


G|-------------------------------------------|-------------------------------------------|
D|---------------------------5---------0-----|---------------------------5---------0-----|
A|-3------3-----5------------------2---------|-3------3-----5------------------2---------|
E|-----------------3---3--3-----3------------|-----------------3---3--3-----3------------|


G|-------------------------------------------|---------------------------5---------0-----|
D|---------------------------5---------0-----|-3------3-----5------------------2---------|
A|-3------3-----5------------------2---------|-----------------3---3--3-----3------------|
E|-----------------3---3--3-----3------------|-------------------------------------------|


G|---------------------------5---------0-----|-------------------------------------------|
D|-3------3-----5------------------2---------|---------------------------5---------0-----|
A|-----------------3---3--3-----3------------|-3------3-----5------------------2---------|
E|-------------------------------------------|-----------------3---3--3-----3------------|


G|-------------------------------------------|---------------------------7---------2-----|
D|---------------------------5---------0-----|-5------5-----7---------------0--4---------|
A|-3------3-----5------------------2---------|-----------------5---5--5------------------|
E|-----------------3---3--3-----3------------|-------------------------------------------|


G|---------------------------5---------0--0--|-2---0----------------------------|-------------------------------------------|
D|-3------3-----5------------------2---------|--------2--2--2--0----------------|-----5--5--7---5---------------------------|
A|-----------------3---3--3-----3------------|----------------------------------|------------------7--7--7--5--5--------2---|
E|-------------------------------------------|---------------------3---3---3----|---------------------------------3--3------|


G|-----5--------5---------------------|-------------------------------------------|
D|-------------------------------9----|-----7--------7----------------------------|
A|-3---------3------------------------|-0-----------------------------------2-----|
E|-----------------7---7---7--7-------|-----------5-----0---0--0--0--0--3---------|


G|-----5-------------------------4----|-----2--------2------------------------------|
D|------------------------------------|---------------------------------------0-----|
A|-3---------3--3--2---2---2--2-------|-0---------0---------------------2--2--------|
E|------------------------------------|-----------------0---0--0--0--0--------------|


G|-----6--------6---------5-----5------5-----|-------------------------------------------|
D|-------------------------------------------|-----5--------5----------------------------|
A|-4------4--4-----3---3-----3-----3---------|-------------------------------------0-----|
E|-------------------------------------------|-3------3--3-----2---2--2--2--2--4---------|


G|-------------------------------------------|-------2-----0--2------------9--9------9---|
D|-----9--------9----------------------------|-------------------0---0--0----------------|
A|-------------------------------------------|-0--0-----0------------------------7-------|
E|-7------7--7-----0---0--0--0--0--2---3-----|-------------------------------------------|


G|-------------------------0---------------|---------------------------------------|
D|-----------------------------------0-----|---------------------------------------|
A|-3------3----------------------2---------|-3------3-----5------------5-----------|
E|---------------3---3--3-----3------------|-----------------3---3--3------0---3---|


G|---------------------|--------------------|--------|--------|---------------------14--|
D|----------------2----|-2------------------|--------|--------|-----------------12------|
A|-------2---2---------|-----2---2----3-----|--------|--------|-----------10-12---------|
E|-2-------------------|--------------------|-3------|-2------|-1-----1-----------------|


G|-13-----|-12-----|-11-----|-------------------------|-------------------------------------|
D|--------|--------|--------|-------------------------|-------------------------------------|
A|--------|--------|--------|-3------3------2---2-----|-3------3--------------5-------------|
E|-0------|-11-----|-10-----|-------------------------|---------------3---3---------1---3---|


G|-------------------------------------------|-------------------------------------------|
D|---------------------------5---------0-----|---------------------------5---------0-----|
A|-3------3-----5------------------2---------|-3------3-----5------------------2---------|
E|-----------------3---3--3-----3------------|-----------------3---3--3-----3------------|


G|-------------------------------------------|-------------------------------------------|
D|---------------------------5---------0-----|---------------------------5---------0-----|
A|-3------3-----5------------------2---------|-3------3-----5------------------2---------|
E|-----------------3---3--3-----3------------|-----------------3---3--3-----3------------|


G|---------------------------5---------0-----|---------------------------5---------0-----|
D|-3------3-----5------------------2---------|-3------3-----5------------------2---------|
A|-----------------3---3--3-----3------------|-----------------3---3--3-----3------------|
E|-------------------------------------------|-------------------------------------------|


G|-------------------------------------------|-------------------------------------------|
D|---------------------------5---------0-----|---------------------------5---------0-----|
A|-3------3-----5------------------2---------|-3------3-----5------------------2---------|
E|-----------------3---3--3-----3------------|-----------------3---3--3-----3------------|


G|---------------------------7---------------|---------------------------5---------0--0--|
D|-5------5-----7---------------0--4---7-----|-3------3-----5------------------2---------|
A|-----------------5---5--5------------------|-----------------3---3--3-----3------------|
E|-------------------------------------------|-------------------------------------------|


G|-2---0---------------------------------|-----------7--------------------------------|
D|--------2--2--2--0---------------------|-----5--5------7--5-------------------------|
A|---------------------------------------|---------------------7--7--7--5--5------2---|
E|---------------------3--3--3--3---3----|------------------------------------3-------|


G|-------------------------------------------|-------------------------------------------|
D|---------------------------5---------0-----|---------------------------5---------0-----|
A|-3------3-----5------------------2---------|-3------3-----5------------------2---------|
E|-----------------3---3--3-----3------------|-----------------3---3--3-----3------------|


G|-------------------------------------------|-------------------------------------------|
D|---------------------------5---------0-----|---------------------------5---------0-----|
A|-3------3-----5------------------2---------|-3------3-----5------------------2---------|
E|-----------------3---3--3-----3------------|-----------------3---3--3-----3------------|


G|---------------------------5---------0-----|---------------------------5---------0-----|
D|-3------3-----5------------------2---------|-3------3-----5------------------2---------|
A|-----------------3---3--3-----3------------|-----------------3---3--3-----3------------|
E|-------------------------------------------|-------------------------------------------|


G|-------------------------------------------|-------------------------------------------|
D|---------------------------5---------0-----|---------------------------5---------0-----|
A|-3------3-----5------------------2---------|-3------3-----5------------------2---------|
E|-----------------3---3--3-----3------------|-----------------3---3--3-----3------------|


G|---------------------------7-----------------|---------------------------5---------0--0--|
D|-5------5-----7---------------0--4--4--7-----|-3------3-----5------------------2---------|
A|-----------------5---5--5--------------------|-----------------3---3--3-----3------------|
E|---------------------------------------------|-------------------------------------------|


G|-2---0----------------------------|---------------------------------------|-----5-------------------------4----|
D|--------2--2--2--0----------------|-----5--5--7---5-----------------------|------------------------------------|
A|----------------------------------|------------------7--7--7--5-------2---|-3---------3--3--2---2---2--2-------|
E|---------------------3---3---3----|-------------------------------3-------|------------------------------------|


G|-----2--------2----------------------------|-----5--------5----------------4----|
D|-------------------------------------------|------------------------------------|
A|-0---------0-------------------------2-----|-3---------3-----2---2---2--2-------|
E|-----------------0---0--0--0--0--3---------|------------------------------------|


G|-----2--------2------------------------------|-----6--------6----------------------5-----|
D|---------------------------------------0-----|-------------------------------------------|
A|-0---------0---------------------2--2--------|-4------4--4-----3---3--3--3--3--3---------|
E|-----------------0---0--0--0--0--------------|-------------------------------------------|


G|-----0--------0----------------------------|-----4--------4----------------------------|
D|-------------------------------------------|-------------------------------------------|
A|-------------------------------------------|-2------2--2-------------------------------|
E|-3------3--3-----2---2--2--2--2--4---5-----|-----------------0---0--0--0--0--2---3-----|


G|-----------------------------9-----------|-----5-----------5---------------4----|
D|-------7-----5--7--0---0--0--------------|--------------------------------------|
A|-0--0-----0------------------6-------5---|-3---------3--3-----2--2---2--2-------|
E|-----------------------------------------|--------------------------------------|


G|-----2--------2----------------------------|-----5-----------5---------------4----|
D|-------------------------------------------|--------------------------------------|
A|-0---------0-------------------------2-----|-3---------3--3-----2--2---2--2-------|
E|-----------------0---0--0--0--0--3---------|--------------------------------------|


G|-----2--------2----------------------------|-----6--------6----------------------5-----|
D|-------------------------------------0-----|-------------------------------------------|
A|-0---------0---------------------2---------|-4------4--4-----3---3--3--3--3--3---------|
E|-----------------0---0--0--0--0------------|-------------------------------------------|


G|-------------------------------------------|-----4--------4----------------------------|
D|-----5--------5----------------------------|-------------------------------------------|
A|-------------------------------------------|-2------2--2-------------------------------|
E|-3------3--3-----2---2--2--2--2--4---5-----|-----------------0---0--0--0--0--2---3-----|


G|-----------------------------------------|-----5-----------5---------------4----|
D|-------7-----5--7--0---0--0--------------|--------------------------------------|
A|-0--0-----0--------------------------5---|-3---------3--3-----2--2---2--2-------|
E|-----------------------------0-----------|--------------------------------------|


G|-----2--2-----2----------------------------|-----5-------------------------4----|
D|-------------------------------------------|------------------------------------|
A|-0---------0-------------------------2-----|-3---------3--3--2---2---2--2-------|
E|-----------------0---0--0--0--0--3---------|------------------------------------|


G|-----2--------2------------------------------|-----6--------6----------------------5-----|
D|---------------------------------------0-----|-------------------------------------------|
A|-0---------0---------------------2--2--------|-4------4--4-----3---3--3--3--3--3---------|
E|-----------------0---0--0--0--0--------------|-------------------------------------------|


G|-------------------------------------------|-----4--------4----------------------------|
D|-----5--------5----------------------------|-------------------------------------------|
A|-------------------------------------------|-2------2--2-------------------------------|
E|-3------3--3-----2---2--2--2--2--4---5-----|-----------------0---0--0--0--0--2---3-----|


G|-------2-----0--2------------9-----------|-----5-----------5---------------4----|
D|-------------------0---0--0--------------|--------------------------------------|
A|-0--0-----0--------------------------5---|-3---------3--3-----2--2---2--2-------|
E|-----------------------------------------|--------------------------------------|


G|-----2--------2----------------------------|-----5-----------5---------------4----|
D|-------------------------------------------|--------------------------------------|
A|-0---------0-------------------------2-----|-3---------3--3-----2--2---2--2-------|
E|-----------------0---0--0--0--0--3---------|--------------------------------------|


G|-----2--------2----------------------------|-----6--------6----------------------5-----|
D|-------------------------------------0-----|-------------------------------------------|
A|-0---------0---------------------2---------|-4------4--4-----3---3--3--3--3--3---------|
E|-----------------0---0--0--0--0------------|-------------------------------------------|


G|-------------------------------------------|-----4--------4----------------------------|
D|-----5--------5----------------------------|-------------------------------------------|
A|-------------------------------------------|-2------2--2-------------------------------|
E|-3------3--3-----2---2--2--2--2--4---5-----|-----------------0---0--0--0--0--2---3-----|


G|-------2-----0--2------------9-----------|-----5-----------5---------------4----|
D|-------------------0---0--0--------------|--------------------------------------|
A|-0--0-----0--------------------------5---|-3---------3--3-----2--2---2--2-------|
E|-----------------------------------------|--------------------------------------|


G|-----2--------2----------------------------|-----5-----------5---------------4----|
D|-------------------------------------------|--------------------------------------|
A|-0---------0-------------------------2-----|-3---------3--3-----2--2---2--2-------|
E|-----------------0---0--0--0--0--3---------|--------------------------------------|


G|-----2--------2----------------------------|-----6--------6----------------------5-----|
D|-------------------------------------0-----|-------------------------------------------|
A|-0---------0---------------------2---------|-4------4--4-----3---3--3--3--3--3---------|
E|-----------------0---0--0--0--0------------|-------------------------------------------|


G|-----0--------0----------------------------|-----4--------4----------------------------|
D|-------------------------------------------|-------------------------------------------|
A|-------------------------------------------|-2------2--2-------------------------------|
E|-3------3--3-----2---2--2--2--2--4---5-----|-----------------0---0--0--0--0--2---3-----|


G|-------2-----0--2------------7--8--9----------|--------|--------|--------|--------|
D|-------------------0---0--0-------------------|--------|--------|--------|--------|
A|-0--0-----0-------------------------------5---|--------|--------|--------|--------|
E|----------------------------------------------|--------|--------|--------|--------|


G|--------|--------|--------|--------|--------|--------|--------|--------|--------|
D|--------|--------|--------|--------|--------|--------|--------|--------|--------|
A|--------|--------|--------|--------|--------|--------|--------|--------|--------|
E|--------|--------|--------|--------|--------|--------|--------|--------|--------|


G|--------|--------|--------|--------|--------|--------|--------|--------|--------|
D|--------|--------|--------|--------|--------|--------|--------|--------|--------|
A|--------|--------|--------|--------|--------|--------|--------|--------|--------|
E|--------|--------|--------|--------|--------|--------|--------|--------|--------|


G|--------|
D|--------|
A|--------|
E|--------|