Site menu:

    

Browse: 0-9 A B C D E F G H I J K L N O P Q R S T U V W X Y Z

steely dan - my old school:



Title: My Old School
Artist: 
Album: Countdown to Ecstasy
Author: Donald Fagan and Walter Becker


Track 1: Piano right

E|--------------------12--|-12--12------12--12---12------|------------------------------|
B|------15---15-----------|-----15------15--15---15------|------8-------8-------8---8---|
G|------15---12-------14--|-14--14------15--14---12------|------9-------8-------9---9---|
D|------------------------|------------------------------|------12------12--10--12--12--|
A|------------------------|------------------------------|------------------------------|
E|-0---------0------------|-0---------------0--------7---|-8----------------------------|


E|-----------------------------------|--------|--------|--------|--------|--------|
B|-----------------------------------|--------|--------|--------|--------|--------|
G|-------------7---------------------|--------|--------|--------|--------|--------|
D|-----5---9-------9--7--5---7-------|--------|--------|--------|--------|--------|
A|-------------------------------7---|--------|--------|--------|--------|--------|
E|-----------------------------------|--------|--------|--------|--------|--------|


E|--------|--------|--------|--------|--------|--------|--------|--------|--------|
B|--------|--------|--------|--------|--------|--------|--------|--------|--------|
G|--------|--------|--------|--------|--------|--------|--------|--------|--------|
D|--------|--------|--------|--------|--------|--------|--------|--------|--------|
A|--------|--------|--------|--------|--------|--------|--------|--------|--------|
E|--------|--------|--------|--------|--------|--------|--------|--------|--------|


E|--------|--------|--------|--------|--------|--------|--------|--------|--------|
B|--------|--------|--------|--------|--------|--------|--------|--------|--------|
G|--------|--------|--------|--------|--------|--------|--------|--------|--------|
D|--------|--------|--------|--------|--------|--------|--------|--------|--------|
A|--------|--------|--------|--------|--------|--------|--------|--------|--------|
E|--------|--------|--------|--------|--------|--------|--------|--------|--------|


E|--------|--------|--------|--------|--------|--------|--------|--------|--------|
B|--------|--------|--------|--------|--------|--------|--------|--------|--------|
G|--------|--------|--------|--------|--------|--------|--------|--------|--------|
D|--------|--------|--------|--------|--------|--------|--------|--------|--------|
A|--------|--------|--------|--------|--------|--------|--------|--------|--------|
E|--------|--------|--------|--------|--------|--------|--------|--------|--------|


E|--------|--------|--------|--------|--------|--------|--------|--------|--------|
B|--------|--------|--------|--------|--------|--------|--------|--------|--------|
G|--------|--------|--------|--------|--------|--------|--------|--------|--------|
D|--------|--------|--------|--------|--------|--------|--------|--------|--------|
A|--------|--------|--------|--------|--------|--------|--------|--------|--------|
E|--------|--------|--------|--------|--------|--------|--------|--------|--------|


E|--------|--------|--------|--------|--------|--------|--------|--------|--------|
B|--------|--------|--------|--------|--------|--------|--------|--------|--------|
G|--------|--------|--------|--------|--------|--------|--------|--------|--------|
D|--------|--------|--------|--------|--------|--------|--------|--------|--------|
A|--------|--------|--------|--------|--------|--------|--------|--------|--------|
E|--------|--------|--------|--------|--------|--------|--------|--------|--------|


E|--------|--------|--------|--------|--------|--------|--------|--------|--------|
B|--------|--------|--------|--------|--------|--------|--------|--------|--------|
G|--------|--------|--------|--------|--------|--------|--------|--------|--------|
D|--------|--------|--------|--------|--------|--------|--------|--------|--------|
A|--------|--------|--------|--------|--------|--------|--------|--------|--------|
E|--------|--------|--------|--------|--------|--------|--------|--------|--------|


E|--------|--------|--------|--------|--------|--------|--------|--------|--------|
B|--------|--------|--------|--------|--------|--------|--------|--------|--------|
G|--------|--------|--------|--------|--------|--------|--------|--------|--------|
D|--------|--------|--------|--------|--------|--------|--------|--------|--------|
A|--------|--------|--------|--------|--------|--------|--------|--------|--------|
E|--------|--------|--------|--------|--------|--------|--------|--------|--------|


E|--------|--------|--------|--------|--------|--------|--------|--------|--------|
B|--------|--------|--------|--------|--------|--------|--------|--------|--------|
G|--------|--------|--------|--------|--------|--------|--------|--------|--------|
D|--------|--------|--------|--------|--------|--------|--------|--------|--------|
A|--------|--------|--------|--------|--------|--------|--------|--------|--------|
E|--------|--------|--------|--------|--------|--------|--------|--------|--------|


E|--------|--------|--------|--------|--------|--------|--------|--------|--------|
B|--------|--------|--------|--------|--------|--------|--------|--------|--------|
G|--------|--------|--------|--------|--------|--------|--------|--------|--------|
D|--------|--------|--------|--------|--------|--------|--------|--------|--------|
A|--------|--------|--------|--------|--------|--------|--------|--------|--------|
E|--------|--------|--------|--------|--------|--------|--------|--------|--------|


E|--------|--------|--------|--------|--------|--------|--------|--------|--------|
B|--------|--------|--------|--------|--------|--------|--------|--------|--------|
G|--------|--------|--------|--------|--------|--------|--------|--------|--------|
D|--------|--------|--------|--------|--------|--------|--------|--------|--------|
A|--------|--------|--------|--------|--------|--------|--------|--------|--------|
E|--------|--------|--------|--------|--------|--------|--------|--------|--------|


E|--------|--------|--------|--------|--------|--------|-----10--10--12--12--14--14--15--|
B|--------|--------|--------|--------|--------|--------|-7---------------------------12--|
G|--------|--------|--------|--------|--------|--------|-7---7---7---9---9---11--11------|
D|--------|--------|--------|--------|--------|--------|-7-------------------------------|
A|--------|--------|--------|--------|--------|--------|-5-------------------------------|
E|--------|--------|--------|--------|--------|--------|---------------------------------|


E|-15--17--17--19--19--20--20--22--|--------|--------|--------|--------|--------|--------|
B|---------------------------------|--------|--------|--------|--------|--------|--------|
G|-12--14--14--16--16--17--17--19--|--------|--------|--------|--------|--------|--------|
D|---------------------------------|--------|--------|--------|--------|--------|--------|
A|---------------------------------|--------|--------|--------|--------|--------|--------|
E|---------------------------------|--------|--------|--------|--------|--------|--------|


E|--------|--------|--------|--------|--------|--------|--------|--------|--------|
B|--------|--------|--------|--------|--------|--------|--------|--------|--------|
G|--------|--------|--------|--------|--------|--------|--------|--------|--------|
D|--------|--------|--------|--------|--------|--------|--------|--------|--------|
A|--------|--------|--------|--------|--------|--------|--------|--------|--------|
E|--------|--------|--------|--------|--------|--------|--------|--------|--------|


E|--------|--------|--------|--------|--------|--------|--------|--------|--------|
B|--------|--------|--------|--------|--------|--------|--------|--------|--------|
G|--------|--------|--------|--------|--------|--------|--------|--------|--------|
D|--------|--------|--------|--------|--------|--------|--------|--------|--------|
A|--------|--------|--------|--------|--------|--------|--------|--------|--------|
E|--------|--------|--------|--------|--------|--------|--------|--------|--------|


E|--------|--------|--------|--------|--------|--------|--------|--------|--------|
B|--------|--------|--------|--------|--------|--------|--------|--------|--------|
G|--------|--------|--------|--------|--------|--------|--------|--------|--------|
D|--------|--------|--------|--------|--------|--------|--------|--------|--------|
A|--------|--------|--------|--------|--------|--------|--------|--------|--------|
E|--------|--------|--------|--------|--------|--------|--------|--------|--------|


E|--------|--------|--------|--------|--------|--------|--------|--------|--------|
B|--------|--------|--------|--------|--------|--------|--------|--------|--------|
G|--------|--------|--------|--------|--------|--------|--------|--------|--------|
D|--------|--------|--------|--------|--------|--------|--------|--------|--------|
A|--------|--------|--------|--------|--------|--------|--------|--------|--------|
E|--------|--------|--------|--------|--------|--------|--------|--------|--------|


E|--------|--------|--------|--------|--------|--------|--------|--------|--------|
B|--------|--------|--------|--------|--------|--------|--------|--------|--------|
G|--------|--------|--------|--------|--------|--------|--------|--------|--------|
D|--------|--------|--------|--------|--------|--------|--------|--------|--------|
A|--------|--------|--------|--------|--------|--------|--------|--------|--------|
E|--------|--------|--------|--------|--------|--------|--------|--------|--------|


E|--------|--------|--------|--------|--------|--------|--------|--------|--------|
B|--------|--------|--------|--------|--------|--------|--------|--------|--------|
G|--------|--------|--------|--------|--------|--------|--------|--------|--------|
D|--------|--------|--------|--------|--------|--------|--------|--------|--------|
A|--------|--------|--------|--------|--------|--------|--------|--------|--------|
E|--------|--------|--------|--------|--------|--------|--------|--------|--------|


E|--------|--------|--------|--------|--------|--------|--------|--------|--------|
B|--------|--------|--------|--------|--------|--------|--------|--------|--------|
G|--------|--------|--------|--------|--------|--------|--------|--------|--------|
D|--------|--------|--------|--------|--------|--------|--------|--------|--------|
A|--------|--------|--------|--------|--------|--------|--------|--------|--------|
E|--------|--------|--------|--------|--------|--------|--------|--------|--------|


E|--------|--------|--------|--------|--------|
B|--------|--------|--------|--------|--------|
G|--------|--------|--------|--------|--------|
D|--------|--------|--------|--------|--------|
A|--------|--------|--------|--------|--------|
E|--------|--------|--------|--------|--------|





Track 2: Untitled

E|--------|--------|--------|--------|------3------------3----|------3------------3----|
B|--------|--------|--------|--------|------3------------3----|------3------------3----|
G|--------|--------|--------|--------|------------------------|------------------------|
D|--------|--------|--------|--------|------------------------|------------------------|
A|--------|--------|--------|--------|------------------------|------------------------|
E|--------|--------|--------|--------|---------------3--------|---------------3--------|


E|------3------------3----|---------0-------3---------------|---------8------------8----|
B|------3------------3----|---------------------------------|---------8------------8----|
G|------------------------|-----0---0---------------0-------|---------------------------|
D|------------------------|-------------2---2---2-------4---|-5-------------------------|
A|------------------------|-----------------------------2---|-3-------------------------|
E|---------------3--------|---------------------------------|------------------8--------|


E|------10-----------10---|---------------------------|---------------------------------|
B|-7----10-----------10---|---------5------------5----|---------5---------------5--5----|
G|-7----------------------|---------5------------5----|---------5---------------5--5----|
D|-9----------------------|-----5---5--------5---5----|-----5---5---0-------5---5--5----|
A|------------------------|---------------------------|---------------------------------|
E|---------------10-------|-----3------------3--------|-----3-----------3---3-----------|


E|------3------------3----|------3------------3----|------3------------3----|---------0-------3---------------|
B|------3------------3----|------3------------3----|------3------------3----|---------------------------------|
G|------------------------|------------------------|------------------------|-----0---0---------------0-------|
D|------------------------|------------------------|------------------------|-------------2---2---2-------4---|
A|------------------------|------------------------|------------------------|-----------------------------2---|
E|---------------3--------|---------------3--------|---------------3--------|---------------------------------|


E|---------8------------8----|------10-----------10---|----------------------3----|
B|---------8------------8----|-7----10-----------10---|---------5------------3----|
G|---------------------------|-7----------------------|---------5-----------------|
D|-5-------------------------|-9----------------------|-----5---5--------5--------|
A|-3-------------------------|------------------------|---------------------------|
E|------------------8--------|---------------10-------|-----3------------3--------|


E|------------------------------|---------------------------|---------------------------------|
B|---------5--------------------|---------------------------|---------------------------------|
G|---------5--------------------|---------------------------|---------------------------------|
D|-----5---5------------5---5---|-----5---7----5----5---7---|-----7-------5-----------5---7---|
A|--------------------------3---|-----3---3----3----3---3---|-----3-------3---6---7-----------|
E|-----3------------3-----------|---------------------------|---------------------------------|


E|---------------------------|------------------------------|----------------------------------|
B|---------------------------|------------------------------|-0-----------------------0--------|
G|---------------------------|-------------------------7----|-0--------0---0---2---2--0--------|
D|-----7---9----7--------9---|-----9-------7-----------7----|-0--------2---2-------------2--0--|
A|-----5---5----5--------5---|-----5-------5---8---9--------|----------2---2-------------------|
E|---------------------------|------------------------------|-3--------0---0-------------------|


E|--------------------------------|------8---------8----|------8---------8----|------10-------------------|
B|------0----------------------0--|------8---------8----|------8---------8----|------10-------------------|
G|------0-----------2---2---0-----|---------------------|---------------------|---------------------------|
D|-0--------2---2-----------------|---------------------|---------------------|---------------------------|
A|----------2---2-----------------|---------------------|---------------------|---------------------------|
E|-3--------0---0-----------------|---------------------|---------------------|-----------10--10--9---0---|


E|---------------------------|-----0--0----------------------------|-0--0-----0-----------------------|
B|---------------------------|-----0--0----------------------------|-0--0-----0-----------------------|
G|---------------------------|-------------------0--0---0----------|-0--0-----0-------0---------------|
D|-----7-------7-------9-----|-----------4-----------------2---2---|-------------2--------------------|
A|-----7-------7-------9-----|-----------5---------------------3---|--------------------------2---2---|
E|-----5-------5---5---7-----|-0-----------------------------------|----------------------------------|


E|------10-----------10------|------5--------------|---------3----------------------|
B|------10-----------10------|------5--------------|---------3------------3--3--5---|
G|---------------11----------|---------------------|----------------------4--4--5---|
D|---------------12----------|---------------------|----------------------5--5--5---|
A|-----------------------7---|-----------7---9-----|-5---5--------5---5-------------|
E|-----------------------5---|-----------5---7-----|-3---3--------3---3-------------|


E|------------------------------------|-----------------------------------|---------------------------------------|
B|-----5--5--3---5--5--3---5--5--3----|---------3-------------5-------3---|-5-------3--3--5--5--5--3--------------|
G|-----5--5--4---5--5--4---5--5--4----|-----4--------4--2-----------------|-----4---------------------0---0---2---|
D|-----5--5--5---5--5--5---5--5--5----|--------------------0--------------|---------------------------------------|
A|------------------------------------|-----------------------------------|---------------------------------------|
E|------------------------------------|-----------------------------------|---------------------------------------|


E|-------------------------0-------|-3-------5-------3--0----------0---|-----------2-------3-----3-----0--2--0-----|
B|-----------------3-------0-------|-3-------5-------3--0------3---0---|-----------3-------3-----3-----3--3--------|
G|-0---------------2---1-----------|---------------------------2-------|-------------------------------------------|
D|-----2---2-----------------------|-----------------------------------|-0---0--0-------0-----0-----0-----------0--|
A|---------------------------------|-----------------------0-----------|-------------------------------------------|
E|-------------0---------------0---|-----0-------0---------------------|-------------------------------------------|


E|-----------------------------7---------|-0--0----------------------------------------|
B|-----8---8---------------10--10-7------|-0-----3-------------------------------------|
G|-----5---5---5--0--------7---7---------|-----------2--0------2--0--------------------|
D|-------------------7--5------------0---|-----------------2---------2--0--2--0--------|
A|-----7---7-----------------------------|---------------------------------------2--0--|
E|---------------------------------------|---------------------------------------------|


E|-----------------------------------|------------------------|---------------------------------|
B|-------------3---------------------|------5------------3----|---------5---------------5-------|
G|-----0---4-------4--2--0---2-------|------5------------4----|---------5---------------5-------|
D|-0-----------------------------2---|------------------------|---------------------------------|
A|-0---------------------------------|------------------------|---------------------------------|
E|-0---------------------------------|---------------3--------|-----3-------3-------3-------3---|


E|-------------------------3----|---------0-------3---------------|---------8------------8----|
B|---------5---------------3----|---------------------------------|---------8------------8----|
G|---------5--------------------|-----0---0---------------0-------|---------------------------|
D|------------------------------|-------------2---2---2-------4---|-5-------------------------|
A|------------------------------|-----------------------------2---|-3-------------------------|
E|-3---3-------3---3---3--------|---------------------------------|------------------8--------|


E|------10-----------10---|----------------------3----|--------------------------------|
B|-7----10-----------10---|---------5------------3----|---------5-----------3--5--5----|
G|-7----------------------|---------5-----------------|---------5--------4--4--5--5----|
D|-9----------------------|-----5---5--------5--------|-----5---5--------5-----5--5----|
A|------------------------|---------------------------|--------------------------------|
E|---------------10-------|-----3------------3--------|-----3--------------------------|


E|------3------------3---3---|---------------------------------|----------------------3----|
B|------3------------3---3---|-----3-------5-------3---5-------|----------------------3----|
G|-----------------------4---|-----4-------5-------4---5-------|---------------------------|
D|---------------------------|-----5-------5-------------------|---------0-----------------|
A|---------------------------|---------------------------------|---------------------------|
E|-3---------3---3-----------|-----------------------------3---|-----3--------3---3--------|


E|---------------------------------|---------8------------8----|------10-----------10---|
B|---------------------------------|---------8------------8----|------10-----------10---|
G|-----0---0---0---0---0---0-------|---------------------------|------------------------|
D|-----------------------------4---|-5-------------------------|------------------------|
A|-----------------------------2---|-3-------------------------|------------------------|
E|---------------------------------|--------------8---8--------|---------------10-------|


E|----------------------3----|---------------------------------|------------------------------|
B|---------5----3-------3----|---------5-----------------------|------------------------------|
G|---------5----4------------|---------5-----------------------|------------------------------|
D|-----5---5----5------------|---------5-------------------5---|-----5---7----5---5-------7---|
A|---------------------------|-----------------------------3---|-----3---3----3---3-------3---|
E|-----3------------3--------|-----3-------3-------3-----------|------------------------------|


E|---------------------------------|------------------------------|------------------------------|
B|---------------------------------|------------------------------|------------------------------|
G|---------------------------------|------------------------------|-------------------------7----|
D|-----7-------5-----------5---7---|-----7---9-------7--------9---|-----9-------7-----------7----|
A|-----3-------3---6---7-----------|-----5---5---5---5----5---5---|-----5-------5---8---9--------|
E|---------------------------------|------------------------------|------------------------------|


E|----------------------------------|--------------0---3--0--------------|------8------------8----|
B|----------------------------------|------------------------3--0-----0--|------8------------8----|
G|----------0---0---2---2--0--------|------------------------------2--0--|------------------------|
D|-5--------2---2-------------2--0--|------------------------------------|------------------------|
A|-5--------2---2-------------------|-5----------------------------------|------------------------|
E|-3--------0---0-------------------|-3--------0-------------------------|---------------8--------|


E|---------8---------8----|---------10-------------------|---------5-----------------|
B|---------8---------8----|------------------------------|---------5-----------------|
G|------------------------|------------------------------|---------------------------|
D|------------------------|------------------------------|-------------7---7---9-----|
A|------------------------|--------------------------7---|-------------7---7---9-----|
E|-----8------------------|-----10-------10--10--3-------|-----5-------5---5---7-----|


E|-----------------------------------|---------------------0-------2-------|------10-----------10---|
B|-----------------------------------|---------------------0---0---0---0---|------10-----------10---|
G|-----------0-----------------------|-----------0---2--0------------------|------------------------|
D|-----------0-----------2---0---0---|-----1--2----------------------------|------------------------|
A|-----2--2--------------2---0---0---|-------------------------------------|------------------------|
E|-0---------------------0---0-------|-0-----------------------------------|-10--------10--9--------|


E|---------------------------|---------------------------|------------------------------|
B|---------5-----------------|------5----3---3---3-------|-----5-------5-------5---3----|
G|---------5-----------------|------5----4---4---4---4---|-----5-------5-------5---4----|
D|-----------------------0---|------5----5---5---5-------|-----5-------5-------5---5----|
A|--------------7---9--------|---------------------------|------------------------------|
E|-----5--------5---7--------|---------------------------|------------------------------|


E|---------------------------|------------------------------|---------------------------|
B|------5----3---3---5-------|-----5-------5-------5---3----|---------------------------|
G|------5----4---4---5---4---|-----5-------5-------5---4----|---------------------------|
D|------5----5---5---5-------|-----5-------5-------5---5----|---------4---7-------------|
A|---------------------------|------------------------------|-----5-----------5---------|
E|---------------------------|------------------------------|---------------------------|


E|-3---3---5---7---5---5--------|---------10--12------------------|---------------------------|
B|-1---1---3---5---3---3--------|-----10----------10--8---8---8---|---------------------5-----|
G|------------------------------|---------------------------------|-9---9---7-----------------|
D|------------------------------|---------------------------------|-------------9---6---------|
A|------------------------------|---------------------------------|---------------------------|
E|------------------------------|---------------------------------|---------------------------|


E|---------------------------------|-----------------15--17--17--17--|-15--------------10------7-------|
B|-------------------------10------|---------13--17------------------|-----17--17--15------12------8---|
G|-----------------7---11----------|-12--14--------------------------|---------------------------------|
D|---------7---9---------------14--|---------------------------------|---------------------------------|
A|-----9---------------------------|---------------------------------|---------------------------------|
E|---------------------------------|---------------------------------|---------------------------------|


E|---------------------|---------------------------------|---------------------------------|
B|------10---8---------|---------------------------------|---------------------8---10--10--|
G|----------------9----|-7---9---11--7---9-------7-------|-----9---9---7---9---------------|
D|---------------------|---------------------9--------9--|---------------------------------|
A|---------------------|---------------------------------|---------------------------------|
E|---------------------|---------------------------------|---------------------------------|


E|---------------------------------------|-10---------------------------------------------|
B|-8-------------------------------------|-10-12------------------------------------------|
G|-----9---9---7--7--7--7--9---9---9--9--|-------------4---------2--0------------0--------|
D|---------------------------------------|----------0---------0--------2---2--0-----------|
A|---------------------------------------|-------0---------0------------------------2--0--|
E|---------------------------------------|------------------------------------------------|


E|--------------------|--------|-----------------|--------|------------------------------|
B|--------------------|--------|-----------------|--------|---------5------------3-------|
G|--------------------|--------|-7---------------|--------|---------5------------4-------|
D|----------------5---|-5------|-7---------------|--------|------------------------------|
A|----------------4---|-4------|-5---------------|--------|------------------------------|
E|--------------------|--------|-----------------|--------|-----3------------3-------3---|


E|-------------------------3-------|-------------------------3-------|---------3---------------3----|
B|---------5---------------3-------|---------5---------------3-------|---------3---------------3----|
G|---------5---------------4-------|---------5-----------------------|------------------------------|
D|---------------------------------|---------5-----------------------|-----0------------------------|
A|---------------------------------|---------------------------------|------------------------------|
E|-----3-------3-------3-------3---|-----3-------3-------3-------2---|-3-----------3-------3--------|


E|--------------------------------------|--------------------------|------------------------|
B|--------------------------------------|--------------------------|-8----8----8------------|
G|-5----5---5--5--5--7--5--5--5---5--5--|-7----7----7--9------7----|-9----9----9----9---7---|
D|-5----5---5--5--5--7--5--5--5---5--5--|-7----7----7--9------7----|-9----9----9----9---7---|
A|----------5--5--------5--5------5--5--|--------------------------|------------------------|
E|--------------------------------------|--------------------------|------------------------|


E|---------------------------10--10---|--------------5-----------|--------------------------|
B|-7--7--------7----------------------|--------------5-----------|--------------------------|
G|-7--7--------7---------11-----------|-5----5----5---------5----|-7----7----7--9------7----|
D|-9--9--5--5--9---5--5---------------|-5----5----5---------5----|-7----7----7--9------7----|
A|-------7--7------7--7---------------|--------------------------|--------------------------|
E|------------------------------------|--------------------------|--------------------------|


E|------------------------|-------------8---8---8-----------|-7------7--6-------5----------------8--|
B|-8----8----8--------10--|-10------------------------------|---------------------------------------|
G|-9----9----9----11------|-----9---9---------------4---7---|-----7---------6---5---5---5--4--------|
D|-9----9----9------------|---------------------------------|---------------------------------------|
A|------------------------|---------------------------------|---------------------------------------|
E|------------------------|---------------------------------|---------------------------------------|


E|-8--7-----------0--3--0-----------|-------------------------------------------|--------------0-----------------------------|
B|-------8-----------------5---3----|-5--3--------3---5--3--5--3--5--3----------|--------------0-------------0---------------|
G|-----------7-------------5--------|-------3--4------------------------3---3---|-0--2--0--2-------2--0--2-------0--2--0--2--|
D|----------------------------------|-----------------------------------0-------|------------------2--0-------------------2--|
A|----------------------------------|-------------------------------------------|--------------------------------------------|
E|----------------------------------|-------------------------------------------|--------------------------------------------|


E|-------------------------------------|-------------------3----|-------------------3----|
B|---------------3---------------------|------5------------3----|-3----5------------3----|
G|-0--2--0---4-------4--2--0---2-------|------5-----------------|-4----5------------4----|
D|-0--2----------------------------2---|------5-----------------|-5----5-----------------|
A|-------------------------------------|------------------------|------------------------|
E|-------------------------------------|---------------3--------|---------------3--------|


E|---------------------------|---------0------------0-------|------8------------8----|
B|---------5------------3----|---------0------------0-------|------8------------8----|
G|---------5------------4----|---------0------------0-------|------------------------|
D|---------------------------|------------------------------|------------------------|
A|---------------------------|--------------------------0---|------------------------|
E|-3---3------------3--------|-----0--------0---0-----------|---------------8--------|


E|---------10-----------10---|----------------------3----|-----5---3-------------------3--3--3--3--|
B|---------10-----------10---|---------5------------3----|-----5---3-------5--5--5--5--3--3--3--3--|
G|---------------------------|---------5------------4----|-----5---4-------5--5--5--5--4--4--4--4--|
D|---------------------------|---------------------------|-----------------5--5--5--5--5--5--5--5--|
A|---------------------------|---------------------------|-----------------------------------------|
E|-----10-----------10-------|-----3------------3--------|-------------3---------------------------|


E|-3-----------------------3----|---------------------------------|---------------------------------|
B|-3----3--3---------------3----|---------3---------------5---3---|-------------------------3---3---|
G|-4----4--4--------------------|-------------------------5---4---|-------------------------4---4---|
D|-5----------------------------|---------------------------------|---------0-----------------------|
A|------------------------------|---------------------------------|---------------------------------|
E|-3-----------3-------3--------|-3---3-------3-------3-----------|-----3-------3-------3-----------|


E|---------0-----------------------|---------8------------8----|---------10-----------10---|
B|---------0-----------------------|---------8------------8----|---------10-----------10---|
G|---------------------------------|---------------------------|---------------------------|
D|-------------------------2---0---|---------------------------|---------------------------|
A|---------------------2-----------|---------------------------|---------------------------|
E|-0---0-------0-------------------|-----8------------8--------|-----10-----------10-------|


E|----------------------3----|------------------------------|------------------------------|
B|---------5----3-------3----|-3-------5----3---------------|------------------------------|
G|---------5----4-------4----|-4-------5----4---------------|------------------------------|
D|---------5----5------------|-5-------5----5-------2---5---|-----5---7----5---5-------7---|
A|---------------------------|--------------------------3---|-----3---3----3---3-------3---|
E|-----3------------3--------|-----3------------3-----------|------------------------------|


E|---------------------------------|------------------------------|------------------------------|
B|---------------------------------|------------------------------|------------------------------|
G|---------------------------------|------------------------------|-------------------------7----|
D|-----7-------5-----------5---7---|-----7---9-------7--------9---|-----9-------7-----------7----|
A|-----3-------3---6---7-----------|-----5---5---5---5----5---5---|-----5-------5---8---9--------|
E|---------------------------------|------------------------------|------------------------------|


E|----------------------------------|--------------0---3--0--------------|------8------------8----|
B|----------------------------------|------------------------3--0-----0--|------8------------8----|
G|----------0---0---2---2--0--------|------------------------------2--0--|------------------------|
D|-5--------2---2-------------2--0--|------------------------------------|------------------------|
A|-5--------2---2-------------------|-5----------------------------------|------------------------|
E|-3--------0---0-------------------|-3--------0-------------------------|---------------8--------|


E|---------8---------8----|---------10-------------------|---------5-----------------|
B|---------8---------8----|------------------------------|---------5-----------------|
G|------------------------|------------------------------|---------------------------|
D|------------------------|------------------------------|-------------7---7---9-----|
A|------------------------|--------------------------7---|-------------7---7---9-----|
E|-----8------------------|-----10-------10--10--3-------|-----5-------5---5---7-----|


E|-----------------------------------|---------------------0-------2-------|------10-----------10---|
B|-----------------------------------|---------------------0---0---0---0---|------10-----------10---|
G|-----------0-----------------------|-----------0---2--0------------------|------------------------|
D|-----------0-----------2---0---0---|-----1--2----------------------------|------------------------|
A|-----2--2--------------2---0---0---|-------------------------------------|------------------------|
E|-0---------------------0---0-------|-0-----------------------------------|-10--------10--9--------|


E|---------------------------|---------------------------|------------------------------|
B|---------5-----------------|------5----3---3---3-------|-----5-------5-------5---3----|
G|---------5-----------------|------5----4---4---4---4---|-----5-------5-------5---4----|
D|-----------------------0---|------5----5---5---5-------|-----5-------5-------5---5----|
A|--------------7---9--------|---------------------------|------------------------------|
E|-----5--------5---7--------|---------------------------|------------------------------|


E|---------------------------|------------------------------|-------------------------3---3---|
B|------5----3---3---5-------|-----5-------5-------5---3----|---------3---------------3---3---|
G|------5----4---4---5---4---|-----5-------5-------5---4----|---------4-----------------------|
D|------5----5---5---5-------|-----5-------5-------5---5----|-------------5-------5-----------|
A|---------------------------|------------------------------|-----5-------5-------5-----------|
E|---------------------------|------------------------------|-----3-------3-------3-----------|


E|---------3---3-------3-----------|-------------------------3---3---|-----------------------------------|
B|-3-------3---3-------3---5---3---|---------3---------------3---3---|-3-------5---3-------1---0---3--3--|
G|-4-----------------------5---4---|---------4-----------------------|-4-------5---4-------2---0---4--4--|
D|-5---------------5---------------|-------------5-------5-----------|-5-------------------0---2---5--5--|
A|-----5-----------5---------------|-----5-------5-------5-----------|-----5-----------------------------|
E|-----3-----------3---------------|-----3-------3-------3-----------|-----3-----------------------------|


E|----------------------------------------------|-------------------------------------------|
B|----------------------------------------------|-------------------------------------------|
G|---------------------2--2--2--2--4---4--2-----|-------------------------------------------|
D|-0---0--0--4---4--4------------------------0--|-----------2---2--2-----5--5--0--7---5--6--|
A|----------------------------------------------|-----3--3------------2---------------------|
E|----------------------------------------------|-------------------------------------------|


E|-----------------------------------|---------------------------------------|-------------------------------------------------|
B|-----------------------------------|---------------------------------------|-------------------------------------------------|
G|-----------------------------------|---------------------------------------|-------------7--9--7--9--------------7--9--7--9--|
D|---------------------------2---2---|-------2---2---------2---2---------2---|-7--9--7--9--------------7--9--7--9--------------|
A|-7---5---5---7---7------0----------|----0-------------0----------2--0------|-------------------------------------------------|
E|---------------------0-------------|-0-------------0-------------0---------|-------------------------------------------------|


E|-------------------------------------------------|-------------------------------------------|
B|-------------------------------------8--10-8--10-|-10--10-8--10-8--8---8---------------------|
G|-------------5--7--5--7--7--9--7--9--------------|-------------------------9--7--7--7--7--7--|
D|-5--7--5--7--------------------------------------|-------------------------------------------|
A|-------------------------------------------------|-------------------------------------------|
E|-------------------------------------------------|-------------------------------------------|


E|------------------------------|-----10------14------17-------|-19-17-19--15--17--17--15--17------|
B|---------10-------10------8---|------------------------------|-------------------------------17--|
G|-7----------------------------|-11------14------19-----------|-----------------------------------|
D|------------------------------|------------------------------|-----------------------------------|
A|------------------------------|------------------------------|-----------------------------------|
E|------------------------------|------------------------------|-----------------------------------|


E|-15-15-15-15-------------------------------|-----------------------------------------------|
B|-------------17--12-12-12------------------|-----------------------------------------------|
G|--------------------------12-12--12--9--9--|-7--7--7--7--7--7------------------------------|
D|-------------------------------------------|-------------------9--9--9--7--7--7--7---------|
A|-------------------------------------------|-----------------------------------------7--7--|
E|-------------------------------------------|-----------------------------------------------|


E|---------------------------------------------|-----------------------------------------------|
B|-----------------------8--7-----7--7---7-----|----5--------5---5--5--------------------------|
G|-------------7---7--7--7--7-----7--7---7-----|----5--------5---5--5--5-----5--5--5-----7--9--|
D|----0--------7---7--7--9--7-----7--7---7-----|----5--------5---5--5--7--5--5--5--7--5--7--9--|
A|-9-----8--9------------------9------------0--|-------7--7------------------------------------|
E|---------------------------------------------|-----------------------------------------------|


E|--------------------------12----12-------------|----12-12-12----------------12----12----12-12-10-|
B|-----------------------------------------------|-------------------------------------------------|
G|-4------------------------9-----9--------------|----9--9--9-----------------9-----9-----9--9--7--|
D|-5--9--9--9--9--9---9-----------------9--9--9--|----------------9-----9--------------------------|
A|-7--7--7--7--7--7---------------------7--7--7--|----------------7-----7--------------------------|
E|----0--0--0--0--0---------------------0--0--0--|-0--------------0-----0--------------------------|


E|-10-----10-10-10----10----10-10-10-10-10-10-11-|-12-12-12-12----12-12-12-12-12-12-12-12------|
B|-----------------------------------------------|---------------------------------------------|
G|-7------7--7--7-----7-----7--7--7--7--7--7--8--|-9--9--9--9-----9--9--9--9--9--9--9--9-------|
D|-----------------------------------------------|---------------------------------------------|
A|-----------------------------------------------|---------------------------------------------|
E|-----0-----------------------------------------|-----------------------------------------10--|


E|-----------------------------2---------|------12---14---15---|-------------------------------------------------|
B|---------0---0---0-----------2---------|------15---17---18---|-------------------------------------------------|
G|-----1---0---0---0--1--1--1--2---------|---------------------|-------------------------2--2--2--2--4--4--4--4--|
D|-----2--------------2--2--2------2--0--|---------------------|-0--0--0--0--4--4--4--4--------------------------|
A|-----2--------------2--2--2------------|---------------------|-------------------------------------------------|
E|-0------------------0--0--0------------|---------------------|-------------------------------------------------|


E|-------------------------------------------------|---------------------------------|
B|-------------5--5--5--5--8--8--8--8--10-10-10-10-|-10--8---10--8---10--8---10--8---|
G|-5--5--5--5--------------------------------------|---------------------------------|
D|-------------------------------------------------|---------------------------------|
A|-------------------------------------------------|---------------------------------|
E|-------------------------------------------------|---------------------------------|


E|-----------------------------------|-10--------------------------------------|-------------------------------------------|
B|-------------3---------------------|--------8--8-----6-----------------------|-----8-----10-8-----10----8--------10--8---|
G|-----0---4-------4--2--0---2-------|------------------------7------5------0--|-9------9--------9-----------9--9----------|
D|-------------------------------2---|-----7--------0------7------5------0-----|-------------------------------------------|
A|-----------------------------------|-----------------------------------------|-------------------------------------------|
E|-----------------------------------|-----------------------------------------|-------------------------------------------|


E|-12-------11-------10-------9--------8--------7--|-7--6--6--------5-----------------2------0--------|
B|----12-11----11-10----10-9-----9--8-----8--7-----|-7--6-----6--------5--3--0--3--2-----0------0-----|
G|-------------------------------------------------|-------------------------------------0---------0--|
D|-------------------------------------------------|--------------------------------------------------|
A|-------------------------------------------------|--------------------------------------------------|
E|-------------------------------------------------|--------------------------------------------------|


E|-9--10-9--10-10--10-10-9--10-10-10-9--10-10-10-|-7--8--8--8--7--8--8--8--8--10-10-10-10-12-12-12-|
B|-9--10-9--10-10--10-10-9--10-10-10-9--10-10-10-|-7--8--8--8--7--8--8--8--8--10-10-10-10-12-12-12-|
G|-10-11-----------------------------------------|-------------------------------------------------|
D|-----------------------------------------------|-------------------------------------------------|
A|-----------------------------------------------|-------------------------------------------------|
E|-----------------------------------------------|-------------------------------------------------|


E|---------------------------12--12--------|-----------------------|
B|-------------12------------12--12--------|-12------12------------|
G|-------------14--14--------14--14--------|-14------14------------|
D|----------0------------------------2-----|-----------------------|
A|----12--------------0-----------------0--|-----------------------|
E|-------12--------------12----------------|-----0-----------------|





Track 3: Jeff "Skunk" Baxter

E|--------|--------|--------|--------|--------|--------|--------|--------|--------|
B|--------|--------|--------|--------|--------|--------|--------|--------|--------|
G|--------|--------|--------|--------|--------|--------|--------|--------|--------|
D|--------|--------|--------|--------|--------|--------|--------|--------|--------|
A|--------|--------|--------|--------|--------|--------|--------|--------|--------|
E|--------|--------|--------|--------|--------|--------|--------|--------|--------|


E|--------|--------|--------|--------|--------|--------|--------|--------|--------|
B|--------|--------|--------|--------|--------|--------|--------|--------|--------|
G|--------|--------|--------|--------|--------|--------|--------|--------|--------|
D|--------|--------|--------|--------|--------|--------|--------|--------|--------|
A|--------|--------|--------|--------|--------|--------|--------|--------|--------|
E|--------|--------|--------|--------|--------|--------|--------|--------|--------|


E|--------|--------|--------|--------|--------|--------|--------|--------|--------|
B|--------|--------|--------|--------|--------|--------|--------|--------|--------|
G|--------|--------|--------|--------|--------|--------|--------|--------|--------|
D|--------|--------|--------|--------|--------|--------|--------|--------|--------|
A|--------|--------|--------|--------|--------|--------|--------|--------|--------|
E|--------|--------|--------|--------|--------|--------|--------|--------|--------|


E|--------|--------|--------|--------|--------|--------|--------|--------|--------|
B|--------|--------|--------|--------|--------|--------|--------|--------|--------|
G|--------|--------|--------|--------|--------|--------|--------|--------|--------|
D|--------|--------|--------|--------|--------|--------|--------|--------|--------|
A|--------|--------|--------|--------|--------|--------|--------|--------|--------|
E|--------|--------|--------|--------|--------|--------|--------|--------|--------|


E|--------|--------|--------|--------|--------|--------|--------|--------|--------|
B|--------|--------|--------|--------|--------|--------|--------|--------|--------|
G|--------|--------|--------|--------|--------|--------|--------|--------|--------|
D|--------|--------|--------|--------|--------|--------|--------|--------|--------|
A|--------|--------|--------|--------|--------|--------|--------|--------|--------|
E|--------|--------|--------|--------|--------|--------|--------|--------|--------|


E|--------|--------|--------|--------|--------|--------|--------|--------|--------|
B|--------|--------|--------|--------|--------|--------|--------|--------|--------|
G|--------|--------|--------|--------|--------|--------|--------|--------|--------|
D|--------|--------|--------|--------|--------|--------|--------|--------|--------|
A|--------|--------|--------|--------|--------|--------|--------|--------|--------|
E|--------|--------|--------|--------|--------|--------|--------|--------|--------|


E|--------|--------|--------|--------|--------|--------|--------|--------|--------|
B|--------|--------|--------|--------|--------|--------|--------|--------|--------|
G|--------|--------|--------|--------|--------|--------|--------|--------|--------|
D|--------|--------|--------|--------|--------|--------|--------|--------|--------|
A|--------|--------|--------|--------|--------|--------|--------|--------|--------|
E|--------|--------|--------|--------|--------|--------|--------|--------|--------|


E|--------|--------|--------|--------|--------|--------|--------|--------|--------|
B|--------|--------|--------|--------|--------|--------|--------|--------|--------|
G|--------|--------|--------|--------|--------|--------|--------|--------|--------|
D|--------|--------|--------|--------|--------|--------|--------|--------|--------|
A|--------|--------|--------|--------|--------|--------|--------|--------|--------|
E|--------|--------|--------|--------|--------|--------|--------|--------|--------|


E|--------|--------|--------|--------|--------|--------|--------|--------|--------|
B|--------|--------|--------|--------|--------|--------|--------|--------|--------|
G|--------|--------|--------|--------|--------|--------|--------|--------|--------|
D|--------|--------|--------|--------|--------|--------|--------|--------|--------|
A|--------|--------|--------|--------|--------|--------|--------|--------|--------|
E|--------|--------|--------|--------|--------|--------|--------|--------|--------|


E|--------|--------|--------|--------|--------|--------|--------|--------|--------|
B|--------|--------|--------|--------|--------|--------|--------|--------|--------|
G|--------|--------|--------|--------|--------|--------|--------|--------|--------|
D|--------|--------|--------|--------|--------|--------|--------|--------|--------|
A|--------|--------|--------|--------|--------|--------|--------|--------|--------|
E|--------|--------|--------|--------|--------|--------|--------|--------|--------|


E|--------|--------|--------|--------|--------|--------|--------|--------|--------|
B|--------|--------|--------|--------|--------|--------|--------|--------|--------|
G|--------|--------|--------|--------|--------|--------|--------|--------|--------|
D|--------|--------|--------|--------|--------|--------|--------|--------|--------|
A|--------|--------|--------|--------|--------|--------|--------|--------|--------|
E|--------|--------|--------|--------|--------|--------|--------|--------|--------|


E|--------|--------|--------|--------|--------|--------|--------|--------|--------|
B|--------|--------|--------|--------|--------|--------|--------|--------|--------|
G|--------|--------|--------|--------|--------|--------|--------|--------|--------|
D|--------|--------|--------|--------|--------|--------|--------|--------|--------|
A|--------|--------|--------|--------|--------|--------|--------|--------|--------|
E|--------|--------|--------|--------|--------|--------|--------|--------|--------|


E|--------|--------|--------|--------|--------|--------|--------|--------|--------|
B|--------|--------|--------|--------|--------|--------|--------|--------|--------|
G|--------|--------|--------|--------|--------|--------|--------|--------|--------|
D|--------|--------|--------|--------|--------|--------|--------|--------|--------|
A|--------|--------|--------|--------|--------|--------|--------|--------|--------|
E|--------|--------|--------|--------|--------|--------|--------|--------|--------|


E|--------|--------|--------|--------|--------|--------|--------|--------|--------|
B|--------|--------|--------|--------|--------|--------|--------|--------|--------|
G|--------|--------|--------|--------|--------|--------|--------|--------|--------|
D|--------|--------|--------|--------|--------|--------|--------|--------|--------|
A|--------|--------|--------|--------|--------|--------|--------|--------|--------|
E|--------|--------|--------|--------|--------|--------|--------|--------|--------|


E|--------|--------|--------|--------|--------|--------|--------|--------|--------|
B|--------|--------|--------|--------|--------|--------|--------|--------|--------|
G|--------|--------|--------|--------|--------|--------|--------|--------|--------|
D|--------|--------|--------|--------|--------|--------|--------|--------|--------|
A|--------|--------|--------|--------|--------|--------|--------|--------|--------|
E|--------|--------|--------|--------|--------|--------|--------|--------|--------|


E|--------|--------|--------|--------|--------|--------|--------|--------|--------|
B|--------|--------|--------|--------|--------|--------|--------|--------|--------|
G|--------|--------|--------|--------|--------|--------|--------|--------|--------|
D|--------|--------|--------|--------|--------|--------|--------|--------|--------|
A|--------|--------|--------|--------|--------|--------|--------|--------|--------|
E|--------|--------|--------|--------|--------|--------|--------|--------|--------|


E|--------|--------|--------|--------|--------|--------|--------|--------|--------|
B|--------|--------|--------|--------|--------|--------|--------|--------|--------|
G|--------|--------|--------|--------|--------|--------|--------|--------|--------|
D|--------|--------|--------|--------|--------|--------|--------|--------|--------|
A|--------|--------|--------|--------|--------|--------|--------|--------|--------|
E|--------|--------|--------|--------|--------|--------|--------|--------|--------|


E|--------|--------|--------|--------|--------|--------|--------|--------|--------|
B|--------|--------|--------|--------|--------|--------|--------|--------|--------|
G|--------|--------|--------|--------|--------|--------|--------|--------|--------|
D|--------|--------|--------|--------|--------|--------|--------|--------|--------|
A|--------|--------|--------|--------|--------|--------|--------|--------|--------|
E|--------|--------|--------|--------|--------|--------|--------|--------|--------|


E|--------|--------|--------|--------|--------|--------|--------|--------|--------|
B|--------|--------|--------|--------|--------|--------|--------|--------|--------|
G|--------|--------|--------|--------|--------|--------|--------|--------|--------|
D|--------|--------|--------|--------|--------|--------|--------|--------|--------|
A|--------|--------|--------|--------|--------|--------|--------|--------|--------|
E|--------|--------|--------|--------|--------|--------|--------|--------|--------|


E|--------|--------|--------|--------|--------|--------|--------|--------|--------|
B|--------|--------|--------|--------|--------|--------|--------|--------|--------|
G|--------|--------|--------|--------|--------|--------|--------|--------|--------|
D|--------|--------|--------|--------|--------|--------|--------|--------|--------|
A|--------|--------|--------|--------|--------|--------|--------|--------|--------|
E|--------|--------|--------|--------|--------|--------|--------|--------|--------|


E|--------|
B|--------|
G|--------|
D|--------|
A|--------|
E|--------|





Track 4: Piano right

E|--------|--------|--------|--------|--------|--------|--------|--------|--------|
B|--------|--------|--------|--------|--------|--------|--------|--------|--------|
G|--------|--------|--------|--------|--------|--------|--------|--------|--------|
D|--------|--------|--------|--------|--------|--------|--------|--------|--------|
A|--------|--------|--------|--------|--------|--------|--------|--------|--------|
E|--------|--------|--------|--------|--------|--------|--------|--------|--------|


E|--------|--------|--------|--------|--------|--------|--------|--------|--------|
B|--------|--------|--------|--------|--------|--------|--------|--------|--------|
G|--------|--------|--------|--------|--------|--------|--------|--------|--------|
D|--------|--------|--------|--------|--------|--------|--------|--------|--------|
A|--------|--------|--------|--------|--------|--------|--------|--------|--------|
E|--------|--------|--------|--------|--------|--------|--------|--------|--------|


E|--------|--------|--------|--------|--------|--------|--------|--------|--------|
B|--------|--------|--------|--------|--------|--------|--------|--------|--------|
G|--------|--------|--------|--------|--------|--------|--------|--------|--------|
D|--------|--------|--------|--------|--------|--------|--------|--------|--------|
A|--------|--------|--------|--------|--------|--------|--------|--------|--------|
E|--------|--------|--------|--------|--------|--------|--------|--------|--------|


E|--------|--------|--------|--------|--------|--------|--------|--------|--------|
B|--------|--------|--------|--------|--------|--------|--------|--------|--------|
G|--------|--------|--------|--------|--------|--------|--------|--------|--------|
D|--------|--------|--------|--------|--------|--------|--------|--------|--------|
A|--------|--------|--------|--------|--------|--------|--------|--------|--------|
E|--------|--------|--------|--------|--------|--------|--------|--------|--------|


E|--------|--------|--------|--------|--------|--------|--------|--------|--------|
B|--------|--------|--------|--------|--------|--------|--------|--------|--------|
G|--------|--------|--------|--------|--------|--------|--------|--------|--------|
D|--------|--------|--------|--------|--------|--------|--------|--------|--------|
A|--------|--------|--------|--------|--------|--------|--------|--------|--------|
E|--------|--------|--------|--------|--------|--------|--------|--------|--------|


E|--------|--------|--------|--------|--------|--------|--------|--------|--------|
B|--------|--------|--------|--------|--------|--------|--------|--------|--------|
G|--------|--------|--------|--------|--------|--------|--------|--------|--------|
D|--------|--------|--------|--------|--------|--------|--------|--------|--------|
A|--------|--------|--------|--------|--------|--------|--------|--------|--------|
E|--------|--------|--------|--------|--------|--------|--------|--------|--------|


E|--------|--------|--------|--------|--------|--------|--------|--------|--------|
B|--------|--------|--------|--------|--------|--------|--------|--------|--------|
G|--------|--------|--------|--------|--------|--------|--------|--------|--------|
D|--------|--------|--------|--------|--------|--------|--------|--------|--------|
A|--------|--------|--------|--------|--------|--------|--------|--------|--------|
E|--------|--------|--------|--------|--------|--------|--------|--------|--------|


E|--------|--------|--------|--------|--------|--------|--------|--------|--------|
B|--------|--------|--------|--------|--------|--------|--------|--------|--------|
G|--------|--------|--------|--------|--------|--------|--------|--------|--------|
D|--------|--------|--------|--------|--------|--------|--------|--------|--------|
A|--------|--------|--------|--------|--------|--------|--------|--------|--------|
E|--------|--------|--------|--------|--------|--------|--------|--------|--------|


E|--------|--------|--------|--------|--------|--------|--------|--------|--------|
B|--------|--------|--------|--------|--------|--------|--------|--------|--------|
G|--------|--------|--------|--------|--------|--------|--------|--------|--------|
D|--------|--------|--------|--------|--------|--------|--------|--------|--------|
A|--------|--------|--------|--------|--------|--------|--------|--------|--------|
E|--------|--------|--------|--------|--------|--------|--------|--------|--------|


E|--------|--------|--------|--------|--------|--------|--------|--------|--------|
B|--------|--------|--------|--------|--------|--------|--------|--------|--------|
G|--------|--------|--------|--------|--------|--------|--------|--------|--------|
D|--------|--------|--------|--------|--------|--------|--------|--------|--------|
A|--------|--------|--------|--------|--------|--------|--------|--------|--------|
E|--------|--------|--------|--------|--------|--------|--------|--------|--------|


E|--------|--------|--------|--------|--------|--------|--------|--------|--------|
B|--------|--------|--------|--------|--------|--------|--------|--------|--------|
G|--------|--------|--------|--------|--------|--------|--------|--------|--------|
D|--------|--------|--------|--------|--------|--------|--------|--------|--------|
A|--------|--------|--------|--------|--------|--------|--------|--------|--------|
E|--------|--------|--------|--------|--------|--------|--------|--------|--------|


E|--------|--------|--------|--------|--------|--------|--------|--------|--------|
B|--------|--------|--------|--------|--------|--------|--------|--------|--------|
G|--------|--------|--------|--------|--------|--------|--------|--------|--------|
D|--------|--------|--------|--------|--------|--------|--------|--------|--------|
A|--------|--------|--------|--------|--------|--------|--------|--------|--------|
E|--------|--------|--------|--------|--------|--------|--------|--------|--------|


E|--------|--------|--------|--------|--------|--------|--------|--------|--------|
B|--------|--------|--------|--------|--------|--------|--------|--------|--------|
G|--------|--------|--------|--------|--------|--------|--------|--------|--------|
D|--------|--------|--------|--------|--------|--------|--------|--------|--------|
A|--------|--------|--------|--------|--------|--------|--------|--------|--------|
E|--------|--------|--------|--------|--------|--------|--------|--------|--------|


E|--------|--------|--------|--------|--------|--------|--------|--------|--------|
B|--------|--------|--------|--------|--------|--------|--------|--------|--------|
G|--------|--------|--------|--------|--------|--------|--------|--------|--------|
D|--------|--------|--------|--------|--------|--------|--------|--------|--------|
A|--------|--------|--------|--------|--------|--------|--------|--------|--------|
E|--------|--------|--------|--------|--------|--------|--------|--------|--------|


E|--------|--------|--------|--------|--------|--------|--------|--------|--------|
B|--------|--------|--------|--------|--------|--------|--------|--------|--------|
G|--------|--------|--------|--------|--------|--------|--------|--------|--------|
D|--------|--------|--------|--------|--------|--------|--------|--------|--------|
A|--------|--------|--------|--------|--------|--------|--------|--------|--------|
E|--------|--------|--------|--------|--------|--------|--------|--------|--------|


E|--------|--------|--------|--------|--------|--------|--------|--------|--------|
B|--------|--------|--------|--------|--------|--------|--------|--------|--------|
G|--------|--------|--------|--------|--------|--------|--------|--------|--------|
D|--------|--------|--------|--------|--------|--------|--------|--------|--------|
A|--------|--------|--------|--------|--------|--------|--------|--------|--------|
E|--------|--------|--------|--------|--------|--------|--------|--------|--------|


E|--------|--------|--------|--------|--------|--------|--------|--------|--------|
B|--------|--------|--------|--------|--------|--------|--------|--------|--------|
G|--------|--------|--------|--------|--------|--------|--------|--------|--------|
D|--------|--------|--------|--------|--------|--------|--------|--------|--------|
A|--------|--------|--------|--------|--------|--------|--------|--------|--------|
E|--------|--------|--------|--------|--------|--------|--------|--------|--------|


E|--------|--------|--------|--------|--------|--------|--------|--------|--------|
B|--------|--------|--------|--------|--------|--------|--------|--------|--------|
G|--------|--------|--------|--------|--------|--------|--------|--------|--------|
D|--------|--------|--------|--------|--------|--------|--------|--------|--------|
A|--------|--------|--------|--------|--------|--------|--------|--------|--------|
E|--------|--------|--------|--------|--------|--------|--------|--------|--------|


E|--------|--------|--------|--------|--------|--------|--------|--------|--------|
B|--------|--------|--------|--------|--------|--------|--------|--------|--------|
G|--------|--------|--------|--------|--------|--------|--------|--------|--------|
D|--------|--------|--------|--------|--------|--------|--------|--------|--------|
A|--------|--------|--------|--------|--------|--------|--------|--------|--------|
E|--------|--------|--------|--------|--------|--------|--------|--------|--------|


E|--------|--------|--------|--------|--------|--------|--------|--------|--------|
B|--------|--------|--------|--------|--------|--------|--------|--------|--------|
G|--------|--------|--------|--------|--------|--------|--------|--------|--------|
D|--------|--------|--------|--------|--------|--------|--------|--------|--------|
A|--------|--------|--------|--------|--------|--------|--------|--------|--------|
E|--------|--------|--------|--------|--------|--------|--------|--------|--------|


E|--------|
B|--------|
G|--------|
D|--------|
A|--------|
E|--------|





Track 5: Horns

E|--------|--------|--------|---------7---10--7-----------------|--------------------|
B|--------|--------|--------|-----8---0-------0--10-8---10------|-8------------------|
G|--------|--------|--------|-----0-------7---------0-------9---|-0------------------|
D|--------|--------|--------|---------8----------7------7-------|--------------------|
A|--------|--------|--------|-------------------------------7---|--------------------|
E|--------|--------|--------|-----------------------------------|--------------------|


E|--------|--------|--------|--------|--------|--------------------|-------------------------------|
B|--------|--------|--------|--------|--------|--------------------|-8----8-----------------8--10--|
G|--------|--------|--------|--------|--------|----------------11--|-0----0----9---------7--0------|
D|--------|--------|--------|--------|--------|--------------------|--------------12-9---0-----7---|
A|--------|--------|--------|--------|--------|----------------9---|-------------------------------|
E|--------|--------|--------|--------|--------|--------------------|-----------12-10-7-------------|


E|-7----------7---|-------------5-------------------|-----------------------|-----------------7--10---|
B|------------0---|-----8---------------8---5-------|-----------3-----------|-----------------0-------|
G|-7--------------|-----0-------2-------0-------7---|-7-------------4-------|-----------9--9-----7----|
D|-5--------------|---------------------------------|-----------0-----------|-------------------------|
A|----------------|-------------------------7---5---|-5-------------2---7---|-7---------7--7----------|
E|----------------|---------------------------------|-------------------0---|-0-----------------------|


E|-5---------------|--------------------|---------15---15-------15--|-----15------15--15--15--15--10--|
B|-8---------------|--------------------|---------13---12-------13--|-----13------13--12--13--12------|
G|-9---------------|--------------------|---------------------------|---------------------------------|
D|-----------------|----------------4---|-5-------------------------|---------------------------------|
A|-----------------|--------------------|---------------------------|---------------------------------|
E|-----------------|----------------2---|-3-------------------------|---------------------------------|


E|-15-14-15--15---15----|-15-----15--16--|-17-16-17--17---17--------|--------|-----------------|
B|-17-16-17--17---17----|-17-----17--18--|-19-18-19--19---19--------|--------|-----------------|
G|----------------------|----------------|--------------------------|--------|-12----9---9-----|
D|----------------------|----------------|--------------------------|--------|-----------------|
A|----------------------|----------------|--------------------------|--------|-10----7---7-----|
E|----------------------|----------------|--------------------------|--------|-----------------|


E|------------------------|-----8--8--13------12----------13--|-------------13------13-------|
B|-8-------------8---12---|-----12-12-15------13----------15--|-----18------15------15--17---|
G|-------9---9------------|-----------17------16--------------|-----19-----------------------|
D|-------------------9----|---------------10------10----------|-10--10------------------14---|
A|-10----7---7---10-------|-------------------------------10--|---------12--10---------------|
E|------------------------|-8---------------------------------|-----------------8------------|


E|----------------|------------------10--10---|-------12-12----12----12----12-|-12-12-12----12--------------|
B|-15-----13--13--|-----13-------13--10--10---|-------10-10----10----10----10-|-10-10-10----10----15--15----|
G|----------------|-----12-------12--11--11---|-------11-11----11----11----11-|-11-11-11----11--------------|
D|-12-----13--14--|-----14-------14-----------|-------------------------------|-------------------12--12----|
A|----------------|---------------------------|-------------------------------|-----------------------------|
E|----------------|---------------------------|-------------------------------|-----------------------------|


E|-10------------8-------8---|-----8---10---10-----------|------15---15----15--|-----15------15------15--12--10--|
B|-10------------8-------8---|-----8---10---10-----------|---------------------|---------------------------------|
G|-11------------9-------9---|-----9---11---11-----------|------12---12----12--|-----12------12------12--9---7---|
D|---------------------------|---------------------------|---------------------|-----------------------------0---|
A|---------------------------|---------------------------|---------------------|---------------------------------|
E|---------------------------|---------------------------|------15---15----15--|-----15------15------15--12------|


E|-14---------------15------12--|----------12--14--14------14--|-15--15--15------------|
B|-15---------------15------13--|----------13--15--15------15--|-15--15--15------------|
G|-14---------------16------12--|----------12--14--14------14--|-16--16--16------------|
D|------------------------------|------------------------------|-----------------------|
A|------------------------------|------------------------------|-----------------------|
E|------------------------------|------------------------------|-----------------------|


E|--------|-14---------------15------12--|----------12--14--14------14--|-15--15--15------------|
B|--------|-15---------------15------13--|----------13--15--15------15--|-15--15--15------------|
G|--------|-14---------------16------12--|----------12--14--14------14--|-16--16--16------------|
D|--------|------------------------------|------------------------------|-----------------------|
A|--------|------------------------------|------------------------------|-----------------------|
E|--------|------------------------------|------------------------------|-----------------------|


E|---------7-----10--7-----------------|--------------------|--------|--------|--------|
B|---------0---------0--10-8---10------|-8------------------|--------|--------|--------|
G|-----12--------7---------0-------9---|-0------------------|--------|--------|--------|
D|---------8------------7------7-------|--------------------|--------|--------|--------|
A|-----10--------------------------7---|--------------------|--------|--------|--------|
E|-------------------------------------|--------------------|--------|--------|--------|


E|------------------------|-----------------|--------------------|---------------------------5---|
B|------------------------|-----------------|----------------7---|-8----8-----------------8------|
G|------------------------|-----------------|--------------------|-----------9--7--4---7--0--2---|
D|-10-----------------11--|-12--------------|--------------------|---------------------0---------|
A|------------------------|-----------------|----------------9---|-10---10---7--5--2-------------|
E|-8------------------9---|-10--------------|--------------------|-------------------------------|


E|-7----------7---|---------------------------------|-----------------------|-----------------7--10---|
B|------------0---|-----8-------10------8-----------|-----------------------|-----------------0-------|
G|-7--------------|-----0---------------0---9-------|-----------------------|-----------9--9-----7----|
D|-5--------------|-------------7---------------12--|-12--------12--9-------|-------------------------|
A|----------------|---------------------------------|-------------------7---|-7---------7--7----------|
E|----------------|-------------------------12--10--|-10--------10--7---0---|-0-----------------------|


E|-5---------------|--------------------|---------15---15-------15--|-----15------15--15--15--15--10--|
B|-8---------------|--------------------|---------13---12-------13--|-----13------13--12--13--12------|
G|-9---------------|--------------------|---------------------------|---------------------------------|
D|-----------------|----------------4---|-5-------------------------|---------------------------------|
A|-----------------|--------------------|---------------------------|---------------------------------|
E|-----------------|----------------2---|-3-------------------------|---------------------------------|


E|-15-14-15--15---15----|-15-----15--16--|-17-16-17--17---17--------|--------|-----------------|
B|-17-16-17--17---17----|-17-----17--18--|-19-18-19--19---19--------|--------|-----------------|
G|----------------------|----------------|--------------------------|--------|-12----9---9-----|
D|----------------------|----------------|--------------------------|--------|-----------------|
A|----------------------|----------------|--------------------------|--------|-10----7---7-----|
E|----------------------|----------------|--------------------------|--------|-----------------|


E|-------------------7----|-----8--8--13------12----------13--|-------------13------13--12---|
B|-8-------------8--------|-----12-12-15------13----------15--|-----18------15------15-------|
G|-------9---9------------|-----------17------16--------------|-----19------------------9----|
D|-------------------9----|---------------10------10----------|-10--10-----------------------|
A|-10----7---7---10-------|-------------------------------10--|---------12--10---------------|
E|------------------------|-8---------------------------------|-----------------8------------|


E|-10-------------|------------------10--10---|-------12-12----12----12----12-|-12-12-12----12--------------|
B|--------13--13--|-----13-------13--10--10---|-------10-10----10----10----10-|-10-10-10----10----15--15----|
G|-7--------------|-----12-------12--11--11---|-------11-11----11----11----11-|-11-11-11----11--------------|
D|--------13--14--|-----14-------14-----------|-------------------------------|-------------------12--12----|
A|----------------|---------------------------|-------------------------------|-----------------------------|
E|----------------|---------------------------|-------------------------------|-----------------------------|


E|-10------------8-------8---|-----8---10---10-----------|------15---15----15--|-----15------15------15----------|
B|-10------------8-------8---|-----8---10---10-----------|---------------------|-------------------------17------|
G|-11------------9-------9---|-----9---11---11-----------|------12---12----12--|-----12------12------12------16--|
D|---------------------------|---------------------------|---------------------|-------------------------14------|
A|---------------------------|---------------------------|-10------------------|-----------------------------14--|
E|---------------------------|---------------------------|---------------------|---------------------------------|


E|------15---15----15--|-----15------15------15----------|-14---------------15------12--|
B|---------------------|-------------------------17------|-15---------------15------13--|
G|------12---12----12--|-----12------12------12------16--|-14---------------16------12--|
D|-5-------------------|-------------------------14------|------------------------------|
A|---------------------|-----------------------------14--|------------------------------|
E|-3-------------------|---------------------------------|------------------------------|


E|----------12--14--14------14--|-15--15--15------------|--------|-14---------------15------12--|
B|----------13--15--15------15--|-15--15--15------------|--------|-15---------------15------13--|
G|----------12--14--14------14--|-16--16--16------------|--------|-14---------------16------12--|
D|------------------------------|-----------------------|--------|------------------------------|
A|------------------------------|-----------------------|--------|------------------------------|
E|------------------------------|-----------------------|--------|------------------------------|


E|----------12--14--14------14--|-15--15--15------------|-----15------12------------------|
B|----------13--15--15------15--|-15--15--15------------|---------------------12------8---|
G|----------12--14--14------14--|-16--16--16------------|-----12------9-------------------|
D|------------------------------|-----------------------|---------------------9-------5---|
A|------------------------------|-----------------------|---------------------------------|
E|------------------------------|-----------------------|---------------------------------|


E|-14---------------15------12--|----------12--14--14------14--|-15--15--15------------|
B|-15---------------15------13--|----------13--15--15------15--|-15--15--15------------|
G|-14---------------16------12--|----------12--14--14------14--|-16--16--16------------|
D|------------------------------|------------------------------|-----------------------|
A|------------------------------|------------------------------|-----------------------|
E|------------------------------|------------------------------|-----------------------|


E|--------|-----------------|--------|-----------------|----------------------------------|
B|--------|-----------------|--------|-----------------|------6-----6-----5---------------|
G|--------|-----------------|--------|-----------------|------7--4--7--4--5---5---6---7---|
D|--------|-10----10----11--|-11-----|-12--------------|---------5-----5------5---8---9---|
A|--------|-----------------|--------|-----------------|------------------------------10--|
E|--------|-8-----8-----9---|-9------|-10--------------|----------------------------------|


E|---------15---15--------|-----------------------------------|---------------------------------|
B|------------------------|-------------15--17--15--12--------|---------------------------------|
G|---------12---12--------|----------------------------12-14--|-12--------------------------11--|
D|------------------------|-------------12--14--12--9---------|-----5---------------------------|
A|-10--10-----------------|----------------------------10-12--|-10----------10------10----------|
E|--------------------14--|-15--15------------------------14--|-----------------------------14--|


E|---------------------------------|---------------------------------|-----------------------------0---|
B|-8---8---------------------------|---------------------------------|-7---8---8---7---8---8---7-------|
G|---------9-----------------------|-4---5---5---4---5---7---7---9---|---------------------------------|
D|---------------------------------|---------------------------------|---------------------------------|
A|-10--10--7---9---10--10--7---5---|---------------------------------|---------------------------------|
E|---------------------------------|---------------------------------|---------------------------------|


E|-0---------------------10--|-10-------------|---------------------------------|---------------------------------|
B|-----------------------10--|-10-------------|---------------------------------|---------------------------------|
G|------9----9---7-------7---|-7--------------|-4---5---5---4---5---7---7---9---|-11--12--12--11--12--12--11--12--|
D|-------------------9-------|------------7---|---------------------------------|---------------------------------|
A|---------------------------|----------------|---------------------------------|---------------------------------|
E|---------------------------|----------------|---------------------------------|---------------------------------|


E|------------------------|--------|--------|--------|--------|--------|---------7-----10--7-----------------|
B|-12---12---12-------10--|-10-----|-10-----|--------|--------|--------|---------0---------0--10-8---10------|
G|-12---12---12-------11--|-11-----|-11-----|--------|--------|--------|---------------7---------0-------9---|
D|-14---14---14-------12--|-12-----|-12-----|--------|--------|--------|-----17--8------------7------7-------|
A|------------------------|--------|--------|--------|--------|--------|---------------------------------7---|
E|------------------------|--------|--------|--------|--------|--------|-----15------------------------------|


E|--------------------|--------|--------|------24-19-18-17-15-17-15----------------|
B|-8------------------|--------|--------|------17-------------------16-17----------|
G|-0------------------|--------|--------|---------16-15-14-12-14----------16-------|
D|--------------------|--------|--------|------------------------17----14----17----|
A|--------------------|--------|--------|---------------------------18----14----19-|
E|--------------------|--------|--------|------------------------------------15-12-|


E|------------------------|-----------------|--------------------|---------------------------5---|
B|------------------------|-----------------|--------------------|------------------------8------|
G|------------------------|-----------------|----------------11--|-12---12-------------7--0------|
D|-10-----------------11--|-12--------------|--------------------|-----------14-12-9---0-----7---|
A|------------------------|-----------------|--------------------|-------------------------------|
E|-8------------------9---|-10--------------|----------------14--|-15---15---12-10-7-------------|


E|-7----------7---|---------------------------------|-----------------------|-----------------7--10---|
B|------------0---|-----8-------10------8-----------|-----------------------|-----------------0-------|
G|-7--------------|-----0---------------0---9-------|-----------------------|-----------9--9-----7----|
D|-5--------------|-------------7---------------12--|-12--------12--9-------|-------------------------|
A|----------------|---------------------------------|-------------------7---|-7---------7--7----------|
E|----------------|-------------------------12--10--|-10--------10--7---0---|-0-----------------------|


E|-5---------------|--------------------|---------15---15-------15--|-----15------15--15--15--15--10--|
B|-8---------------|--------------------|---------13---12-------13--|-----13------13--12--13--12------|
G|-9---------------|--------------------|---------------------------|---------------------------------|
D|-----------------|----------------4---|-5-------------------------|---------------------------------|
A|-----------------|--------------------|---------------------------|---------------------------------|
E|-----------------|----------------2---|-3-------------------------|---------------------------------|


E|-15-14-15--15---15----|-15-----15--16--|-17-16-17--17---17--------|--------|-----------------|
B|-17-16-17--17---17----|-17-----17--18--|-19-18-19--19---19--------|--------|-----------------|
G|----------------------|----------------|--------------------------|--------|-----------------|
D|----------------------|----------------|--------------------------|--------|-17----14--14----|
A|----------------------|----------------|--------------------------|--------|-----------------|
E|----------------------|----------------|--------------------------|--------|-15----12--12----|


E|------------------------|-----8--8--13------12----------13--|-----13------13------13--12---|
B|------------------------|-----12-12-15------12----------15--|-----15------15------15-------|
G|-12------------12--16---|-----------17------17--------------|-------------------------9----|
D|-------14--14-----------|---------------10------10----------|-10--10-----------------------|
A|-------------------14---|-------------------------------10--|---------12--10---------------|
E|-15----12--12--15-------|-8---------------------------------|-----------------8------------|


E|-10-----8---8---|------------------10--10---|-------12-12----12----12----12-|-12-12-12----12----12-12-12-12-12----12--10--|
B|----------------|-----13-------13--10--10---|-------10-10----10----10----10-|-10-10-10----10----10-10-10-10-10----10--10--|
G|-7------8---9---|-----12-------12--11--11---|-------11-11----11----11----11-|-11-11-11----11----11-11-11-11-11----11--11--|
D|----------------|-----14-------14-----------|-------------------------------|---------------------------------------------|
A|----------------|---------------------------|-------------------------------|---------------------------------------------|
E|----------------|---------------------------|-------------------------------|---------------------------------------------|


E|-10------------8-------8---|-----8---10---10-----------|------15---15----15--|-----15------15------15--12------|
B|-10------------8-------8---|-----8---10---10-----------|---------------------|---------------------19------12--|
G|-11------------9-------9---|-----9---11---11-----------|------12---12----12--|-----12------12------12--9-------|
D|---------------------------|---------------------------|---------------------|-----------------------------9---|
A|---------------------------|---------------------------|-10------------------|---------------------------------|
E|---------------------------|---------------------------|---------------------|---------------------------------|


E|------15---15----15--|-----15------15------15----------|------15---15----15--|-----15------15------15----------|
B|---------------------|-------------------------17------|---------------------|-------------------------17------|
G|------12---12----12--|-----12------12------12------16--|------12---12----12--|-----12------12------12------16--|
D|-5-------------------|-------------------------14------|-5-------------------|-------------------------14------|
A|---------------------|-----------------------------14--|---------------------|-----------------------------14--|
E|-3-------------------|---------------------------------|-3-------------------|---------------------------------|


E|------15---15----15--|-----15------15------15----------|-14---------------15------12--|
B|---------------------|-------------------------17------|-15---------------15------13--|
G|------12---12----12--|-----12------12------12------16--|-14---------------16------12--|
D|-5-------------------|-------------------------14------|------------------------------|
A|---------------------|-----------------------------14--|------------------------------|
E|-3-------------------|---------------------------------|------------------------------|


E|----------12--14--14------14--|-15--15--15------------|--------|-14---------------15------12--|
B|----------13--15--15------15--|-15--15--15------------|--------|-15---------------15------13--|
G|----------12--14--14------14--|-16--16--16------------|--------|-14---------------16------12--|
D|------------------------------|-----------------------|--------|------------------------------|
A|------------------------------|-----------------------|--------|------------------------------|
E|------------------------------|-----------------------|--------|------------------------------|


E|----------12--14--14------14--|-15--15--15------------|-----15------12------------------|
B|----------13--15--15------15--|-15--15--15------------|---------------------12------8---|
G|----------12--14--14------14--|-16--16--16------------|-----12------9-------------------|
D|------------------------------|-----------------------|---------------------9-------5---|
A|------------------------------|-----------------------|---------------------------------|
E|------------------------------|-----------------------|---------------------------------|


E|-14---------------15------12--|----------12--14--14------14--|-15--15--15------------|
B|-15---------------15------13--|----------13--15--15------15--|-15--15--15------------|
G|-14---------------16------12--|----------12--14--14------14--|-16--16--16------------|
D|------------------------------|------------------------------|-----------------------|
A|------------------------------|------------------------------|-----------------------|
E|------------------------------|------------------------------|-----------------------|


E|-----15--19----22--19-17-15--17--12--|-14---------------15------12--|----------12--14--14------14--|
B|---------0---------------------------|-15---------------15------13--|----------13--15--15------15--|
G|-----0---16----19--16-14-----14--9---|-14---------------16------12--|----------12--14--14------14--|
D|-----17--------12--9--7--17--7-------|------------------------------|------------------------------|
A|---------13--------------10------7---|------------------------------|------------------------------|
E|-------------------------------------|------------------------------|------------------------------|


E|-15--15--15------------|-----15------12------------------|-14---------------15------12--|
B|-15--15--15------------|---------------------12------8---|-15---------------15------13--|
G|-16--16--16------------|-----12------9-------------------|-14---------------16------12--|
D|-----------------------|---------------------9-------5---|------------------------------|
A|-----------------------|---------------------------------|------------------------------|
E|-----------------------|---------------------------------|------------------------------|


E|----------12--14--14------14--|-15--15--15------------|---------19----22--19-17-15--17--12--|
B|----------13--15--15------15--|-15--15--15------------|-----20--0---------0-----8-----------|
G|----------12--14--14------14--|-16--16--16------------|-----0---16----19-----14-----14--9---|
D|------------------------------|-----------------------|-----17------------21-7--5---7-------|
A|------------------------------|-----------------------|---------13----17----------------7---|
E|------------------------------|-----------------------|-------------------------------------|


E|-14---------------15------12--|----------12--14--14------14--|-15--15--15------------|
B|-15---------------15------13--|----------13--15--15------15--|-15--15--15------------|
G|-14---------------16------12--|----------12--14--14------14--|-16--16--16------------|
D|------------------------------|------------------------------|-----------------------|
A|------------------------------|------------------------------|-----------------------|
E|------------------------------|------------------------------|-----------------------|


E|-----15--------------------------|-14---------------15------12--|----------12--14--14------14--|
B|-------------17------------------|-15---------------15------13--|----------13--15--15------15--|
G|-----12--------------16------12--|-14---------------16------12--|----------12--14--14------14--|
D|-------------14------------------|------------------------------|------------------------------|
A|---------------------14------10--|------------------------------|------------------------------|
E|---------------------------------|------------------------------|------------------------------|


E|-15--15--15------------|-----15--19----22--19-17-15--17--12--|-14---------------15------12--|
B|-15--15--15------------|-----8---0-----15--0-----8-----------|-15---------------15------13--|
G|-16--16--16------------|-----0---16--------16-14-0---14--9---|-14---------------16------12--|
D|-----------------------|---------8-----12-----7------7-------|------------------------------|
A|-----------------------|---------------------------------7---|------------------------------|
E|-----------------------|-------------------------------------|------------------------------|


E|----------12--14--14------14--|-15--15--15------------|--------|
B|----------13--15--15------15--|-15--15--15------------|--------|
G|----------12--14--14------14--|-16--16--16------------|--------|
D|------------------------------|-----------------------|--------|
A|------------------------------|-----------------------|--------|
E|------------------------------|-----------------------|--------|





Track 6: Bass

G|--------|--------------------|--------|-------------------------------------|---------------------------|
D|--------|--------------------|--------|---------------0---------------------|---------------------------|
A|--------|----------------2---|-3------|---------2---------2--0------0-------|---------------------------|
E|--------|------------3-------|--------|-----3-------------------3-------0---|-3---3--------3---3--------|


G|------------------------------|------------------------------|---------------------------------|
D|--------------------------0---|--------------------------0---|-2---2-------------------0-------|
A|----------------------2-------|----------------------2-------|---------------------2-------2---|
E|-3---3--------3---3-----------|-3---3--------3---3-----------|-------------0---3---------------|


G|-0----------------------------|-0------------0-----------0---|-0------------------------0---|
D|------------------------------|------------------------------|------------------------------|
A|-----3--------3---3-------4---|-----5------------5-----------|------------------------------|
E|------------------------------|------------------------------|-----3--------3---3-----------|


G|-0------------0---------------|-0----------------------------|--------------------------0---|
D|------------------------------|------------------------------|------------------------------|
A|------------------------------|------------------------------|------------------------------|
E|-----3------------3-------0---|-----3--------3---3-------3---|-3---3--------3---3-----------|


G|-0------------0-------0---0---|------------------------0---0---|-0------------0-------0---0---|
D|------------------------------|-2---2--------2--2--2-----------|------------------------------|
A|------------------------------|--------------------------------|-----3------------3-----------|
E|-----3------------3-----------|-0---0--------0--0--0-----------|------------------------------|


G|-0--0---------------0---0---0---|-0-------------------------|-0---------------------0---0---0---|
D|--------------------------------|---------------------------|-------------5--2------------------|
A|-------5--------5---------------|---------------------------|-----------------------------------|
E|--------------------------------|-----3--------3---3--------|-----3-------3--0------------------|


G|-0-------------------------|---------------------12--12--12--|-----0-------0-----------0---0---|
D|-------5---5-------5-------|-----------------5---------------|---------------------------------|
A|-----------------------3---|-3---2---3-----------------------|-5-------5-----------------------|
E|---------------3-----------|-------------5-------------------|-----------------5---5-----------|


G|-0---0---0---0---0-------0---0---|-----------------|--------------------------|---------------------------|
D|---------------------------------|-5-----2---2-----|-5-----2--2--2------------|---------------------------|
A|---------------------------------|-----------------|---------------------3----|-3---------3---3---0-------|
E|---------------------5-----------|-3-----0---0-----|-3---------------3--------|-------3---------------3---|


G|---------------------------------|---------------------------------|---------------------------------|
D|---------------------------------|-----------------------------5---|-----7---7-----------------------|
A|-3---3-------0---3---0---3---4---|-5-------5-------5---6---7-------|-------------7---------------5---|
E|---------3-----------------------|-------------7-------------------|-----------------5---7---7-------|


G|-------------------------------------|-----------------------------------|---------------------------------|
D|-------------------------------------|-2---2---2-------------------------|-0-------0-------0---1---2-------|
A|-7---7---7------------5------5---6---|-------------2--2--------------2---|-------------2---------------0---|
E|-------------5--6--7------7----------|-------------------0---2---3-------|---------------------------------|


G|------------------------------|------------------------------|---------------------------------|
D|------------------------------|------------------------------|---------------------0---2-------|
A|-----0---0-------0---2---2----|------------------------------|-----------------2-----------2---|
E|-------------0----------------|-3---3--------3---3-------3---|-3---3-------3-------------------|


G|------------------------------|------------------------------|-----------------------|
D|-0----------------2-----------|--------------------------0---|-2---0---2-------------|
A|--------------------------0---|----------0---2---2-----------|-----------------------|
E|------------------------------|------------------------------|-----------------------|


G|--------|------------------------------|------------------------------|---------0-------------|
D|--------|-0----------------2-----------|--------------------------0---|-2---0-----------------|
A|--------|--------------------------0---|----------0---2---2-----------|-----------------------|
E|--------|------------------------------|------------------------------|-----------------------|


G|-----------------------------------|---------------------------|------------------------------|
D|-------------0---------------------|---------------------------|--------------------------0---|
A|---------2-------2--0------0-------|---------------------------|----------------------2-------|
E|-----3-----------------3-------0---|-3---3--------3---3--------|-3---3--------3---3-----------|


G|------------------------------|---------------------------------|-0----------------------------|
D|--------------------------0---|-2---2-------------------0-------|------------------------------|
A|----------------------2-------|---------------------2-------2---|-----3--------3---3-------4---|
E|-3---3--------3---3-----------|-------------0---3---------------|------------------------------|


G|-0------------0-----------0---|-0------------------------0---|-0------------0---------------|
D|------------------------------|------------------------------|------------------------------|
A|-----5------------5-----------|------------------------------|------------------------------|
E|------------------------------|-----3--------3---3-----------|-----3------------3-------0---|


G|-0----------------------------|--------------------------0---|-0------------0-------0---0---|
D|------------------------------|------------------------------|------------------------------|
A|------------------------------|------------------------------|------------------------------|
E|-----3--------3---3-------3---|-3---3--------3---3-----------|-----3------------3-----------|


G|----------------------0---0---|-0------------0-------0---0---|-0----------------0---0---0---|
D|-2---2--------2---2-----------|------------------------------|------------------------------|
A|------------------------------|-----3------------3-----------|-----5--------5---------------|
E|-0---0--------0---0-----------|------------------------------|------------------------------|


G|-0-------------------------|-0---------------------0---0---0---|-0-----0---0-------0-------|
D|---------------------------|-------------5--2--0---------------|---------------------------|
A|---------------------------|-----------------------------------|-----------------------3---|
E|-----3--------3---3--------|-----3-------3--0------------------|---------------3-----------|


G|---------------------------------|-----0-------0-----------0---0---|-0---0---0---0---0-------0---0---|
D|-----------------5---5---5---5---|---------------------------------|---------------------------------|
A|-3---3---3---0-------------------|-5-------5-----------------------|---------------------------------|
E|---------------------------------|-----------------5---5-----------|---------------------5-----------|


G|-----------------|------------------------|---------------------------|---------------------------------|
D|-5-----2---2-----|-5-----2---2------------|---------------------------|---------------------------------|
A|-----------------|-------------------3----|-3---------3---3---0-------|-3---3-------0---3---0---3---4---|
E|-3-----0---0-----|-3-------------3--------|-------3---------------3---|---------3-----------------------|


G|---------------------------------|---------------------------------|-------------------------------------|
D|-----------------------------5---|-----7---7-----------------------|-------------------------------------|
A|-5-------5-------5---6---7-------|-------------7---------------5---|-7---7---7------------5------5---6---|
E|-------------7-------------------|-----------------5---7---7-------|-------------5--6--7------7----------|


G|-----------------------------------|---------------------------------|------------------------------|
D|-----------------------------------|-0-------0-------0---1---2-------|------------------------------|
A|-7---7---7---------------------2---|-------------2---------------0---|-----0---0-------0---2---2----|
E|-------------7--7--0---2---3-------|---------------------------------|-------------0----------------|


G|-------------0---------------0---|-------------0-------0---0---0---|-----------------------------0---|
D|-5---5-----------5---5---2-------|-5---5---2-------2---------------|-----------------5---5---2-------|
A|---------------------------------|---------------------------------|-------------5-------------------|
E|-3---3-----------3---3---0-------|-3---3---0-------0---------------|-3---3-----------3---3---0-------|


G|---------0---0-------0-----------|------------------------------|------------------------------|
D|-5---------------5---------------|-0----------------2-----------|--------------------------0---|
A|-----2-------------------2---3---|--------------------------0---|----------0---2---2-----------|
E|-3---------------3---------------|------------------------------|------------------------------|


G|-----------------------|--------|------------------------------|------------------------------|
D|-2---0---2-------------|--------|-0----------------2-----------|--------------------------0---|
A|-----------------------|--------|--------------------------0---|----------0---2---2-----------|
E|-----------------------|--------|------------------------------|------------------------------|


G|-----------------------|--------|------------------------------|------------------------------|
D|-2---0---2-------------|--------|------------------------------|------------------------------|
A|-----------------------|--------|-5----------------7-----------|--------------------------5---|
E|-----------------------|--------|--------------------------5---|----------5---7---7-----------|


G|-----------------------|-----------------------|-------------6---|--------|-----------------|
D|-----------------------|-----------------------|-----------------|--------|-----------------|
A|-7---5---7-------------|---------------1---2---|-3-----3-----4---|-4------|-5---------------|
E|-----------------------|-----------3-----------|-----------------|--------|-----------------|


G|--------------------|------------------------------|------------------------------|
D|--------------------|------------------------------|------------------------------|
A|--------------------|------------------------------|------------------------------|
E|----------------1---|-3---3--------3---3-------1---|-3---3--------3---3-------1---|


G|------------------------------|------------------------------|---------------------------------|
D|------------------------------|------------------------------|---------------------------------|
A|------------------------------|------------------------------|---------------------------------|
E|-3---3--------3---3-------2---|-3---3--------3---2---3---4---|-5-------5---0---5---0---5---6---|


G|---------------------------------|---------------------------------|---------7-------------------------|
D|---------------------------------|---------------------------------|-----7-------7--7--0---1---4-------|
A|-------------------------5---6---|-7-------7---5---7---5-------5---|-5-----------------------------2---|
E|-7---5---7-------7---7-----------|-------------------------7-------|-----------------------------------|


G|---------------------------------|---------------------------------|---------------------------------|
D|---------------------------------|-------------------------0---1---|-2-------2---0---2---0-------0---|
A|-0-------0-------0-------0---1---|-2---0---2-------2---2-----------|-------------------------2-------|
E|-------------0-------0-----------|---------------------------------|---------------------------------|


G|-0-----------------0---0-------0---|-0---0---0---0---0---0-------0---|--------------0---0--------|
D|---------0-------------------------|---------------------------------|---------------------------|
A|-----0-------0--0------------------|---------------------------------|---------------------------|
E|---------------------------0-------|-------------------------0-------|-3---3---------------------|


G|-----------------------------------|-0---0-------------------------------|-------------------------------------|
D|---------------------0---2---0--2--|-------------2--1--0---0---0---------|---------------0---------------------|
A|-----------------2-----------------|------------------------------2--0---|---------2---------2--0------0-------|
E|-3---3-------3---------------------|-------------------------------------|-----3-------------------3-------0---|


G|---------------------------|------------------------------|------------------------------|
D|---------------------------|--------------------------0---|--------------------------0---|
A|---------------------------|----------------------2-------|----------------------2-------|
E|-3---3--------3---3--------|-3---3--------3---3-----------|-3---3--------3---3-----------|


G|---------------------------------|-0----------------------------|-0------------0-----------0---|
D|-2---2-------------------0-------|------------------------------|------------------------------|
A|---------------------2-------2---|-----3--------3---3-------4---|-----5------------5-----------|
E|-------------0---3---------------|------------------------------|------------------------------|


G|-0------------------------0---|-0------------0---------------|-0----------------------------|
D|------------------------------|------------------------------|------------------------------|
A|------------------------------|------------------------------|------------------------------|
E|-----3--------3---3-----------|-----3------------3-------0---|-----3--------3---3-------3---|


G|--------------------------0---|-0--0-----------0-------0---0---|----------------------0---0---|
D|------------------------------|--------------------------------|-2---2--------2---2-----------|
A|------------------------------|--------------------------------|------------------------------|
E|-3---3--------3---3-----------|-------3------------3-----------|-0---0--------0---0-----------|


G|-0------------0-------0---0---|-0----------------0---0---0---|-0-------------------------|
D|------------------------------|------------------------------|---------------------------|
A|-----3------------3-----------|-----5--------5---------------|---------------------------|
E|------------------------------|------------------------------|-----3--------3---3--------|


G|-0---------------------0---0---0---|-0-----0---0-------0-------|-----------------0---0---0---0---|
D|-------------5--2--0---------------|---------------------------|---------------------------------|
A|-----------------------------------|-----------------------3---|-3---3---3---0-------------------|
E|-----3-------3--0------------------|---------------3-----------|---------------------------------|


G|-----0-------0-----------0---0---|-0---0---0---0---0-------0---0---|-----------------|
D|---------------------------------|---------------------------------|-5-----2---2-----|
A|-5-------5-----------------------|---------------------------------|-----------------|
E|-----------------5---5-----------|---------------------5-----------|-3-----0---0-----|


G|------------------------|---------------------------|---------------------------------|
D|-5-----2---2------------|---------------------------|---------------------------------|
A|-------------------3----|-3---------3---3---0-------|-3---3-------0---3---0---3---4---|
E|-3-------------3--------|-------3---------------3---|---------3-----------------------|


G|---------------------------------|---------------------------------|-------------------------------------|
D|-----------------------------5---|-----7---7-----------------------|-----------------------------0---1---|
A|-5-------5-------5---6---7-------|-------------7---------------5---|-7---7---7------------5--------------|
E|-------------7-------------------|-----------------5---7---7-------|-------------5--6--7------7----------|


G|-----------------------------------|---------------------------------|------------------------------|
D|-2---2---2-------------------------|-0-------0-------0---1---2-------|------------------------------|
A|-------------2--2--------------2---|-------------2---------------0---|-----0---0-------0---2---2----|
E|-------------------0---2---3-------|---------------------------------|-------------0----------------|


G|---------------------------------|-------------------------------------|---------------------------------|
D|-5-----------5---5---5-----------|-------------2-----------------------|---------------------------------|
A|---------------------------------|----------------3--2---3---2---2--0--|---------------------------------|
E|-3---3-----------------------3---|-3---3-------------------------------|-3---3-------3---3---3-------3---|


G|-----------------------------------|---------------------------------|---------------------------------|
D|-------------5---------------------|-------------5---------------5---|-------------5---------------5---|
A|----------------7--5---5-----------|---------------------------------|---------------------------------|
E|-3---3---------------------7---5---|-3---3-----------3---3-----------|-3---3-----------3---3-----------|


G|---------------------------------|-----------------------------------|------------------------------|
D|-------------5---------------5---|-------------5---------------------|------------------------------|
A|---------------------------------|----------------7--5---------------|-5----------------7-----------|
E|-3---3-----------3---3-----------|-3---3-----------------7---5-------|--------------------------5---|


G|------------------------------|-----------------------|--------|------------------------------|
D|------------------------------|-----------------------|--------|------------------------------|
A|--------------------------5---|-7---5---7-------------|--------|-5----------------7-----------|
E|----------5---7---7-----------|-----------------------|--------|--------------------------5---|


G|------------------------------|-----------------------|--------|------------------------------|
D|------------------------------|-----------------------|--------|------------------------------|
A|--------------------------5---|-7---5---7-------------|--------|-5----------------7-----------|
E|----------5---7---7-----------|-----------------------|--------|--------------------------5---|


G|------------------------------|-----------------------|--------|------------------------------|
D|------------------------------|-----------------------|--------|------------------------------|
A|--------------------------5---|-7---5---7-------------|--------|-5----------------7-----------|
E|----------5---7---7-----------|-----------------------|--------|--------------------------5---|


G|------------------------------|-----------------------|--------|------------------------------|
D|------------------------------|-----------------------|--------|------------------------------|
A|--------------------------5---|-7---5---7-------------|--------|-5----------------7-----------|
E|----------5---7---7-----------|-----------------------|--------|--------------------------5---|


G|------------------------------|-----------------------|--------|------------------------------|
D|------------------------------|-----------------------|--------|------------------------------|
A|--------------------------5---|-7---5---7-------------|--------|-5----------------7-----------|
E|----------5---7---7-----------|-----------------------|--------|--------------------------5---|


G|------------------------------|-----------------------|--------|------------------------------|
D|------------------------------|-----------------------|--------|------------------------------|
A|--------------------------5---|-7---5---7-------------|--------|-5----------------7-----------|
E|----------5---7---7-----------|-----------------------|--------|--------------------------5---|


G|------------------------------|-----------------------|--------|------------------------------|
D|------------------------------|-----------------------|--------|------------------------------|
A|--------------------------5---|-7---5---7-------------|--------|-5----------------7-----------|
E|----------5---7---7-----------|-----------------------|--------|--------------------------5---|


G|------------------------------|-----------------------|--------|
D|------------------------------|-----------------------|--------|
A|--------------------------5---|-7---5---7-------------|--------|
E|----------5---7---7-----------|-----------------------|--------|





Track 7: Bar sax

E|--------|--------|--------|--------|--------|--------|--------|--------|--------|
B|--------|--------|--------|--------|--------|--------|--------|--------|--------|
G|--------|--------|--------|--------|--------|--------|--------|--------|--------|
D|--------|--------|--------|--------|--------|--------|--------|--------|--------|
A|--------|--------|--------|--------|--------|--------|--------|--------|--------|
E|--------|--------|--------|--------|--------|--------|--------|--------|--------|
C|--------|--------|--------|--------|--------|--------|--------|--------|--------|


E|--------|--------|--------|--------|--------|--------|--------|--------|--------|
B|--------|--------|--------|--------|--------|--------|--------|--------|--------|
G|--------|--------|--------|--------|--------|--------|--------|--------|--------|
D|--------|--------|--------|--------|--------|--------|--------|--------|--------|
A|--------|--------|--------|--------|--------|--------|--------|--------|--------|
E|--------|--------|--------|--------|--------|--------|--------|--------|--------|
C|--------|--------|--------|--------|--------|--------|--------|--------|--------|


E|--------|--------|--------|--------|--------|--------|--------|--------|--------|
B|--------|--------|--------|--------|--------|--------|--------|--------|--------|
G|--------|--------|--------|--------|--------|--------|--------|--------|--------|
D|--------|--------|--------|--------|--------|--------|--------|--------|--------|
A|--------|--------|--------|--------|--------|--------|--------|--------|--------|
E|--------|--------|--------|--------|--------|--------|--------|--------|--------|
C|--------|--------|--------|--------|--------|--------|--------|--------|--------|


E|--------|--------|--------|--------|--------|--------|--------|--------|--------|
B|--------|--------|--------|--------|--------|--------|--------|--------|--------|
G|--------|--------|--------|--------|--------|--------|--------|--------|--------|
D|--------|--------|--------|--------|--------|--------|--------|--------|--------|
A|--------|--------|--------|--------|--------|--------|--------|--------|--------|
E|--------|--------|--------|--------|--------|--------|--------|--------|--------|
C|--------|--------|--------|--------|--------|--------|--------|--------|--------|


E|--------|--------|--------|--------|--------|--------|--------|--------|--------|
B|--------|--------|--------|--------|--------|--------|--------|--------|--------|
G|--------|--------|--------|--------|--------|--------|--------|--------|--------|
D|--------|--------|--------|--------|--------|--------|--------|--------|--------|
A|--------|--------|--------|--------|--------|--------|--------|--------|--------|
E|--------|--------|--------|--------|--------|--------|--------|--------|--------|
C|--------|--------|--------|--------|--------|--------|--------|--------|--------|


E|--------|--------|--------|--------|--------|--------|--------|--------|--------|
B|--------|--------|--------|--------|--------|--------|--------|--------|--------|
G|--------|--------|--------|--------|--------|--------|--------|--------|--------|
D|--------|--------|--------|--------|--------|--------|--------|--------|--------|
A|--------|--------|--------|--------|--------|--------|--------|--------|--------|
E|--------|--------|--------|--------|--------|--------|--------|--------|--------|
C|--------|--------|--------|--------|--------|--------|--------|--------|--------|


E|--------|--------|--------|--------|--------|--------|--------|--------|--------|
B|--------|--------|--------|--------|--------|--------|--------|--------|--------|
G|--------|--------|--------|--------|--------|--------|--------|--------|--------|
D|--------|--------|--------|--------|--------|--------|--------|--------|--------|
A|--------|--------|--------|--------|--------|--------|--------|--------|--------|
E|--------|--------|--------|--------|--------|--------|--------|--------|--------|
C|--------|--------|--------|--------|--------|--------|--------|--------|--------|


E|--------|--------|--------|--------|--------|--------|--------|--------|--------|
B|--------|--------|--------|--------|--------|--------|--------|--------|--------|
G|--------|--------|--------|--------|--------|--------|--------|--------|--------|
D|--------|--------|--------|--------|--------|--------|--------|--------|--------|
A|--------|--------|--------|--------|--------|--------|--------|--------|--------|
E|--------|--------|--------|--------|--------|--------|--------|--------|--------|
C|--------|--------|--------|--------|--------|--------|--------|--------|--------|


E|--------|--------|--------|--------|--------|--------|--------|--------|--------|
B|--------|--------|--------|--------|--------|--------|--------|--------|--------|
G|--------|--------|--------|--------|--------|--------|--------|--------|--------|
D|--------|--------|--------|--------|--------|--------|--------|--------|--------|
A|--------|--------|--------|--------|--------|--------|--------|--------|--------|
E|--------|--------|--------|--------|--------|--------|--------|--------|--------|
C|--------|--------|--------|--------|--------|--------|--------|--------|--------|


E|--------|--------|--------|--------|--------|--------|--------|--------|--------|
B|--------|--------|--------|--------|--------|--------|--------|--------|--------|
G|--------|--------|--------|--------|--------|--------|--------|--------|--------|
D|--------|--------|--------|--------|--------|--------|--------|--------|--------|
A|--------|--------|--------|--------|--------|--------|--------|--------|--------|
E|--------|--------|--------|--------|--------|--------|--------|--------|--------|
C|--------|--------|--------|--------|--------|--------|--------|--------|--------|


E|--------|--------|--------|--------------------|-----------------------------|---------------------------|
B|--------|--------|--------|--------------------|-----------------------------|---------------------------|
G|--------|--------|--------|--------------------|-----------------------------|---------------------------|
D|--------|--------|--------|--------------------|-----------------------------|---------------------------|
A|--------|--------|--------|----------------9---|-9--10-------------------9---|-10--------------------9---|
E|--------|--------|--------|--------------------|-----------------------------|---------------------------|
C|--------|--------|--------|--------------------|-----------------------------|---------------------------|


E|-----------------------------|------------------------------------|---------------------------------------------|
B|-----------------------------|------------------------------------|---------------------------------------6-----|
G|-----------------------------|------------------------------------|-4---5-----5---4-----4--5--5-----7-----9-----|
D|-----------------------------|-5---5---------5-----------------5--|---------------------------------------------|
A|-10--------------------9-----|------------------------------------|---------------------------------------------|
E|-----------------------------|------------------------------------|---------------------------------------------|
C|-----------------------------|------------------------------------|---------------------------------------------|


E|-----------------------------------|---------------------------------|--------------------|
B|-----8---8---7-----8---8---7---5---|-5-------5-------5---3-------3---|-3------------------|
G|-9---------------------------------|-------------------------4-------|--------------------|
D|-----------------------------------|---------------------------------|--------------------|
A|-----------------------------------|---------------------------------|--------------------|
E|-----------------------------------|---------------------------------|--------------------|
C|-----------------------------------|---------------------------------|--------------------|


E|---------------------------------|--------------------------------|-----------------------------------|
B|---------------------3---3---5---|-7---8---8---7---7------8--7----|-5-------5---------5-----------3---|
G|-4---5---5---4---5---------------|--------------------------------|-----------------------------------|
D|---------------------------------|--------------------------------|-----------------------------------|
A|---------------------------------|--------------------------------|-----------------------------------|
E|---------------------------------|--------------------------------|-----------------------------------|
C|---------------------------------|--------------------------------|-----------------------------------|


E|-----------------|--------------------|----------------------|--------------------|
B|-3---------------|--------------------|----------------------|--------------------|
G|-----------------|--------------------|----------------------|--------------------|
D|-----------------|----------------4---|-5--5-----------------|--------------------|
A|-----------------|--------------------|----------------------|----------------7---|
E|-----------------|--------------------|----------------------|--------------------|
C|-----------------|--------------------|----------------------|--------------------|


E|--------------------|-----------------------------------------|--------------------|
B|--------------------|------------------3----------------------|--------------------|
G|--------------------|-----0-----2--4------4--2--0-----2-------|-0------------------|
D|-5------------------|-----3---------------------3---------2---|--------------------|
A|--------------------|-----------------------------------------|--------------------|
E|--------------------|-----------------------------------------|--------------------|
C|--------------------|-----------------------------------------|--------------------|


E|--------|--------|--------|--------|--------|--------|--------|--------|--------|
B|--------|--------|--------|--------|--------|--------|--------|--------|--------|
G|--------|--------|--------|--------|--------|--------|--------|--------|--------|
D|--------|--------|--------|--------|--------|--------|--------|--------|--------|
A|--------|--------|--------|--------|--------|--------|--------|--------|--------|
E|--------|--------|--------|--------|--------|--------|--------|--------|--------|
C|--------|--------|--------|--------|--------|--------|--------|--------|--------|


E|--------|--------|--------|--------|--------|--------|--------|--------|--------|
B|--------|--------|--------|--------|--------|--------|--------|--------|--------|
G|--------|--------|--------|--------|--------|--------|--------|--------|--------|
D|--------|--------|--------|--------|--------|--------|--------|--------|--------|
A|--------|--------|--------|--------|--------|--------|--------|--------|--------|
E|--------|--------|--------|--------|--------|--------|--------|--------|--------|
C|--------|--------|--------|--------|--------|--------|--------|--------|--------|


E|--------|--------|--------|--------|--------|--------|--------|--------|--------|
B|--------|--------|--------|--------|--------|--------|--------|--------|--------|
G|--------|--------|--------|--------|--------|--------|--------|--------|--------|
D|--------|--------|--------|--------|--------|--------|--------|--------|--------|
A|--------|--------|--------|--------|--------|--------|--------|--------|--------|
E|--------|--------|--------|--------|--------|--------|--------|--------|--------|
C|--------|--------|--------|--------|--------|--------|--------|--------|--------|


E|--------|--------|--------|----------------------|--------|------------------|--------|
B|--------|--------|--------|----------------------|--------|------------------|--------|
G|--------|--------|--------|----------------------|--------|------------------|--------|
D|--------|--------|-5------|-5-----5----5---------|-5------|-5----------4-----|-5------|
A|--------|--------|--------|----------------------|--------|------------------|--------|
E|--------|--------|--------|----------------------|--------|------------------|--------|
C|--------|--------|--------|----------------------|--------|------------------|--------|


E|-----------------|--------|--------------------|--------|--------|--------|--------|
B|-----------------|--------|--------------------|--------|--------|--------|--------|
G|-----------------|--------|--------------------|--------|--------|--------|--------|
D|-5-----5---------|-5------|-5-----5------------|--------|--------|--------|--------|
A|-----------------|--------|--------------------|--------|--------|--------|--------|
E|-----------------|--------|--------------------|--------|--------|--------|--------|
C|-----------------|--------|--------------------|--------|--------|--------|--------|


E|--------|--------|--------|--------|--------|--------|--------|--------|--------|
B|--------|--------|--------|--------|--------|--------|--------|--------|--------|
G|--------|--------|--------|--------|--------|--------|--------|--------|--------|
D|--------|--------|--------|--------|--------|--------|--------|--------|--------|
A|--------|--------|--------|--------|--------|--------|--------|--------|--------|
E|--------|--------|--------|--------|--------|--------|--------|--------|--------|
C|--------|--------|--------|--------|--------|--------|--------|--------|--------|


E|--------|--------|--------|--------|--------|--------|--------|--------|--------|
B|--------|--------|--------|--------|--------|--------|--------|--------|--------|
G|--------|--------|--------|--------|--------|--------|--------|--------|--------|
D|--------|--------|--------|--------|--------|--------|--------|--------|--------|
A|--------|--------|--------|--------|--------|--------|--------|--------|--------|
E|--------|--------|--------|--------|--------|--------|--------|--------|--------|
C|--------|--------|--------|--------|--------|--------|--------|--------|--------|


E|--------|--------|--------|--------|--------|--------|--------|--------|--------|
B|--------|--------|--------|--------|--------|--------|--------|--------|--------|
G|--------|--------|--------|--------|--------|--------|--------|--------|--------|
D|--------|--------|--------|--------|--------|--------|--------|--------|--------|
A|--------|--------|--------|--------|--------|--------|--------|--------|--------|
E|--------|--------|--------|--------|--------|--------|--------|--------|--------|
C|--------|--------|--------|--------|--------|--------|--------|--------|--------|


E|--------|
B|--------|
G|--------|
D|--------|
A|--------|
E|--------|
C|--------|