Site menu:

    

Browse: 0-9 A B C D E F G H I J K L N O P Q R S T U V W X Y Z

steely dan - kid charlemagne:



Title: Kid Charlemagne
Artist: 
Album: The Royal Scam
Author: Donald Fagan and Walter Becker


Track 1: rhythm guitar

E|--------|--------|--------|--------|------5--5---------5--5---------------|---------3--3----------------3--3--3-----|
B|--------|--------|--------|--------|------5--5---------5--5---------------|---------5--5----------------5--5--5-----|
G|--------|--------|--------|--------|------5--5---------5--5--5--5--5--5---|-----4---4--4----------4--4--4--4--4-----|
D|--------|--------|--------|--------|------7--7---------7--7--7--7--7--7---|-----5---5--5----------5--5--5--5--5-----|
A|--------|--------|--------|--------|--------------------------------------|-----------------------------------------|
E|--------|--------|--------|--------|--------------------------------------|-----------------------------------------|


E|---------8--8------------------8--8--8-----|---------8--8------------------8--8--8-----|
B|-3---3---8--8------------------8--8--8-----|---------8--8---------8--8--8--8--8--8-----|
G|-2---2---7--7---------7--7--7--7--7--7-----|-7---7---7--7---------7--7--7--7--7--7-----|
D|---------7--7---------7--7--7--7--7--7-----|-6---6---6--6---------6--6--6--6--6--6-----|
A|-------------------------------------------|-------------------------------------------|
E|-------------------------------------------|-------------------------------------------|


E|------5--5------5--5--5--5--5--5--5-----|-----3---3--3-----------------3--3--3--3-----|
B|------5--5------5--5--5--5--5--5--5-----|-----5---5--5--------------5--5--5--5--5-----|
G|------5--5------5--5--5--5--5--5--5-----|-----4---4--4-----4-----4--4--4--4--4--4-----|
D|------7--7------7--7--7--7--7--7--7-----|-----5---5--5-----5-----5--5--5--5--5--5-----|
A|----------------------------------------|---------------------------------------------|
E|----------------------------------------|---------------------------------------------|


E|---------8--8------------------8--8--8-----|---------8--8---------------8--8--8--8--8--|
B|-----3---8--8------------------8--8--8-----|---------8--8------------8--8--8--8--8--8--|
G|-----2---7--7---------7--7--7--7--7--7-----|-----7---7--7------7--7--7--7--7--7--7--7--|
D|---------7--7---------7--7--7--7--7--7-----|-----6---6--6------6--6--6--6--6--6--6--6--|
A|-------------------------------------------|-------------------------------------------|
E|-------------------------------------------|-------------------------------------------|


E|---------3------3--3----3--3---3--|-3--3--3--3---------3-----3--3---3---3---|-----------------|
B|---------3---5--3--3----3--3---3--|-3--5--5--5---------5--5--5--5---5---5---|-1---------------|
G|-7-------4---5--4--4----4--4---4--|-4--5--5--5------5--4--4--4--4---4---4---|-2-----9---7-----|
D|-6-------------------------5---5--|-----------------7--------5--5---5---5---|-3-----9---7-----|
A|----------------------------------|-----------------------------------------|-------10--8-----|
E|----------------------------------|-----------------------------------------|-----------------|


E|-----------8------7--7-------|--------|--------|------5--5---------5--5---------------|
B|-3-----5---8------8--8---10--|--------|--------|------5--5---------5--5---------------|
G|-4-----5---5------7--7---7---|--------|--------|------5--5---------5--5--5--5--5--5---|
D|-5-----7---7------7------7---|--------|--------|------7--7---------7--7--7--7--7--7---|
A|-----------------------------|--------|--------|--------------------------------------|
E|-----------------------------|--------|--------|--------------------------------------|


E|---------3--3----------------3--3--3-----|---------8--8------------------8--8--8-----|
B|---------5--5----------------5--5--5-----|-3---3---8--8------------------8--8--8-----|
G|-----4---4--4----------4--4--4--4--4-----|-2---2---7--7---------7--7--7--7--7--7-----|
D|-----5---5--5----------5--5--5--5--5-----|---------7--7---------7--7--7--7--7--7-----|
A|-----------------------------------------|-------------------------------------------|
E|-----------------------------------------|-------------------------------------------|


E|---------8--8------------------8--8--8-----|------5--5------5--5--5--5--5--5--5-----|
B|---------8--8---------8--8--8--8--8--8-----|------5--5------5--5--5--5--5--5--5-----|
G|-7---7---7--7---------7--7--7--7--7--7-----|------5--5------5--5--5--5--5--5--5-----|
D|-6---6---6--6---------6--6--6--6--6--6-----|------7--7------7--7--7--7--7--7--7-----|
A|-------------------------------------------|----------------------------------------|
E|-------------------------------------------|----------------------------------------|


E|-----3---3--3-----------------3--3--3--3-----|---------8--8------------------8--8--8-----|
B|-----5---5--5--------------5--5--5--5--5-----|-----3---8--8------------------8--8--8-----|
G|-----4---4--4-----4-----4--4--4--4--4--4-----|-----2---7--7---------7--7--7--7--7--7-----|
D|-----5---5--5-----5-----5--5--5--5--5--5-----|---------7--7---------7--7--7--7--7--7-----|
A|---------------------------------------------|-------------------------------------------|
E|---------------------------------------------|-------------------------------------------|


E|---------8--8---------------8--8--8--8--8--|---------3------3--3----3--3---3--|-3--3--3--3---------3-----3--3---3---3---|
B|---------8--8------------8--8--8--8--8--8--|---------3---5--3--3----3--3---3--|-3--5--5--5---------5--5--5--5---5---5---|
G|-----7---7--7------7--7--7--7--7--7--7--7--|-7-------4---5--4--4----4--4---4--|-4--5--5--5------5--4--4--4--4---4---4---|
D|-----6---6--6------6--6--6--6--6--6--6--6--|-6-------------------------5---5--|-----------------7--------5--5---5---5---|
A|-------------------------------------------|----------------------------------|-----------------------------------------|
E|-------------------------------------------|----------------------------------|-----------------------------------------|


E|-----------------|-----------8------7--7-------|------5--5-----7--7-----|------5--5-----7-----7-----7-----7--7---|
B|-1---------------|-3-----5---8------8--8---10--|------6--6-----8--8-----|------6--6-----8-----8-----8-----8--8---|
G|-2-----9---7-----|-4-----5---5------7--7---7---|------5--5-----7--7-----|------5--5-----7-----7-----7-----7--7---|
D|-3-----9---7-----|-5-----7---7------7------7---|------7--7-----9--9-----|------7--7-----9-----9-----9-----9--9---|
A|-------10--8-----|-----------------------------|------------------------|----------------------------------------|
E|-----------------|-----------------------------|------------------------|----------------------------------------|


E|------5--5-----7--7---7---7---7--8--|-------------------------------------------|
B|------6--6-----8--8---8---8---8--10-|-------------------------------------------|
G|------5--5-----7--7---7---7---7--8--|-----8------8-----10-10-------10----10-----|
D|------------------------------------|-----7------7--5--9--9--10-10-9-----9--8---|
A|------------------------------------|-------------------------------------------|
E|------------------------------------|-------------------------------------------|


E|----------------|----------------|------5--5---------5--5---------------|---------3--3----------------3--3--3-----|
B|----------------|----------------|------5--5---------5--5---------------|---------5--5----------------5--5--5-----|
G|----------------|----------------|------5--5---------5--5--5--5--5--5---|-----4---4--4----------4--4--4--4--4-----|
D|-8--10---10-----|-8--10---10-----|------7--7---------7--7--7--7--7--7---|-----5---5--5----------5--5--5--5--5-----|
A|----------------|----------------|--------------------------------------|-----------------------------------------|
E|-6--8----8------|-6--8----8------|--------------------------------------|-----------------------------------------|


E|---------8--8------------------8--8--8-----|---------8--8------------------8--8--8-----|
B|-3---3---8--8------------------8--8--8-----|---------8--8---------8--8--8--8--8--8-----|
G|-2---2---7--7---------7--7--7--7--7--7-----|-7---7---7--7---------7--7--7--7--7--7-----|
D|---------7--7---------7--7--7--7--7--7-----|-6---6---6--6---------6--6--6--6--6--6-----|
A|-------------------------------------------|-------------------------------------------|
E|-------------------------------------------|-------------------------------------------|


E|------5--5------5--5--5--5--5--5--5-----|-------15---15---|------8--8-----8--8--8--8---8--8--8--8--|
B|------5--5------5--5--5--5--5--5--5-----|-----------------|------8--8-----8--8--8--8---8--8--8--8--|
G|------5--5------5--5--5--5--5--5--5-----|-----------------|------7--7-----7--7--7------------------|
D|------7--7------7--7--7--7--7--7--7-----|-----------------|-7--------------------------------------|
A|----------------------------------------|-----------------|----------------------------------------|
E|----------------------------------------|-----------------|----------------------------------------|


E|-8---8--8------------------------------------|--------------------|-------3--3--5--------3-----3--3--3--3--3--------|
B|-8---8--8---------------------8--8--8-----8--|--------------------|----5--5--5-----5-----5-----5--5--5--5--5--------|
G|-5---5--5------------------7-----------7-----|-5----5----4--4-----|----------------------4-----4--4--4--4--4--------|
D|-----------6--6---------6--------------------|--------------------|-------------------------------------------5--7--|
A|---------------------------------------------|--------------------|-------------------------------------------------|
E|---------------------------------------------|--------------------|-------------------------------------------------|


E|-----------------|----------------8-----10---|-8----------17--------|-----------------------------|
B|-----------------|-------8---10--------------|---------------18--18-|-18--------15-15-15-13----13-|
G|-5-----9---7-----|-7-------------------------|----------------------|-----------------------14----|
D|-----------------|---------------------------|----------------------|-----------------------------|
A|-----------------|---------------------------|----------------------|-----------------------------|
E|-----------------|---------------------------|----------------------|-----------------------------|


E|-----------------------|---------------------------------------|---------------------------------------------|
B|-15-13---13---15-15----|---------------------------------------|-----11-----11----11-11-11-11-11-11-11-11-11-|
G|-----------------------|-----8-------8------10--10-10----10-10-|-----9------9-----9--9--9--9--9--9--9--9--9--|
D|-----------------------|-----7-------7------9---9--9-----9--9--|---------------------------------------------|
A|-----------------------|---------------------------------------|---------------------------------------------|
E|-----------------------|---------------------------------------|---------------------------------------------|


E|-------------------------------------------|-----------------------------------|
B|-----11-----11----11-11-11-11-11-11-11-11--|---------8---8---8-----------------|
G|-----9------9-----9--9--9--9--9--9--9--9---|---------7---6---6---6---7--9---10-|
D|-------------------------------------------|---------8---7---7-----------------|
A|-------------------------------------------|-7----7--7-----------7---8--10--12-|
E|-------------------------------------------|-----------------------------------|


E|--------|--------|--------|--------|--------|--------|--------|--------|--------|
B|--------|--------|--------|--------|--------|--------|--------|--------|--------|
G|--------|--------|--------|--------|--------|--------|--------|--------|--------|
D|--------|--------|--------|--------|--------|--------|--------|--------|--------|
A|--------|--------|--------|--------|--------|--------|--------|--------|--------|
E|--------|--------|--------|--------|--------|--------|--------|--------|--------|


E|--------|--------|--------|--------|--------|--------|--------|--------|--------|
B|--------|--------|--------|--------|--------|--------|--------|--------|--------|
G|--------|--------|--------|--------|--------|--------|--------|--------|--------|
D|--------|--------|--------|--------|--------|--------|--------|--------|--------|
A|--------|--------|--------|--------|--------|--------|--------|--------|--------|
E|--------|--------|--------|--------|--------|--------|--------|--------|--------|


E|--------|--------|--------|--------|--------|--------|--------|--------|--------|
B|--------|--------|--------|--------|--------|--------|--------|--------|--------|
G|--------|--------|--------|--------|--------|--------|--------|--------|--------|
D|--------|--------|--------|--------|--------|--------|--------|--------|--------|
A|--------|--------|--------|--------|--------|--------|--------|--------|--------|
E|--------|--------|--------|--------|--------|--------|--------|--------|--------|


E|--------|--------|--------|--------|--------|--------|--------|--------|--------|
B|--------|--------|--------|--------|--------|--------|--------|--------|--------|
G|--------|--------|--------|--------|--------|--------|--------|--------|--------|
D|--------|--------|--------|--------|--------|--------|--------|--------|--------|
A|--------|--------|--------|--------|--------|--------|--------|--------|--------|
E|--------|--------|--------|--------|--------|--------|--------|--------|--------|


E|--------|--------|--------|--------|--------|--------|--------|--------|--------|
B|--------|--------|--------|--------|--------|--------|--------|--------|--------|
G|--------|--------|--------|--------|--------|--------|--------|--------|--------|
D|--------|--------|--------|--------|--------|--------|--------|--------|--------|
A|--------|--------|--------|--------|--------|--------|--------|--------|--------|
E|--------|--------|--------|--------|--------|--------|--------|--------|--------|


E|--------|--------|--------|--------|--------|--------|--------|--------|--------|
B|--------|--------|--------|--------|--------|--------|--------|--------|--------|
G|--------|--------|--------|--------|--------|--------|--------|--------|--------|
D|--------|--------|--------|--------|--------|--------|--------|--------|--------|
A|--------|--------|--------|--------|--------|--------|--------|--------|--------|
E|--------|--------|--------|--------|--------|--------|--------|--------|--------|


E|--------|--------|--------|--------|
B|--------|--------|--------|--------|
G|--------|--------|--------|--------|
D|--------|--------|--------|--------|
A|--------|--------|--------|--------|
E|--------|--------|--------|--------|





Track 2: Larry Carlton

E|--------|--------|--------|--------|--------|--------|--------|--------|--------|
B|--------|--------|--------|--------|--------|--------|--------|--------|--------|
G|--------|--------|--------|--------|--------|--------|--------|--------|--------|
D|--------|--------|--------|--------|--------|--------|--------|--------|--------|
A|--------|--------|--------|--------|--------|--------|--------|--------|--------|
E|--------|--------|--------|--------|--------|--------|--------|--------|--------|


E|--------|--------|--------|--------|--------|--------|--------|--------|--------|
B|--------|--------|--------|--------|--------|--------|--------|--------|--------|
G|--------|--------|--------|--------|--------|--------|--------|--------|--------|
D|--------|--------|--------|--------|--------|--------|--------|--------|--------|
A|--------|--------|--------|--------|--------|--------|--------|--------|--------|
E|--------|--------|--------|--------|--------|--------|--------|--------|--------|


E|--------|--------|--------|--------|--------|--------|--------|--------|--------|
B|--------|--------|--------|--------|--------|--------|--------|--------|--------|
G|--------|--------|--------|--------|--------|--------|--------|--------|--------|
D|--------|--------|--------|--------|--------|--------|--------|--------|--------|
A|--------|--------|--------|--------|--------|--------|--------|--------|--------|
E|--------|--------|--------|--------|--------|--------|--------|--------|--------|


E|--------|--------|--------|--------|--------|--------|--------|--------|--------|
B|--------|--------|--------|--------|--------|--------|--------|--------|--------|
G|--------|--------|--------|--------|--------|--------|--------|--------|--------|
D|--------|--------|--------|--------|--------|--------|--------|--------|--------|
A|--------|--------|--------|--------|--------|--------|--------|--------|--------|
E|--------|--------|--------|--------|--------|--------|--------|--------|--------|


E|--------|--------|--------|--------|--------|--------|--------|--------|--------|
B|--------|--------|--------|--------|--------|--------|--------|--------|--------|
G|--------|--------|--------|--------|--------|--------|--------|--------|--------|
D|--------|--------|--------|--------|--------|--------|--------|--------|--------|
A|--------|--------|--------|--------|--------|--------|--------|--------|--------|
E|--------|--------|--------|--------|--------|--------|--------|--------|--------|


E|--------|--------|--------|--------|--------|--------|--------|--------|--------|
B|--------|--------|--------|--------|--------|--------|--------|--------|--------|
G|--------|--------|--------|--------|--------|--------|--------|--------|--------|
D|--------|--------|--------|--------|--------|--------|--------|--------|--------|
A|--------|--------|--------|--------|--------|--------|--------|--------|--------|
E|--------|--------|--------|--------|--------|--------|--------|--------|--------|


E|--------|---------------------------------|--------|-----------------8-----10--10-8--10-8------|
B|--------|---------------------------------|--------|-----------8--10-----------------------10--|
G|--------|-----7-----7--5--------7--7--7---|-7------|-----2--9----------------------------------|
D|--------|-----------------7---------------|--------|-------------------------------------------|
A|--------|---------------------------------|--------|-------------------------------------------|
E|--------|---------------------------------|--------|-------------------------------------------|


E|-8--10-8---8-----8-------|----------10-11-14-11-14-14---14---|-------12-14--14-12-------------------------17-|
B|-------------------------|----10-13--------------------------|-12-15--------------------15-17----15----15----|
G|----------------------9--|-10--------------------------------|--------------------12-14-------14----14-------|
D|-------------------------|-----------------------------------|-----------------------------------------------|
A|-------------------------|-----------------------------------|-----------------------------------------------|
E|-------------------------|-----------------------------------|-----------------------------------------------|


E|-17------17-17-15-17--15------15----|----------------------------15-19-15-17-19-|
B|--------------------------15-----17-|----------------------15-17----------------|
G|------------------------------------|----16---16-----9--16----------------------|
D|------------------------------------|-------------------------------------------|
A|------------------------------------|-------------------------------------------|
E|------------------------------------|-------------------------------------------|


E|-14-------------------15-17--17--17--0--5--|-7---7---5---7---5--7-----------10-----|
B|----15----------15-17----------------------|-----------------------8------------8--|
G|-------16-14-16----------------------------|--------------------------9--7---------|
D|-------------------------------------------|---------------------------------------|
A|-------------------------------------------|---------------------------------------|
E|-------------------------------------------|---------------------------------------|


E|------------------------------8-----10----|-12-----8--8------10----8-----8--------------|
B|-8----8-----------8-----10----------------|-----10--------------11----9-----8-----------|
G|---------------9-----9-----9-----9-----9--|------------------------------------9--------|
D|---------5--10----------------------------|---------------------------------------10-9--|
A|------------------------------------------|---------------------------------------------|
E|------------------------------------------|---------------------------------------------|


E|-----------------------------------|-------------------------8--------|-------------------------------------|
B|-----------------------5-----------|----------8-----8------------10---|-10----------------------------------|
G|--------------------5-----5--7--5--|-------7-----7--------------------|-----9---7--9----9-----7-----9-------|
D|-8------------6--7-----------------|-7--9-----------------------------|--------------------7-----7-------7--|
A|-----------------------------------|----------------------------------|-------------------------------------|
E|-----------------------------------|----------------------------------|-------------------------------------|


E|-----------------------------------------------|----8--10----10-10-8-----------|
B|-----------------------------------------8--9--|-10-------------------11-11----|
G|-7-----9---9-----------------9--------9--------|-------------------------------|
D|----7---------------7--8--9-----9--10----------|-------------------------------|
A|--------------7--10----------------------------|-------------------------------|
E|-----------------------------------------------|-------------------------------|


E|-------------|----------------------------|----------------------------------|---------------------------|
B|-------11----|------10-10-8---------------|----------------------------------|---------------------------|
G|-------------|---------------8--8---8-----|-8--------7---7---7---------7--7--|-7----7--5--7--5--5--5-----|
D|-------------|----------------------------|----------------------------------|---------------------------|
A|-------------|----------------------------|----------------------------------|---------------------------|
E|-------------|----------------------------|----------------------------------|---------------------------|


E|--------------------|---------------------------------|---------------------------------|
B|--------------------|---------------------------------|---------------------------------|
G|-----------------7--|-----7---------5--5--5-----------|------------------------7--6--5--|
D|--------------------|---------5--7--------------------|----3----------------------------|
A|--------------------|------------------------------3--|-5-------------------------------|
E|--------------------|---------------------------------|---------------------------------|


E|----------------------------------|--------------------|---------------------------------|
B|----------------------------------|-------8------------|----------------6--8--6--8-------|
G|------------------------5----5----|-------7--9----9----|------7--9--7---5--7--5--7--5----|
D|-3---5---6--5--3------------------|-------9------------|------7--9--7---5--7--5--7--5----|
A|------------------5--7------------|--------------------|---------------------------------|
E|----------------------------------|--------------------|---------------------------------|


E|-----------------|------------------------------------|--------------------8---|
B|-----------------|-----8-----8--8--8--8---------------|---------------8--------|
G|-----------------|--------7--7--7--7--7---------------|------------------------|
D|-----------------|-----------6--6--6--6--7----7----9--|-9----------------------|
A|-----------------|------------------------------------|------------------------|
E|-----------------|------------------------------------|------------------------|


E|-----------------------|-----------------|-----------------------------|----------------------|
B|-8---------------------|-------------8---|-----------------------------|---------13--13-13----|
G|----7--7-----5-----9---|-7-----7---------|-7------7--7-----5--7--5-----|------14--------------|
D|-----------------------|-----------------|--------------7--------------|----------------------|
A|-----------------------|-----------------|-----------------------------|----------------------|
E|-----------------------|-----------------|-----------------------------|----------------------|


E|-----------------------------|-----------------|--------|--------|--------------------|
B|------17--17--15-15-13--13---|-----------------|--------|--------|-------10---10---8--|
G|-----------------------------|-----------------|--------|--------|-------12---12---10-|
D|-----------------------------|-----------------|--------|--------|--------------------|
A|-----------------------------|-----------------|--------|--------|--------------------|
E|-----------------------------|-----------------|--------|--------|--------------------|


E|--------------------------------------|---------------------------|------------------------------------|
B|-8----8----6-----6-----6-----8-----4--|-4--------10--10---10---8--|-8----8----6-----6-----6-----8------|
G|-10---10------------------------------|----------12--12---12---10-|-10---10-------------------------8--|
D|--------------------------------------|---------------------------|------------------------------------|
A|--------------------------------------|---------------------------|------------------------------------|
E|--------------------------------------|---------------------------|------------------------------------|


E|-------------8-------8----8--------8--|-8----8------10-10--10--10-8-----8--|-8-------------8--8--8-------8---11-|
B|----8--10-------11-----------10-------|---------10-------------------10----|-----10--8--10------------10--------|
G|-9------------------------------------|------------------------------------|------------------------------------|
D|--------------------------------------|------------------------------------|------------------------------------|
A|--------------------------------------|------------------------------------|------------------------------------|
E|--------------------------------------|------------------------------------|------------------------------------|


E|----11--11----10----8-----8-------8---16-|-16---15-14-13---------13-14-15----|---------------18-18---15-16-17----|
B|-------------------------------10--------|---------------16-16------------13-|-13------13-13------------------16-|
G|-----------------------------------------|-----------------------------------|------14---------------------------|
D|-----------------------------------------|-----------------------------------|-----------------------------------|
A|-----------------------------------------|-----------------------------------|-----------------------------------|
E|-----------------------------------------|-----------------------------------|-----------------------------------|


E|----15-17-------------------------------|----20----------------------------------|
B|-17----------------------------------20-|-20-----20-20---18-19-20----------------|
G|----------17----------17-17-------------|-------------------------19----17-------|
D|-------------19-17-19---------19-17-----|----------------------------------19-17-|
A|----------------------------------------|----------------------------------------|
E|----------------------------------------|----------------------------------------|


E|----------------------20-20---17-20---|----20---17-20------20---17-20---|---------------------------------|
B|----------------20-22-----------------|---------------------------------|-----15----15--15-13-15----13-15-|
G|-17----19----21-----------------------|---------------------------------|------------------------14-------|
D|----17----17--------------------------|---------------------------------|---------------------------------|
A|--------------------------------------|---------------------------------|---------------------------------|
E|--------------------------------------|---------------------------------|---------------------------------|


E|---------8---11-11--11-8--10-8--------|-8--------------------8--------------------------|
B|-13---9-------------------------10-8--|----10-8--------8--8-----------------------------|
G|--------------------------------------|----------10-10----------10-10-8--------5--7--5--|
D|--------------------------------------|----------------------------------10-7-----------|
A|--------------------------------------|-------------------------------------------------|
E|--------------------------------------|-------------------------------------------------|


E|-------8--8--8------------13---13-13-------|-----15--15-15-----------18--18-18-------|
B|----8------------10-8----------------13-13-|---------------13-13---------------------|
G|-9-----------------------------------------|-----------------------------------17-17-|
D|-------------------------------------------|-----------------------------------------|
A|-------------------------------------------|-----------------------------------------|
E|-------------------------------------------|-----------------------------------------|


E|-----20--20-20-20-20-------|
B|---------------------------|
G|---------------------------|
D|---------------------------|
A|---------------------------|
E|---------------------------|





Track 3: rhythm guitar II

E|--------|--------|--------|--------|--------|--------|--------|--------|--------|
B|--------|--------|--------|--------|--------|--------|--------|--------|--------|
G|--------|--------|--------|--------|--------|--------|--------|--------|--------|
D|--------|--------|--------|--------|--------|--------|--------|--------|--------|
A|--------|--------|--------|--------|--------|--------|--------|--------|--------|
E|--------|--------|--------|--------|--------|--------|--------|--------|--------|


E|--------|--------|--------|--------|--------|--------|--------|--------|--------|
B|--------|--------|--------|--------|--------|--------|--------|--------|--------|
G|--------|--------|--------|--------|--------|--------|--------|--------|--------|
D|--------|--------|--------|--------|--------|--------|--------|--------|--------|
A|--------|--------|--------|--------|--------|--------|--------|--------|--------|
E|--------|--------|--------|--------|--------|--------|--------|--------|--------|


E|--------|--------|--------|--------|--------|--------|--------|--------|--------|
B|--------|--------|--------|--------|--------|--------|--------|--------|--------|
G|--------|--------|--------|--------|--------|--------|--------|--------|--------|
D|--------|--------|--------|--------|--------|--------|--------|--------|--------|
A|--------|--------|--------|--------|--------|--------|--------|--------|--------|
E|--------|--------|--------|--------|--------|--------|--------|--------|--------|


E|--------|--------|--------|--------|--------|--------|--------|--------|--------|
B|--------|--------|--------|--------|--------|--------|--------|--------|--------|
G|--------|--------|--------|--------|--------|--------|--------|--------|--------|
D|--------|--------|--------|--------|--------|--------|--------|--------|--------|
A|--------|--------|--------|--------|--------|--------|--------|--------|--------|
E|--------|--------|--------|--------|--------|--------|--------|--------|--------|


E|--------|--------|--------|--------|--------|--------|--------|--------|--------|
B|--------|--------|--------|--------|--------|--------|--------|--------|--------|
G|--------|--------|--------|--------|--------|--------|--------|--------|--------|
D|--------|--------|--------|--------|--------|--------|--------|--------|--------|
A|--------|--------|--------|--------|--------|--------|--------|--------|--------|
E|--------|--------|--------|--------|--------|--------|--------|--------|--------|


E|--------|--------|--------|--------|--------|--------|--------|--------|--------|
B|--------|--------|--------|--------|--------|--------|--------|--------|--------|
G|--------|--------|--------|--------|--------|--------|--------|--------|--------|
D|--------|--------|--------|--------|--------|--------|--------|--------|--------|
A|--------|--------|--------|--------|--------|--------|--------|--------|--------|
E|--------|--------|--------|--------|--------|--------|--------|--------|--------|


E|--------|--------|--------|--------|--------|--------|--------|--------|--------|
B|--------|--------|--------|--------|--------|--------|--------|--------|--------|
G|--------|--------|--------|--------|--------|--------|--------|--------|--------|
D|--------|--------|--------|--------|--------|--------|--------|--------|--------|
A|--------|--------|--------|--------|--------|--------|--------|--------|--------|
E|--------|--------|--------|--------|--------|--------|--------|--------|--------|


E|--------|--------|--------|--------|--------|--------|--------|--------|--------|
B|--------|--------|--------|--------|--------|--------|--------|--------|--------|
G|--------|--------|--------|--------|--------|--------|--------|--------|--------|
D|--------|--------|--------|--------|--------|--------|--------|--------|--------|
A|--------|--------|--------|--------|--------|--------|--------|--------|--------|
E|--------|--------|--------|--------|--------|--------|--------|--------|--------|


E|--------|--------|--------|--------|--------|--------|--------|--------|--------|
B|--------|--------|--------|--------|--------|--------|--------|--------|--------|
G|--------|--------|--------|--------|--------|--------|--------|--------|--------|
D|--------|--------|--------|--------|--------|--------|--------|--------|--------|
A|--------|--------|--------|--------|--------|--------|--------|--------|--------|
E|--------|--------|--------|--------|--------|--------|--------|--------|--------|


E|--------|--------|--------|--------|--------|--------|--------|--------|--------|
B|--------|--------|--------|--------|--------|--------|--------|--------|--------|
G|--------|--------|--------|--------|--------|--------|--------|--------|--------|
D|--------|--------|--------|--------|--------|--------|--------|--------|--------|
A|--------|--------|--------|--------|--------|--------|--------|--------|--------|
E|--------|--------|--------|--------|--------|--------|--------|--------|--------|


E|---------------------------|-------------------------------------------|---------------------------------------------|
B|------------------6--------|-8-------------------------11-----11-11-11-|-11-11-11-11-11-11-11-11-----11-----11----11-|
G|-----------8------8--8--8--|-10-10-10-10----10-10------9------9--9--9--|-9--9--9--9--9--9--9--9------9------9-----9--|
D|-----------7------7--7--7--|-9--9--9--9-----9--9-----------------------|---------------------------------------------|
A|---------------------------|-------------------------------------------|---------------------------------------------|
E|---------------------------|-------------------------------------------|---------------------------------------------|


E|-----------------------------|--------|--------|--------|--------|--------|--------|
B|-11-11-11-11-11-11-11--------|--------|--------|--------|--------|--------|--------|
G|-9--9--9--9--9--9--9---------|--------|--------|--------|--------|--------|--------|
D|-----------------------------|--------|--------|--------|--------|--------|--------|
A|-----------------------------|--------|--------|--------|--------|--------|--------|
E|-----------------------------|--------|--------|--------|--------|--------|--------|


E|--------|--------|--------|--------|--------|--------|--------|--------|--------|
B|--------|--------|--------|--------|--------|--------|--------|--------|--------|
G|--------|--------|--------|--------|--------|--------|--------|--------|--------|
D|--------|--------|--------|--------|--------|--------|--------|--------|--------|
A|--------|--------|--------|--------|--------|--------|--------|--------|--------|
E|--------|--------|--------|--------|--------|--------|--------|--------|--------|


E|--------|--------|--------|--------|
B|--------|--------|--------|--------|
G|--------|--------|--------|--------|
D|--------|--------|--------|--------|
A|--------|--------|--------|--------|
E|--------|--------|--------|--------|





Track 4: e.piano

E|-----6--------6--------6--------6--------6-----|-----6--------6--------6--------6--------6-----|
B|-----8--------8--------8--------8--------8-----|-----8--------8--------8--------8--------8-----|
G|-----9--------9--------9--------9--------9-----|-----9--------9--------9--------9--------9-----|
D|-----8--------8--------8--------8--------8-----|-----8--------8--------8--------8--------8-----|
A|-----------------------------------------------|-----------------------------------------------|
E|-8---------8--------8--------8--------8--------|-8---------8--------8--------8--------8--------|


E|-----6--------6--------6--------6--------6-----|-----6--------6------6--------6--------6-----|
B|-----8--------8--------8--------8--------8-----|-----8--------8------8--------8--------8-----|
G|-----9--------9--------9--------9--------9-----|-----9--------9------9--------9--------9-----|
D|-----8--------8--------8--------8--------8-----|-----8--------8------8--------8--------8-----|
A|-----------------------------------------------|---------------------------------------------|
E|-8---------8--------8--------8--------8--------|-8---------8------8--------8--------8--------|


E|----------------------------------|----------------------------------|------3--3-----------3--3------|
B|---------5---6--6---5--------5----|---------5---6--6---5--------5----|------3--3-----------3--3------|
G|---------5---7--7---5--------5----|---------4---4--4---4--------4----|------5--5-----------5--5------|
D|---------7---7--7---7--------7----|---------5---5--5---5--------5----|------7--7-----------7--7------|
A|----------------------------------|----------------------------------|-------------------------------|
E|----------------------------------|----------------------------------|-------------------------------|


E|------3--3-----------3--------3--3--3-----|---------0---1--1---0--------0----|---------0---1--1---0--------0----|
B|------3--3-----------3--------3--3--3-----|---------1---3--3---1--------1----|---------0---0--0---0--------0----|
G|------5--5-----1-----5-----1--5--5--5-----|---------2---2--2---2--------2----|---------0---0--0---0--------0----|
D|------6--6-----------6--------6--6--6-----|----------------------------------|----------------------------------|
A|------------------------------------------|----------------------------------|----------------------------------|
E|------------------------------------------|----------------------------------|----------------------------------|


E|------3--3-----------3--3------|------3--3-----------3--------3--3--3-----|---------------------------------|
B|------3--3-----------3--3------|------3--3-----------3--------3--3--3-----|------3---5--3--3-------3-----3--|
G|------5--5-----------5--5------|------5--5-----------5--------5--5--5-----|------4---5--4--4-------4-----4--|
D|------7--7-----------7--7------|------6--6-----6-----6-----6--6--6--6-----|------5---5--5--5-------5-----5--|
A|-------------------------------|------------------------------------------|---------------------------------|
E|-------------------------------|------------------------------------------|---------------------------------|


E|----0---------0---0--0-----|-8-----12--10----|-10----15--15---19-19--17--|-----6--------6--------6--------6--------6-----|
B|-3--1---------1---0--0-----|-10----12--10----|-12----17--17---20-20--17--|-----8--------8--------8--------8--------8-----|
G|-4--2---------2---0--0-----|-10----12--10----|-12----17--17---19-19--17--|-----9--------9--------9--------9--------9-----|
D|-5-------------------------|-----------------|---------------------------|-----8--------8--------8--------8--------8-----|
A|---------------------------|-----------------|---------------------------|-----------------------------------------------|
E|---------------------------|-----------------|---------------------------|-8---------8--------8--------8--------8--------|


E|-----6--------6--------6--------6--------6-----|----------------------------------|
B|-----8--------8--------8--------8--------8-----|---------5---6--6---5--------5----|
G|-----9--------9--------9--------9--------9-----|---------5---7--7---5--------5----|
D|-----8--------8--------8--------8--------8-----|---------7---7--7---7--------7----|
A|-----------------------------------------------|----------------------------------|
E|-8---------8--------8--------8--------8--------|----------------------------------|


E|----------------------------------|------3--3-----------15-15-----|------3--3-----------3--------3--3--3-----|
B|---------5---6--6---5--------5----|------3--3-----------15-15-----|------3--3-----------3--------3--3--3-----|
G|---------4---4--4---4--------4----|------5--5-----------17-17-----|------5--5-----------5--------5--5--5-----|
D|---------5---5--5---5--------5----|------7--7-----------19-19-----|------6--6-----6-----6-----6--6--6--6-----|
A|----------------------------------|-------------------------------|------------------------------------------|
E|----------------------------------|-------------------------------|------------------------------------------|


E|---------0---1--1---0--------0----|---------0---1--1---0--------0----|------3--3-----------15-15-----|
B|---------1---3--3---1--------1----|---------0---0--0---0--------0----|------3--3-----------15-15-----|
G|---------2---2--2---2--------2----|---------0---0--0---0--------0----|------5--5-----------17-17-----|
D|----------------------------------|----------------------------------|------7--7-----------19-19-----|
A|----------------------------------|----------------------------------|-------------------------------|
E|----------------------------------|----------------------------------|-------------------------------|


E|------3--3-----------3--------3--3--3-----|---------------------------------|----0---------0---0--0-----|
B|------3--3-----------3--------3--3--3-----|------3---5--3--3-------3-----3--|-3--1---------1---0--0-----|
G|------5--5-----------5--------5--5--5-----|------4---5--4--4-------4-----4--|-4--2---------2---0--0-----|
D|------6--6-----6-----6-----6--6--6--6-----|------5---5--5--5-------5-----5--|-5-------------------------|
A|------------------------------------------|---------------------------------|---------------------------|
E|------------------------------------------|---------------------------------|---------------------------|


E|-8-----12--10----|-10----15--15---19-19--17--|------5--5-----7--7-----|------5--5-----7-----7-----7--7--7--7---|
B|-10----12--10----|-12----17--17---20-20--19--|------6--6-----8--8-----|------6--6-----8-----8-----8--8--8--8---|
G|-10----12--10----|-12----17--17---19-19--19--|------5--5-----7--7-----|------5--5-----7-----7-----7--7--7--7---|
D|-----------------|---------------------------|------------------------|----------------------------------------|
A|-----------------|---------------------------|------------------------|----------------------------------------|
E|-----------------|---------------------------|------------------------|----------------------------------------|


E|------5--5-----7--7---7---7---7--8--|-----------------------------------------|-----6--------6--------6--------6--------6-----|
B|------6--6-----8--8---8---8---8--10-|-----4--------4------6------6------6-----|-----8--------8--------8--------8--------8-----|
G|------5--5-----7--7---7---7---7--8--|-----5--------5------7------7------7-----|-----9--------9--------9--------9--------9-----|
D|------------------------------------|-----5--------5------9------9------9-----|-----8--------8--------8--------8--------8-----|
A|------------------------------------|-----------------------------------------|-----------------------------------------------|
E|------------------------------------|-----------------------------------------|-8---------8--------8--------8--------8--------|


E|-----6--------6--------6--------6--------6-----|----------------------------------|
B|-----8--------8--------8--------8--------8-----|---------5---6--6---5--------5----|
G|-----9--------9-----8--9--------9--------9-----|---------5---7--7---5--------5----|
D|-----8--------8--------8--------8--------8-----|---------7---7--7---7--------7----|
A|-----------------------------------------------|----------------------------------|
E|-8---------8-----------------8--------8--------|----------------------------------|


E|----------------------------------|------3--3-----------3--3--3-----|------3--3-----------3--------3--3--3-----|
B|---------5---6--6---5--------5----|------3--3-----------3--3--3-----|------3--3-----------3--------3--3--3-----|
G|---------4---4--4---4--------4----|------5--5-----------5--5--5-----|------5--5-----------5--------5--5--5-----|
D|---------5---5--5---5--------5----|------7--7-----------7--7--7-----|------6--6-----6-----6-----6--6--6--6-----|
A|----------------------------------|---------------------------------|------------------------------------------|
E|----------------------------------|---------------------------------|------------------------------------------|


E|---------0---1--1---0--------0----|---------0---1--1---0--------0----|------15-15----------22-22-----|
B|---------1---3--3---1--------1----|---------0---0--0---0--------0----|------15-15--------------------|
G|---------2---2--2---2--------2----|---------0---0--0---0--------0----|------17-17--------------------|
D|----------------------------------|----------------------------------|------19-19--------------------|
A|----------------------------------|----------------------------------|-------------------------------|
E|----------------------------------|----------------------------------|-------------------------------|


E|------3--3-----------3--------3--3--3-----|---------------------------------|----0---------0---0--0-----|
B|------3--3-----------3--------3--3--3-----|------3---5--3--3-------3-----3--|-3--1---------1---0--0-----|
G|------5--5-----------5--------5--5--5-----|------4---5--4--4-------4-----4--|-4--2---------2---0--0-----|
D|------6--6-----6-----6-----6--6--6--6-----|------5---5--5--5-------5-----5--|-5-------------------------|
A|------------------------------------------|---------------------------------|---------------------------|
E|------------------------------------------|---------------------------------|---------------------------|


E|-8-----12--10----|-10----15--15---19-19--17--|------5--5-----7--7-----|------5--5-----7-----7-----7--7--7--7---|
B|-10----12--10----|-12----17--17---20-20--19--|------6--6-----8--8-----|------6--6-----8-----8-----8--8--8--8---|
G|-10----12--10----|-12----17--17---19-19--19--|------5--5-----7--7-----|------5--5-----7-----7-----7--7--7--7---|
D|-----------------|---------------------------|------------------------|----------------------------------------|
A|-----------------|---------------------------|------------------------|----------------------------------------|
E|-----------------|---------------------------|------------------------|----------------------------------------|


E|------5--5-----7--7---7---7---7--8--|-----------------------------------------|-----6--------6--------6--------6--------6-----|
B|------6--6-----8--8---8---8---8--10-|-----4--------4------6------6------6-----|-----8--------8--------8--------8--------8-----|
G|------5--5-----7--7---7---7---7--8--|-----5--------5------7------7------7-----|-----9--------9--------9--------9--------9-----|
D|------------------------------------|-----5--------5------9------9------9-----|-----8--------8--------8--------8--------8-----|
A|------------------------------------|-----------------------------------------|-----------------------------------------------|
E|------------------------------------|-----------------------------------------|-8---------8--------8--------8--------8--------|


E|-----6--------6--------6--------6--------6-----|-------------------------------------|
B|-----8--------8--------8--------8--------8-----|---------8---5---5------------5---6--|
G|-----9--------9--------9--------9--------9-----|---------7---6---6---6-----7--0------|
D|-----8--------8--------8--------8--------8-----|---------8---7---7----------------7--|
A|-----------------------------------------------|---------------------7-----8---------|
E|-8---------8--------8--------8--------8--------|-0-----------------------------------|


E|----------5---------|------5---4---4---4-----5--7---8--|------12-12----12-12----|
B|----------6---6-----|------6---5---5---0---------------|------13-13----12-12----|
G|--------------5-----|------7---4---4---------5--7---9--|------14-14----12-12----|
D|--------------------|----------------------------------|------------------------|
A|--------------------|----------------------------------|------------------------|
E|--------------------|----------------------------------|------------------------|


E|------12-10----12-12----------------------|----------------------------------------|
B|------13-------15-15-13----13----13----12-|----13----13----12---------------12--13-|
G|------14-------12-12----------------------|---------------------------------12--14-|
D|------------------------------------------|----------------------14---------14--14-|
A|------------------------------------------|----------------------------------------|
E|------------------------------------------|----------------------------------------|


E|-------------------------------|-------------------------------|-----------------|
B|-13--12-----------------12--13-|-13--12--------------8--8------|------8----8-----|
G|-14--12-----------------11--11-|-11------------------9--9------|------9----9-----|
D|-14---------------------12--12-|-12------------------12-12-----|------12---12----|
A|-------------------------------|---------------------12-12-----|------12---------|
E|-------------------------------|-------------------------------|-----------------|


E|--------------------|----------------------------------|------------------------3--3------|
B|-7----------5----6--|-6---5--------5------------5---6--|-6---5--------5---------3--3------|
G|-9----------5----7--|-7---5--------5------------4---4--|-4---4--------4---------5--5------|
D|------------7----7--|-7---7--------7------------5---5--|-5---5--------5---------7--7------|
A|--------------------|----------------------------------|----------------------------------|
E|--------------------|----------------------------------|----------------------------------|


E|------3--3-----------3--3--------|----3--------3--3--3--------------------|---------------------0---------0---0--|
B|------3--3-----------3--3--------|----3--------3--3--3----------3---5--3--|-3-------3-----3--3--1---------1---0--|
G|------5--5-----------5--5--------|----5--------5--5--5----------4---5--4--|-4-------4-----4--4--2---------2---0--|
D|------7--7-----------6--6-----6--|----6-----6--6--6--6----------5---5--5--|-5-------5-----5--5-------------------|
A|---------------------------------|----------------------------------------|--------------------------------------|
E|---------------------------------|----------------------------------------|--------------------------------------|


E|-0-----8-----12--|-10----10----15--|-15---19-19--17------6--------6--------|-6--------6--------6---------6--------6--------|
B|-0-----10----12--|-10----12----17--|-17---20-20--17------8--------8--------|-8--------8--------8---------8--------8--------|
G|-0-----10----12--|-10----12----17--|-17---19-19--17------9--------9--------|-9--------9--------9---------9--------9--------|
D|-----------------|-----------------|---------------------8--------8--------|-8--------8--------8---------8--------8--------|
A|-----------------|-----------------|---------------------------------------|-----------------------------------------------|
E|-----------------|-----------------|-----------------8---------8--------8--|-------8--------8--------8---------8--------8--|


E|-6--------6--------6---------6--------6------|-6--------6--------6---------6--------6--------|
B|-8--------8--------8---------8--------8------|-8--------8--------8---------8--------8--------|
G|-9--------9--------9---------9--------9------|-9--------9--------9---------9-----8--9--------|
D|-8--------8--------8---------8--------8------|-8--------8--------8---------8--------8--------|
A|---------------------------------------------|-----------------------------------------------|
E|-------8--------8--------8---------8------8--|-------8--------8--------8------------------8--|


E|-6--------6--------6--------------------|----------------------------------|----------------------------------|
B|-8--------8--------8-------------5---6--|-6---5--------5------------5---6--|-6---5--------5---------8--8------|
G|-9-----8--9--------9-------------5---7--|-7---5--------5------------4---4--|-4---4--------4---------7--7------|
D|-8--------8--------8-------------7---7--|-7---7--------7------------5---5--|-5---5--------5---------10-10-----|
A|----------------------------------------|----------------------------------|------------------------12-12-----|
E|----------------8-----------------------|----------------------------------|----------------------------------|


E|------15-15----------3--3--------|----3--------3--3--3-------------0---1--|-1---0--------0------------0---1--|
B|------15-15----------3--3--------|----3--------3--3--3-------------1---3--|-3---1--------1------------0---0--|
G|------17-17----------5--5--------|----5--------5--5--5-------------2---2--|-2---2--------2------------0---0--|
D|------19-19----------6--6-----6--|----6-----6--6--6--6--------------------|----------------------------------|
A|---------------------------------|----------------------------------------|----------------------------------|
E|---------------------------------|----------------------------------------|----------------------------------|


E|-1---0--------0---------15-15-----|------22-22----------3--3--------|----3--------3--3--3--------------------|
B|-0---0--------0---------15-15-----|---------------------3--3--------|----3--------3--3--3----------3---5--3--|
G|-0---0--------0---------17-17-----|---------------------5--5--------|----5--------5--5--5----------4---5--4--|
D|------------------------19-19-----|---------------------6--6-----6--|----6-----6--6--6--6----------5---5--5--|
A|----------------------------------|---------------------------------|----------------------------------------|
E|----------------------------------|---------------------------------|----------------------------------------|


E|---------------------0---------0---0--|-0-----8-----12--|-10----10----15--|-15---19-19--17-------5--5-----7--|
B|-3-------3-----3--3--1---------1---0--|-0-----10----12--|-10----12----17--|-17---20-20--19-------6--6-----8--|
G|-4-------4-----4--4--2---------2---0--|-0-----10----12--|-10----12----17--|-17---19-19--19-------5--5-----7--|
D|-5-------5-----5--5-------------------|-----------------|-----------------|----------------------------------|
A|--------------------------------------|-----------------|-----------------|----------------------------------|
E|--------------------------------------|-----------------|-----------------|----------------------------------|


E|-7----------5--5-----7--|----7-----7--7--7--7--------5--5-----7--|-7---7---7---7--8----------------------|
B|-8----------6--6-----8--|----8-----8--8--8--8--------6--6-----8--|-8---8---8---8--10-----4--------4------|
G|-7----------5--5-----7--|----7-----7--7--7--7--------5--5-----7--|-7---7---7---7--8------5--------5------|
D|------------------------|----------------------------------------|-----------------------5--------5------|
A|------------------------|----------------------------------------|---------------------------------------|
E|------------------------|----------------------------------------|---------------------------------------|


E|-------------------------6--------6--------|-6--------6--------6---------6--------6------|
B|-6------6------6---------8--------8--------|-8--------8--------8---------8--------8------|
G|-7------7------7---------9--------9-----8--|-9-----8--9--------9---------9--------9---8--|
D|-9------9------9---------10-------10-------|-10-------10-------10--------10-------10-----|
A|-------------------------------------------|---------------------------------------------|
E|---------------------8---------8-----------|----------------8--------8---------8---------|


E|-6--------6--------6-----5-----3--|-3--------1--1--------0--|-0-------3---5--5--------3--|
B|-8--------8--------8-----5-----3--|-3--------1--1--------0--|-0-------3---5--5--------3--|
G|-9--------9--------9-----5-----4--|-4--------2--2--------0--|-0-------4---5--5--------4--|
D|-10-------10-------10-------------|-------------------------|----------------------------|
A|----------------------------------|-------------------------|----------------------------|
E|-------8--------8-----------------|-------------------------|----------------------------|


E|-3--------1--1--------0--|-0-------3---5--5--------3--|-3--------1--1--------0--|
B|-3--------1--1--------0--|-0-------3---5--5--------3--|-3--------1--1--------0--|
G|-4--------2--2--------0--|-0-------4---5--5--------4--|-4--------2--2--------0--|
D|-------------------------|----------------------------|-------------------------|
A|-------------------------|----------------------------|-------------------------|
E|-------------------------|----------------------------|-------------------------|


E|-0-------3---5--5--------3--|-3--------1--1--------0--|-0-------3---5--5--------3--|
B|-0-------3---5--5--------3--|-3--------1--1--------0--|-0-------3---5--5--------3--|
G|-0-------4---5--5--------4--|-4--------2--2--------0--|-0-------4---5--5--------4--|
D|----------------------------|-------------------------|----------------------------|
A|----------------------------|-------------------------|----------------------------|
E|----------------------------|-------------------------|----------------------------|


E|-3--------1--1--------0--|-0-------15--17-17-------15-|-15-------13-13-------12-|
B|-3--------1--1--------0--|-0-------15--17-17-------15-|-15-------13-13-------12-|
G|-4--------2--2--------0--|-0-------16--17-17-------16-|-16-------14-14-------12-|
D|-------------------------|----------------------------|-------------------------|
A|-------------------------|----------------------------|-------------------------|
E|-------------------------|----------------------------|-------------------------|


E|-12------15--17-17-------15-|-15-------13-13-------12-|-12------15--17-17-------15-|
B|-12------15--17-17-------15-|-15-------13-13-------12-|-12------15--17-17-------15-|
G|-12------16--17-17-------16-|-16-------14-14-------12-|-12------16--17-17-------16-|
D|----------------------------|-------------------------|----------------------------|
A|----------------------------|-------------------------|----------------------------|
E|----------------------------|-------------------------|----------------------------|


E|-15-------13-13-------12-|-12------15--17-17-------15-|-15-------13-13-------12-|
B|-15-------13-13-------12-|-12------15--17-17-------15-|-15-------13-13-------12-|
G|-16-------14-14-------12-|-12------16--17-17-------16-|-16-------14-14-------12-|
D|-------------------------|----------------------------|-------------------------|
A|-------------------------|----------------------------|-------------------------|
E|-------------------------|----------------------------|-------------------------|


E|-12------15--17-17-------15-|-15-------13-------|
B|-12------15--17-17-------15-|-15-------13-------|
G|-12------16--17-17-------16-|-16-------14-------|
D|----------------------------|-------------------|
A|----------------------------|-------------------|
E|----------------------------|-------------------|





Track 5: bass

G|--------|--------|--------|----------------------|------------------------------------|
D|--------|--------|--------|----------------------|------------------------------------|
A|--------|--------|--------|----------------------|-0----------------0-----------0--0--|
E|--------|--------|--------|----------------0--3--|------------0--0--------------------|


G|--------------------------------------|-------------------------------------------------|
D|------------------5-------------5-----|-3-----3--------------------------------0--------|
A|------------5--5----------5--5-----5--|----------------3--3--0--0--5--3-----------3-----|
E|-3------------------------------------|----------------------------------------------1--|


G|------------------------------------------|-14-----------------------------------|
D|----------------0-----------5--3--3-------|--------------------------------------|
A|-1-----1-----------3--5--------------5----|-0-------------0---------0------0-----|
E|------------------------------------------|---------0--0---------------0---------|


G|-----------------------------------------------|----------------------------------|
D|-5--5-----5--------5--5---------5--------5-----|-3--------------------------------|
A|-------------5--5------------------5--5--------|---------3--3--0--0----5--3-------|
E|--------------------------------------------5--|-------------------------------1--|


G|----------------------0--------------------|---------------------------------------|
D|-------------------------2---0---------2---|-3----3--------3--5--5----5--------5---|
A|-1-----1--------3--1------------2----------|---------3--3----------------5--5------|
E|-----------------------------------1-------|---------------------------------------|


G|-2------2--------2-------------------------|-------------------|-------2---------------------|
D|-----------2--2------5--5-----5--------5---|-------5-----3-----|-2-----------3----2--2---0---|
A|---------------------------------5--5------|-5-----------------|-----------------------------|
E|-------------------------------------------|-------------------|-----------------------------|


G|------------3--3-----3-----3-----3--5------|----3------3-----------------------------|
D|-------------------------------------------|--------5------1-------------------------|
A|-3-----------------------------------------|-3----------------3-----0----------------|
E|------------------3------------------------|---------------------------0---0---0--3--|


G|--------------------------------------|-----------------------------------------------|
D|--------------------------------------|----------------------5---------5--------5-----|
A|-0----------------0----------------0--|----------------5--5---------------5--5-----5--|
E|------------0--0-------------0--------|-3-----3---------------------------------------|


G|-------------------------------------------------|------------------------------------------|
D|-3-----3-----------------------------------------|----------------0-----------5--3--3--3----|
A|----------------3--3--0--0--5--3-----------------|-1-----1-----------3--5--------------5----|
E|----------------------------------------1--3--1--|------------------------------------------|


G|-5----5---------------------------|-------------------------------------|-----------------------------------------------|
D|----------------------------------|-5----5--------5--5--5-----------5---|-3-----3--------------------3------------------|
A|-0----0---------------------------|---------5--5-------------5----------|----------------5--3--0--0-----3------5--3-----|
E|---------0--0--5--5----5--0---5---|-----------------------------7-------|--------------------------------------------1--|


G|----------------0----------------------------|-------------------------------------------|
D|-------------------0--1--2-----0---------2---|-3------3--------3--5---------5--------5---|
A|-1-----1--------------------------3----------|-----------3--3------------------5--5------|
E|-------------------------------------1-------|-------------------------------------------|


G|-----------------------------------------------|-------------------|-------2-----------------------|
D|-7--7-----7--------7-----5------5--------------|-------5-----3-----|-2-----------3----2--2---0-----|
A|-------------7--7------------------5--5--------|-5-----------------|----------------------------0--|
E|----------------------5---------------------5--|-------------------|-------------------------------|


G|-------------------7---------------------9---|-----------7-----7-----------------------9---|
D|-------------7--7------------------9---------|--------7-----7--------------------9---------|
A|-5--5-----5------------7--7-----7------------|-5---5--------------5--7--7-----7------------|
E|---------------------------------------------|---------------------------------------------|


G|-----------------7---------------------9-----|-----------------------------------------|
D|-----------7--7------------------9-----------|---------------------5--5-----5----------|
A|-5------5------------7--7-----7-----------7--|-8------8--------8-----------------------|
E|---------------------------------------------|-----------8---------------------3----3--|


G|-------------------------------|-------------------------------------|--------------------------------------|
D|----------------------2--------|-------------------------2-------2---|--------------------------------------|
A|-1--3---1--3-------------------|-1--3---1--3-------------------------|-0----------------0----------------0--|
E|----------------0--0------3----|----------------0-----0------3-------|------------0--0-------------0--0-----|


G|----------------------0---------0--------0-----|-----------------------------------------|
D|----------------2--0---------------0--0-----0--|-3-----3---------------------------------|
A|-----------------------------------------------|----------------5--3--0--0--5------------|
E|-3-----3---------------------------------------|---------------------------------8---7---|


G|-------------------------------------------0---|-12----------------------------------|
D|----------------0--------------------8---------|-------------------------------------|
A|----------------------------10-8--8--------7---|-0---0------------0--0----0------0---|
E|-6-----6-----------8--10-10--------------------|------------0--0-------------0-------|


G|-----------------------------------------------|------------------------------------------2--|
D|-5--5-----5--------5--5---------5--------5-----|---------------------------5--2--2--3--5-----|
A|-------------5--5------------------5--5--------|-8-----8--------0---5--3---------------------|
E|--------------------------------------------5--|---------------------------------------------|


G|-3-----3--------0----------------------------|-------------------------------------------|
D|-------------------0--1--2-----0---------2---|-3------3--------3--5--5------5--------5---|
A|----------------------------------2----------|-----------3--3------------------5--5------|
E|-------------------------------------0-------|-------------------------------------------|


G|---------------------------------------------|-------------------|-------2-----------------------|
D|-7------7--------7-----5------5--------5-----|-------5-----3-----|-2-----------3----2--2---0-----|
A|-----------7--7------------------5--5--------|-5-----------------|----------------------------0--|
E|--------------------5---------------------5--|-------------------|-------------------------------|


G|-------------------7---------------9-----9-----|-------------------7-------------9--7--9-----|
D|-------------7--7---------------9-----9--------|-------------7----------------9--------------|
A|-5--5-----5------------7--7--------------------|-5--5-----5------------7---------------------|
E|-----------------------------0--------------8--|--------------------------0---------------8--|


G|-------------------7---------------------9-----|------------------------------------|
D|-------------7---------------------9-----------|-------------------5--5-----5-------|
A|-5--5-----5------------7--7-----7-----------7--|-8----8------8----------------------|
E|-----------------------------------------------|---------8---------------------3----|


G|----3------3---------------------------|----3------3---------------------------|
D|--------5------------------------------|--------5--------------------------1---|
A|-3----------------1------------0---1---|-3-------------5--3------------0-------|
E|---------------------0--0--3-----------|---------------------0--0--3-----------|


G|---------------------------------------|-------------------------------------|-----------------------------------------|
D|-2------2------------------------------|-------------------------------------|------------3---------2------------------|
A|---------------0---0---2-----3--4---5--|-5----5----------3-----3---3--0--3---|-2----2----------------------------------|
E|---------------------------------------|---------5----1----------------------|---------1-----0---0-----0-----2--4---5--|


G|-------------------------------------------|-----------------------------|----------------------------------|
D|---------------------5---5--5--------5-----|-3----3------3-----2---------|-0--------------------------------|
A|---------------5---------------5--5-----5--|---------3--------------2----|------2---------------------------|
E|-5----5--5---------------------------------|-----------------------------|-----------0--0-----0------0--2---|


G|-------------------------------------7---|-----------------7-----------------------------|
D|---------------------0-----0------0------|-----------------------------------------------|
A|-----------------------------------------|-5-----5------5-----5--3-----3-----------------|
E|-3-----2-----0----0----------------------|--------------------------------------3--3--0--|


G|-------------------------|-------------------------------|-----------------------------------------------|
D|-------------------------|-------------------------------|--------------------------------------5--5--5--|
A|----3--3---3---5---------|-------------------------------|-----------------------------------------------|
E|-0-----------------0-----|-0-----5-----5--------5-----5--|-5------------5--5-----3-----3-----------------|


G|---------------------------------------------|-------------------------------------|
D|--------5------5-----3-----3-----------------|-------------------------------------|
A|-----------5------------------------3--3--0--|-0----5--3----5------------------5---|
E|------------------3--------------------------|-----------------6------8--6---------|


G|---------------------------------------|---------------------------------------|
D|---------------------------------------|---------------------------------------|
A|-7------5----------8------8--------8---|-10-----10-----10--12-----12-----12----|
E|-----------7---0-------------8--8------|-----------10----------------12--------|


G|-----------------------------------|------------------------|-----------------------|
D|-----------------------------------|------------------7-----|-----------------------|
A|-10-----10-------10-0--------10----|-8-----7----7-----------|-8----7--7---5---------|
E|-----------10-10-------10----------|------------------------|-----------------------|


G|--------|--------|-------------|---------------------------|---------------------------------------------|
D|--------|--------|-------------|---------------------------|---------------------------------------------|
A|--------|--------|-------------|---------------------------|-0-----0-------------------------------------|
E|--------|--------|-------------|-------5----------5-----3--|--------------------1--3-----3------------3--|


G|-------------------------------------------------|-----------------------------------------|
D|-------------------5-----3-----3-----------------|-----------------------------------------|
A|----------------------------------------3--3--0--|-0----5--3----5-----------------5--3--5--|
E|-3-----3--------3-----3--------------------------|-----------------6-----6-----------------|


G|-------------0---12---12----------|-----------------------------------------|-------------0-----------------------------|
D|------5--3---2--------------------|-----------------5-----5-----------------|------2--0---------3-----3-----------------|
A|-5---------------0----0--------0--|-0----0------0------------------5--3--2--|-2--------------0-----------------3--3--0--|
E|-------------------------0--0-----|---------0-------------------------------|-------------------------------------------|


G|-----------------------------------------------|------------------------------------------0--|
D|-----------------------------0-----------------|-------------------------3----3--------3-----|
A|-0--5--3--------3--5-----1------3--3--4--5--6--|-7--5-----------3--5--3----------3--3--------|
E|----------------------1------------------------|-------7--0--0-------------------------------|


G|---------------------2------2------2-----|-0------0--------------------------|-------------2-----|
D|--------5--------5-------------2---------|-----------0-----------------5-----|-3-----2-----------|
A|-----------5-----------------------------|--------------5-----0--5-----------|-------------------|
E|-----------------------------------------|-----------------------------------|-------------------|


G|-------------------------------------------|-----------9-----9--------------7-----7--------|
D|-3----2--2---0-----------------------7-----|--------9-----9--------------7-----------7-----|
A|----------------0--5-----5--------5--------|-7---7--------------5--5--5-----------------5--|
E|----------------------------------------7--|-----------------------------------------------|


G|-----------9-----9---------------------7-----|--------------9--7--9--------------------------|
D|--------9-----9-----0--0--0-----0--7---------|--------9-----------------------------3--3--4--|
A|-7---7------------------------------------5--|-7---7-----------------8-----8-----------------|
E|---------------------------------------------|-----------------------------------------------|


G|-----------------------------------------|-------------------------------------|
D|-5--5-----5------------------------------|-----2--2----------------------------|
A|--------------------2--1--3---1--3-------|-------------------1--3---1--3-------|
E|-------------3------------------------0--|-0---------3----3-----------------0--|


G|-----------------------------------------|-----------------------------------|---------------------------------------|
D|-------------------3------3--------3-----|-2----2------2--0--0----3----------|------------2-----3--3----3------3--2--|
A|---------------3-------------3--3--------|---------3----------------------3--|-3-------3-------------------3---------|
E|----0--2---3-----------------------------|---------------------------3-------|------3--------------------------------|


G|---------------------------------------------|--------------------------------------|
D|-2--2-----------0-------------3-----5--------|---------2-----3--3----3--------3--2--|
A|-------2-----------3--5--5-------5--------3--|-3------------------------3--3--------|
E|----------0--0-------------------------------|------3-------------------------------|


G|-----------------------------------------------|--------------------------------------|
D|-2--2---------------------------3--5-----------|---------2-----3--3----3--------3--2--|
A|-------3--------5--3--5--5---5--------5-----3--|-3------------------------3--3--------|
E|----------0--0---------------------------3-----|------3-------------------------------|


G|---------------------------------------------|--------------------------------------|
D|-2--2-----------------------3----5-----------|---------2-----3--3----3--------3--2--|
A|-------3--------5--3--5-------------------3--|-3------------------------3--3--------|
E|----------0--0----------------------3--------|------3-------------------------------|


G|---------------------------------------------|--------------------------------------|
D|-2--2-------------------------3--5-----------|---------2-----3--3----3-----------2--|
A|-------3--------5--3--5--5----------------3--|-3------------------------3--3--------|
E|----------0--0----------------------3--------|------3-------------------------------|


G|-----------------------------------------------|-----------------------------------------|
D|-2--2--------------------------3---------------|------------2-----3--3----3--------3--2--|
A|-------3--------5--3--5--5---------------------|-3---------------------------3--3--------|
E|----------0--0---------------------3--3-----3--|---------3-------------------------------|


G|-------------------------------------------------|---------------------------------------|
D|-2--2--------------------------3-----5-----------|--------------------------0------3--2--|
A|-------3--------5--3--5-----5-----------5-----3--|----3------------------------3---------|
E|----------0--0-----------------------------3-----|-------3------0---1--1-----------------|


G|-----------------------------------------------|-------------0-----------------------------|
D|-2--2--------------------------3-----5---------|-------2------------3--3----3--------3--2--|
A|-------3--------5--3--5--5--5---------------3--|-3--3-----------3--------------3--3--------|
E|----------0--0--------------------------3------|-------------------------------------------|


G|---------------------------------------------|--------------------------------------|
D|-2--2------------------------3-----5---------|---------2-----3--3----3--------3--2--|
A|-------3--------5--3--5--5----------------3--|-3------------------------3--3--------|
E|----------0--0------------------------3------|------3-------------------------------|


G|-------------------------------|
D|-2--2--------------------------|
A|-------3--------5--3--5--------|
E|----------0--0-----------------|