Site menu:

    

Browse: 0-9 A B C D E F G H I J K L N O P Q R S T U V W X Y Z

steely dan - hey nineteen:



Title: Hey Nineteen
Artist: 
Album: Gold
Author: Walter Becker and Donald Fagen


Track 1: Gtr 1 Clean

E|-----------------------|--------------------|-----7----7--5--7-------5-------|-7---5---------------------------|
B|-----------------------|--------------------|--------------------------------|---------7---7---7---5-----------|
G|-----4-----4-----4--2--|-4------------------|--------------------------------|-------------------------4---2---|
D|-----------------------|--------------------|--------------------------------|---------------------------------|
A|-----------------------|--------------------|--------------------------------|---------------------------------|
E|-----------------------|--------------------|--------------------------------|---------------------------------|


E|------2--------------------|-------------|--------|--------|--------|--------|--------|
B|---------------------------|-------------|--------|--------|--------|--------|--------|
G|-4--------4---4----2-------|-------------|--------|--------|--------|--------|--------|
D|-----------------------4---|-4-----------|--------|--------|--------|--------|--------|
A|---------------------------|-------------|--------|--------|--------|--------|--------|
E|---------------------------|-------------|--------|--------|--------|--------|--------|


E|--------|--------|--------|--------|--------|--------|--------|--------|--------|
B|--------|--------|--------|--------|--------|--------|--------|--------|--------|
G|--------|--------|--------|--------|--------|--------|--------|--------|--------|
D|--------|--------|--------|--------|--------|--------|--------|--------|--------|
A|--------|--------|--------|--------|--------|--------|--------|--------|--------|
E|--------|--------|--------|--------|--------|--------|--------|--------|--------|


E|--------|--------|--------|--------|--------|--------|--------|--------|--------|
B|--------|--------|--------|--------|--------|--------|--------|--------|--------|
G|--------|--------|--------|--------|--------|--------|--------|--------|--------|
D|--------|--------|--------|--------|--------|--------|--------|--------|--------|
A|--------|--------|--------|--------|--------|--------|--------|--------|--------|
E|--------|--------|--------|--------|--------|--------|--------|--------|--------|


E|--------|--------|--------|--------|--------|--------|--------|--------|--------|
B|--------|--------|--------|--------|--------|--------|--------|--------|--------|
G|--------|--------|--------|--------|--------|--------|--------|--------|--------|
D|--------|--------|--------|--------|--------|--------|--------|--------|--------|
A|--------|--------|--------|--------|--------|--------|--------|--------|--------|
E|--------|--------|--------|--------|--------|--------|--------|--------|--------|


E|--------|--------|--------|--------|--------|--------|--------|--------|--------|
B|--------|--------|--------|--------|--------|--------|--------|--------|--------|
G|--------|--------|--------|--------|--------|--------|--------|--------|--------|
D|--------|--------|--------|--------|--------|--------|--------|--------|--------|
A|--------|--------|--------|--------|--------|--------|--------|--------|--------|
E|--------|--------|--------|--------|--------|--------|--------|--------|--------|


E|--------|--------|--------|--------|--------|--------|--------|--------|--------|
B|--------|--------|--------|--------|--------|--------|--------|--------|--------|
G|--------|--------|--------|--------|--------|--------|--------|--------|--------|
D|--------|--------|--------|--------|--------|--------|--------|--------|--------|
A|--------|--------|--------|--------|--------|--------|--------|--------|--------|
E|--------|--------|--------|--------|--------|--------|--------|--------|--------|


E|--------|------------8---6---|-6--------6---6--8---------|-----------------|-------------|
B|--------|--------------------|------8---------------8----|-6----8----6-----|-------------|
G|--------|--------------------|---------------------------|-----------------|-------------|
D|--------|--------------------|---------------------------|-----------------|-------------|
A|--------|--------------------|---------------------------|-----------------|-------------|
E|--------|--------------------|---------------------------|-----------------|-------------|


E|---------------10--12--|-12----12---12--10--|-5---7---10---------|--------|--------|
B|-----------12----------|--------------------|-5---7--------7-----|--------|--------|
G|-----------------------|--------------------|-5---7--------------|--------|--------|
D|-----------------------|--------------------|--------------7-----|--------|--------|
A|-----------------------|--------------------|--------------------|--------|--------|
E|-----------------------|--------------------|--------------------|--------|--------|


E|--------|--------|--------|--------|--------|--------|--------|--------|--------|
B|--------|--------|--------|--------|--------|--------|--------|--------|--------|
G|--------|--------|--------|--------|--------|--------|--------|--------|--------|
D|--------|--------|--------|--------|--------|--------|--------|--------|--------|
A|--------|--------|--------|--------|--------|--------|--------|--------|--------|
E|--------|--------|--------|--------|--------|--------|--------|--------|--------|


E|--------|--------|--------|--------|--------|--------|--------|--------|--------|
B|--------|--------|--------|--------|--------|--------|--------|--------|--------|
G|--------|--------|--------|--------|--------|--------|--------|--------|--------|
D|--------|--------|--------|--------|--------|--------|--------|--------|--------|
A|--------|--------|--------|--------|--------|--------|--------|--------|--------|
E|--------|--------|--------|--------|--------|--------|--------|--------|--------|


E|--------|--------|--------|--------|--------|--------|--------|--------|--------|
B|--------|--------|--------|--------|--------|--------|--------|--------|--------|
G|--------|--------|--------|--------|--------|--------|--------|--------|--------|
D|--------|--------|--------|--------|--------|--------|--------|--------|--------|
A|--------|--------|--------|--------|--------|--------|--------|--------|--------|
E|--------|--------|--------|--------|--------|--------|--------|--------|--------|


E|--------|--------|--------|--------|--------|--------|--------|--------|--------|
B|--------|--------|--------|--------|--------|--------|--------|--------|--------|
G|--------|--------|--------|--------|--------|--------|--------|--------|--------|
D|--------|--------|--------|--------|--------|--------|--------|--------|--------|
A|--------|--------|--------|--------|--------|--------|--------|--------|--------|
E|--------|--------|--------|--------|--------|--------|--------|--------|--------|


E|--------|--------|--------|--------|--------|--------|--------|--------|--------|
B|--------|--------|--------|--------|--------|--------|--------|--------|--------|
G|--------|--------|--------|--------|--------|--------|--------|--------|--------|
D|--------|--------|--------|--------|--------|--------|--------|--------|--------|
A|--------|--------|--------|--------|--------|--------|--------|--------|--------|
E|--------|--------|--------|--------|--------|--------|--------|--------|--------|


E|--------|--------|--------|--------|--------|--------|--------|--------|--------|
B|--------|--------|--------|--------|--------|--------|--------|--------|--------|
G|--------|--------|--------|--------|--------|--------|--------|--------|--------|
D|--------|--------|--------|--------|--------|--------|--------|--------|--------|
A|--------|--------|--------|--------|--------|--------|--------|--------|--------|
E|--------|--------|--------|--------|--------|--------|--------|--------|--------|


E|--------|--------|--------|--------|--------|--------|--------|--------|--------|
B|--------|--------|--------|--------|--------|--------|--------|--------|--------|
G|--------|--------|--------|--------|--------|--------|--------|--------|--------|
D|--------|--------|--------|--------|--------|--------|--------|--------|--------|
A|--------|--------|--------|--------|--------|--------|--------|--------|--------|
E|--------|--------|--------|--------|--------|--------|--------|--------|--------|


E|--------|--------|--------|--------|--------|--------|--------|--------|--------|
B|--------|--------|--------|--------|--------|--------|--------|--------|--------|
G|--------|--------|--------|--------|--------|--------|--------|--------|--------|
D|--------|--------|--------|--------|--------|--------|--------|--------|--------|
A|--------|--------|--------|--------|--------|--------|--------|--------|--------|
E|--------|--------|--------|--------|--------|--------|--------|--------|--------|


E|--------|--------|--------|--------|--------|--------|--------|--------|--------|
B|--------|--------|--------|--------|--------|--------|--------|--------|--------|
G|--------|--------|--------|--------|--------|--------|--------|--------|--------|
D|--------|--------|--------|--------|--------|--------|--------|--------|--------|
A|--------|--------|--------|--------|--------|--------|--------|--------|--------|
E|--------|--------|--------|--------|--------|--------|--------|--------|--------|


E|--------|--------|--------|--------|
B|--------|--------|--------|--------|
G|--------|--------|--------|--------|
D|--------|--------|--------|--------|
A|--------|--------|--------|--------|
E|--------|--------|--------|--------|





Track 2: Gtr II Clean

E|-9------------------|------9--------------------|-----------------------|------9--------------------|
B|--------------------|------10-----------12--10--|-10--------------------|------10-----------12--10--|
G|-6------------------|------9------------13--11--|-11------------11--13--|------9------------13--11--|
D|--------------------|------11-----------14--12--|-12--------11----------|------11-----------14--12--|
A|--------------------|------9--------------------|-----------------------|------9--------------------|
E|--------------------|---------------------------|-----------------------|---------------------------|


E|-----------------------|-------------|--------|--------|-------------|-------------------3-------|
B|-10--------------------|-------------|--------|--------|-------------|------3-------3----3-------|
G|-11------------11--13--|-------------|--------|--------|-------------|------2-------4------------|
D|-12--------11----------|-------------|--------|--------|-------------|------4-------3------------|
A|-----------------------|-------------|--------|--------|-------------|---------------------------|
E|-----------------------|-------------|--------|--------|-------------|---------------------------|


E|------------------------|-------------|--------------------|---------------------------|
B|-5----8----7----10------|-------------|------------7-------|-3--------3---3----3-------|
G|-6----7----7------------|-------------|--------------------|--------------4----4-------|
D|-5----9----7------------|-------------|------------7-------|-4--------4---3----3-------|
A|------------------------|-------------|--------------------|---------------------------|
E|------------------------|-------------|--------------------|---------------------------|


E|------------------------------|----------------------5----|-7-------------------------|
B|-5----8-------------------7---|-7--------------------6----|-8-------------------------|
G|-6----6-------------------7---|-7------------7-------5----|-7-----11--9---7-------7---|
D|-5----------------7---9-------|------9-------9-------5----|-7-----------------9---7---|
A|--------------9---------------|---------------------------|---------------------------|
E|------------------------------|---------------------------|---------------------------|


E|---------------------------------|---------------------------|------------------------|
B|---------------------------------|-5----8-------7---10-------|----------------3-------|
G|-------------------------4-------|----------------------7----|-7---------4------------|
D|---------------------------------|-5----9-------7------------|-----------3------------|
A|-8---7---5---------------5-------|----------------------9----|-9----------------------|
E|---------------------3-------3---|---------------------------|------------------------|


E|------------------------------|-------------|-------------|-------7-----|-5----5---------9-------|
B|------5-----------------------|-------------|-------7-----|-9-----7-----|-5----5---------10------|
G|-6------------7-------7-------|-------------|-------7-----|-9-----7-----|-4----4---------9-------|
D|--------------7-------7-------|-------------|-------7-----|-9-----5-----|-3----3---------11------|
A|-5------------9-------9-------|-------------|-------------|-------------|----------------9-------|
E|------------------------------|-------------|-------7-----|-9-----------|------------------------|


E|--------------------|----------------------9-------|--------------------|------------------------------|
B|------12--10--10----|----------------------10------|------12--10--10----|------------------------------|
G|------13--11--11----|---------11--13-------9-------|------13--11--11----|---------11--13---------------|
D|------14--12--12----|-----11---------------11------|------14--12--12----|-----11-----------------------|
A|--------------------|----------------------9-------|--------------------|-----------------9------------|
E|--------------------|------------------------------|--------------------|------------------------------|


E|-12----------|--------------------|-----------------------|-------------|---------------------------------|
B|-12----10----|-10---------9--10---|-9-------------5---6---|-7-----------|-------------------------5---8---|
G|-12----9-----|-10---------9-------|-----------------------|-------------|---------4-----------------------|
D|-11----9-----|-9----------9--11---|-9-------------5---6---|-7-----------|-------------------------5---9---|
A|-------9-----|-10-----------------|-----------0-----------|-------------|---------5-----------0-----------|
E|-------------|--------------------|-----------------------|-------------|-----3---------------------------|


E|------------------------------|---------------------------------|-------------|---------5--7------5----3-------|
B|-7----10----------10--10------|---------------------------------|-------------|--------------------------------|
G|------------------9---9-------|-7---7---------------------------|-------------|---------5--7------6----4-------|
D|-7----------------------------|---------9---7-------------------|-------------|-----0--------------------------|
A|------------------------------|-----------------7---5-----------|-5-----------|--------------------------------|
E|------------------------------|-------------------------7---5---|-------------|--------------------------------|


E|--------------------------------|------5----7---------|-12-14---14---8--10---10---|
B|-5--7------3-------3------------|------6----8---------|---------------------------|
G|-------------------2----0-------|------5----7---------|-12-14---14---9--11---11---|
D|-5--7------4--------------------|------5----7---------|---------------------------|
A|--------------------------------|---------------------|---------------------------|
E|--------------------------------|---------------------|---------------------------|


E|---------------------------|-1--2--5------------------------|---------------------------------|
B|-6--8----8----3--5----5----|-----------3-------3------------|---------3---------------5-------|
G|---------------------------|-1--2-------------------5-------|-3---4-----------6-------6-------|
D|-7--9----9----3--5----5----|-----------4-------4------------|-3---------------5-------5-------|
A|---------------------------|--------------------------------|---------------------------------|
E|---------------------------|--------------------------------|---------------------------------|


E|------------------------------|--------------------|-------------|-7-----5----5----|
B|------------------------------|--------------------|-7-----9-----|-7-----5----5----|
G|-----------------7------------|--------------------|-7-----9-----|-7-----4----4----|
D|-----7---9------------9-------|------9-------------|-7-----9-----|-5-----3----3----|
A|-9----------------------------|------10------------|-------------|-----------------|
E|------------------------------|--------------------|-7-----9-----|-----------------|


E|------9--------------------|-----------------------|------9--------------------|
B|------10-----------12--10--|-10--------------------|------10-----------12--10--|
G|------9------------13--11--|-11------------11--13--|------9------------13--11--|
D|------11-----------14--12--|-12--------11----------|------11-----------14--12--|
A|------9--------------------|-----------------------|------9--------------------|
E|---------------------------|-----------------------|---------------------------|


E|-----------------------|--------------12----|-------------|--------------------|
B|-10--------------------|--------------12----|-10----10----|------9--10---9-----|
G|-11------------11--13--|--------------12----|-9-----10----|------9-------------|
D|-12--------11----------|--------------11----|-9-----9-----|------9--11---9-----|
A|-----------------------|-9------------------|-9-----10----|--------------------|
E|-----------------------|--------------------|-------------|--------------------|


E|-------------|-------------|--------|--------|--------|-------------|-------------|
B|-------------|-------------|--------|--------|--------|-------------|-------------|
G|-------------|-------------|--------|--------|--------|-------------|-------------|
D|-------------|-------------|--------|--------|--------|-------------|-------------|
A|-------------|-------------|--------|--------|--------|-------------|-------------|
E|-------------|-------------|--------|--------|--------|-------------|-------------|


E|-------------|-------------|---------------------------|------------------------------|
B|-------------|-------------|------5-------3------------|------5-------7-----------7---|
G|-------------|-------------|------6-------4------------|------6-------7-----------7---|
D|-------------|-------------|------7-------5------------|------7-------7-----------7---|
A|-------------|-------------|---------------------------|------------------------------|
E|-------------|-------------|---------------------------|------------------------------|


E|---------------------------------|---------------------------|---------------------------------|
B|-7---7-----------7-------8-------|-5----8--------------------|-7---7-------8-----------8-------|
G|-7---7-----------7-------7-------|-6-------------7-----------|-7-----------7-----------7-------|
D|-7---7---9-------9-------9-------|-5----9------------9---7---|-7-------9---9-------9---9-------|
A|---------------------------------|---------------------------|---------------------------------|
E|---------------------------------|---------------------------|---------------------------------|


E|-----------------------|----------------5----|-7----10----------------|------------------------------|
B|-----------7-----------|----------------6----|-8----8-----------------|------------------------------|
G|-----------7-----------|-7--------------5----|-7----7-------------7---|-7-------7---7----------------|
D|---------------9---7---|----------------5----|-7----7-------------9---|-7-------7---7------------7---|
A|-----------------------|-----5---------------|------------------------|------------------------------|
E|-----------------------|---------------------|------------------------|------------------------------|


E|------------------------------|---------------------------------|---------------------------------|
B|---------8----7-------7-------|-5-------3-------3---3---3---3---|---------5-------------------7---|
G|-7------------7-------7-------|---------4-------4---4---4---4---|---------6-------------------7---|
D|-----7--------7---7---7---5---|-----5---------------------------|-----7---------------7---9-------|
A|------------------------------|---------------------------------|-----------------9---------------|
E|------------------------------|---------------------------------|---------------------------------|


E|---------7-----------------------|------------------------------|---------------------------------|
B|-----7-------7---8---8-------8---|------8-------7---10----------|---------5-----------------------|
G|-----7-------7---7---7-------7---|--------------7-------7-------|-7-------5-------4-------4-------|
D|-----------------9---9-------9---|------9---------------7-------|-7-----------5---5-------5-------|
A|---------------------------------|----------------------9-------|-9-------------------------------|
E|---------------------------------|------------------------------|---------------------------------|


E|-------------5-------------------|-----------------------|------------------------------|
B|---------5-------7---------------|-----------------------|------------------------------|
G|---------6-------7-----------7---|-7-------7---7---------|----------7-------7---7-------|
D|-----------------------------7---|-7-------7---7---------|------7-----------7---9-------|
A|---------------------------------|-----------------------|------------------------------|
E|-----5---------------------------|-----------------------|------------------------------|


E|------------------------------|---------------------------------|------------------------------|
B|------------------------------|---------7-----------------------|------------------------------|
G|-7-------7---7--------7-------|-------------6---7---7-----------|----------------------7---7---|
D|-7-------7---9--------7-------|-----7---------------7---9---7---|----------------------7---7---|
A|------------------------------|---------------------------------|-7---5-------5----------------|
E|------------------------------|---------------------------------|------------------------------|


E|-----------------------|---------------------------------|------------------------------|
B|-----------------------|---------------------------------|------------------------------|
G|-----------7-----------|-7-------------------------------|-------------7---7------------|
D|---------------9-------|-----9---7---9-------------------|-----7---9------------9-------|
A|-----------------------|---------------------7---5---7---|-9----------------------------|
E|-----------------------|---------------------------------|------------------------------|


E|--------------------|-----------------------|---------------------------|--------------------|
B|--------------------|-----------------------|---------------------------|------5---7---------|
G|-7------------------|-------7-------7-------|---------------------------|------6---7---------|
D|-7------------------|-------7-------7-------|-7-------7---9---9----7----|-7------------------|
A|--------------------|-----------------------|-5-------------------------|--------------------|
E|--------------------|-----------------------|---------------------------|--------------------|


E|---------------------------|--------------------|---------------------------------|
B|------7-----------7--------|--------------------|-----10--8---7---8---------------|
G|------7-----------7--------|------7-------------|-----11--9---7---9---11--7-------|
D|---------------------------|------7-------7-----|-----------------------------9---|
A|---------------------------|--------------------|---------------------------------|
E|---------------------------|--------------------|---------------------------------|


E|------------------------------|------------------------------|---------------------------|
B|------------------------------|------------------------------|----------8---7---7--------|
G|--------------------------7---|-----7-------7-------7--------|---------------------------|
D|-7------------------------7---|-----7-------7-------7--------|----------9---7---7--------|
A|-----7---5----5---5---9-------|------------------------------|---------------------------|
E|------------------------------|------------------------------|---------------------------|


E|------------------------------|------------------------------|-----------------------|
B|------------------------------|-----7---8---7---7------------|-----------------------|
G|-7-------7------------7-------|-----7---7---7---7------------|-----------------------|
D|-7-------7------------7-------|---------9---7---7----9-------|-7-------7---9---------|
A|------------------------------|------------------------------|-----------------------|
E|------------------------------|------------------------------|-----------------------|


E|-------------|-------7-----|-5----------9-------|--------------------|----------------------9-------|
B|-------7-----|-9-----7-----|-5----------10------|------12--10--10----|----------------------10------|
G|-------7-----|-9-----7-----|-4----------9-------|------13--11--11----|---------11--13-------9-------|
D|-------7-----|-9-----5-----|-3----------11------|------14--12--12----|-----11---------------11------|
A|-------------|-------------|------------9-------|--------------------|----------------------9-------|
E|-------7-----|-9-----------|--------------------|--------------------|------------------------------|


E|--------------------|-----------------------|--------|--------|--------|--------|
B|------12--10--10----|-----------------------|--------|--------|--------|--------|
G|------13--11--11----|---------11--13--------|--------|--------|--------|--------|
D|------14--12--12----|-----11----------------|--------|--------|--------|--------|
A|--------------------|-----------------------|--------|--------|--------|--------|
E|--------------------|-----------------------|--------|--------|--------|--------|


E|--------|--------|--------|--------|--------|--------|--------|--------|--------|
B|--------|--------|--------|--------|--------|--------|--------|--------|--------|
G|--------|--------|--------|--------|--------|--------|--------|--------|--------|
D|--------|--------|--------|--------|--------|--------|--------|--------|--------|
A|--------|--------|--------|--------|--------|--------|--------|--------|--------|
E|--------|--------|--------|--------|--------|--------|--------|--------|--------|


E|--------|--------|--------|--------|--------|--------|--------|--------|--------|
B|--------|--------|--------|--------|--------|--------|--------|--------|--------|
G|--------|--------|--------|--------|--------|--------|--------|--------|--------|
D|--------|--------|--------|--------|--------|--------|--------|--------|--------|
A|--------|--------|--------|--------|--------|--------|--------|--------|--------|
E|--------|--------|--------|--------|--------|--------|--------|--------|--------|


E|--------|--------|--------|--------|--------|--------|--------|--------|--------|
B|--------|--------|--------|--------|--------|--------|--------|--------|--------|
G|--------|--------|--------|--------|--------|--------|--------|--------|--------|
D|--------|--------|--------|--------|--------|--------|--------|--------|--------|
A|--------|--------|--------|--------|--------|--------|--------|--------|--------|
E|--------|--------|--------|--------|--------|--------|--------|--------|--------|


E|--------|--------|--------|--------|--------|--------|--------|--------|--------|
B|--------|--------|--------|--------|--------|--------|--------|--------|--------|
G|--------|--------|--------|--------|--------|--------|--------|--------|--------|
D|--------|--------|--------|--------|--------|--------|--------|--------|--------|
A|--------|--------|--------|--------|--------|--------|--------|--------|--------|
E|--------|--------|--------|--------|--------|--------|--------|--------|--------|


E|--------|--------|--------|
B|--------|--------|--------|
G|--------|--------|--------|
D|--------|--------|--------|
A|--------|--------|--------|
E|--------|--------|--------|





Track 3: Gtr IV Synth for guitar

E|--------|--------|--------|--------|--------|------9----12---9-------|--------------------------|
B|--------|--------|--------|--------|--------|--------------------12--|-12--12-11-10---10---5----|
G|--------|--------|--------|--------|--------|------------------------|--------------------------|
D|--------|--------|--------|--------|--------|------------------------|--------------------------|
A|--------|--------|--------|--------|--------|------------------------|--------------------------|
E|--------|--------|--------|--------|--------|------------------------|--------------------------|


E|--------|-----------------|--------|--------|--------|--------|--------|--------|
B|-5------|-5---------------|--------|--------|--------|--------|--------|--------|
G|--------|-----------------|--------|--------|--------|--------|--------|--------|
D|--------|-----------------|--------|--------|--------|--------|--------|--------|
A|--------|-----------------|--------|--------|--------|--------|--------|--------|
E|--------|-----------------|--------|--------|--------|--------|--------|--------|


E|--------|--------|--------|--------|--------|--------|--------|--------|--------|
B|--------|--------|--------|--------|--------|--------|--------|--------|--------|
G|--------|--------|--------|--------|--------|--------|--------|--------|--------|
D|--------|--------|--------|--------|--------|--------|--------|--------|--------|
A|--------|--------|--------|--------|--------|--------|--------|--------|--------|
E|--------|--------|--------|--------|--------|--------|--------|--------|--------|


E|--------|--------|--------|--------|--------|--------|--------|--------|--------|
B|--------|--------|--------|--------|--------|--------|--------|--------|--------|
G|--------|--------|--------|--------|--------|--------|--------|--------|--------|
D|--------|--------|--------|--------|--------|--------|--------|--------|--------|
A|--------|--------|--------|--------|--------|--------|--------|--------|--------|
E|--------|--------|--------|--------|--------|--------|--------|--------|--------|


E|--------|--------|--------|--------|--------|--------|--------|--------|--------|
B|--------|--------|--------|--------|--------|--------|--------|--------|--------|
G|--------|--------|--------|--------|--------|--------|--------|--------|--------|
D|--------|--------|--------|--------|--------|--------|--------|--------|--------|
A|--------|--------|--------|--------|--------|--------|--------|--------|--------|
E|--------|--------|--------|--------|--------|--------|--------|--------|--------|


E|--------|--------|--------|--------|--------|--------|--------|--------|--------|
B|--------|--------|--------|--------|--------|--------|--------|--------|--------|
G|--------|--------|--------|--------|--------|--------|--------|--------|--------|
D|--------|--------|--------|--------|--------|--------|--------|--------|--------|
A|--------|--------|--------|--------|--------|--------|--------|--------|--------|
E|--------|--------|--------|--------|--------|--------|--------|--------|--------|


E|--------|--------|--------|--------|--------|--------|--------|--------|--------|
B|--------|--------|--------|--------|--------|--------|--------|--------|--------|
G|--------|--------|--------|--------|--------|--------|--------|--------|--------|
D|--------|--------|--------|--------|--------|--------|--------|--------|--------|
A|--------|--------|--------|--------|--------|--------|--------|--------|--------|
E|--------|--------|--------|--------|--------|--------|--------|--------|--------|


E|--------|--------|--------|--------|--------|--------|--------|--------|--------|
B|--------|--------|--------|--------|--------|--------|--------|--------|--------|
G|--------|--------|--------|--------|--------|--------|--------|--------|--------|
D|--------|--------|--------|--------|--------|--------|--------|--------|--------|
A|--------|--------|--------|--------|--------|--------|--------|--------|--------|
E|--------|--------|--------|--------|--------|--------|--------|--------|--------|


E|--------|--------|--------|--------|--------|--------|--------|--------|--------|
B|--------|--------|--------|--------|--------|--------|--------|--------|--------|
G|--------|--------|--------|--------|--------|--------|--------|--------|--------|
D|--------|--------|--------|--------|--------|--------|--------|--------|--------|
A|--------|--------|--------|--------|--------|--------|--------|--------|--------|
E|--------|--------|--------|--------|--------|--------|--------|--------|--------|


E|--------|--------|--------|--------|--------|--------|--------|--------|--------|
B|--------|--------|--------|--------|--------|--------|--------|--------|--------|
G|--------|--------|--------|--------|--------|--------|--------|--------|--------|
D|--------|--------|--------|--------|--------|--------|--------|--------|--------|
A|--------|--------|--------|--------|--------|--------|--------|--------|--------|
E|--------|--------|--------|--------|--------|--------|--------|--------|--------|


E|--------|--------|--------|--------|--------|--------|--------|--------|--------|
B|--------|--------|--------|--------|--------|--------|--------|--------|--------|
G|--------|--------|--------|--------|--------|--------|--------|--------|--------|
D|--------|--------|--------|--------|--------|--------|--------|--------|--------|
A|--------|--------|--------|--------|--------|--------|--------|--------|--------|
E|--------|--------|--------|--------|--------|--------|--------|--------|--------|


E|--------|--------|--------|--------|--------|--------|--------|--------|--------|
B|--------|--------|--------|--------|--------|--------|--------|--------|--------|
G|--------|--------|--------|--------|--------|--------|--------|--------|--------|
D|--------|--------|--------|--------|--------|--------|--------|--------|--------|
A|--------|--------|--------|--------|--------|--------|--------|--------|--------|
E|--------|--------|--------|--------|--------|--------|--------|--------|--------|


E|--------|--------|------------9----|-12---9----------------------|-----------------|
B|--------|--------|-----------------|----------12--12--12-11-10---|-10---5----5-----|
G|--------|--------|-----------------|-----------------------------|-----------------|
D|--------|--------|-----------------|-----------------------------|-----------------|
A|--------|--------|-----------------|-----------------------------|-----------------|
E|--------|--------|-----------------|-----------------------------|-----------------|


E|-----------------|-5-----5----4--5----|------5--6--5------8---6----5-----|------5-------------------------------|
B|-------5---------|--------------------|---------------8---------------8--|-7----------------------10------------|
G|-----------------|--------------------|----------------------------------|--------------------------------------|
D|-----------------|--------------------|----------------------------------|--------------7--8--9-----------9--10-|
A|-----------------|--------------------|----------------------------------|--------------------------------------|
E|-----------------|--------------------|----------------------------------|--------------------------------------|


E|---------------7--8--7------|------14----15-14-----|------12-13-12-----12-----------|
B|-----10--10-------------10--|------------------15--|---------------15-----------15--|
G|----------------------------|----------------------|--------------------------------|
D|-11-------------------------|----------------------|--------------------------------|
A|----------------------------|----------------------|--------------------------------|
E|----------------------------|----------------------|--------------------------------|


E|-----------13--------|-----13---------------14------|-17-----17--16--|-17-16-15--------------------------12--|
B|-15------------------|--------------15--------------|----------------|----------15------12-13-12-----14------|
G|---------------------|------------------------------|----------------|---------------------------14----------|
D|---------------------|------------------------------|----------------|---------------------------------------|
A|---------------------|------------------------------|----------------|---------------------------------------|
E|---------------------|------------------------------|----------------|---------------------------------------|


E|----------------------------|--------------------|---------------------------|-----19-----------------------|
B|----------------------------|------------12--15--|----------18--15-----------|-------------18--15-----------|
G|-14----14--12-14-12-11------|--------------------|---------------------------|------------------------------|
D|----------------------------|--------------------|---------------------------|------------------------------|
A|----------------------------|--------------------|---------------------------|------------------------------|
E|----------------------------|--------------------|---------------------------|------------------------------|


E|---------------------------|-----19----------------------------|--------|--------|
B|----------18--15-----------|-------------17-18-17--------------|--------|--------|
G|---------------------------|----------------------19-----------|--------|--------|
D|---------------------------|-----------------------------------|--------|--------|
A|---------------------------|-----------------------------------|--------|--------|
E|---------------------------|-----------------------------------|--------|--------|


E|--------|--------|--------|--------|--------|--------|--------|--------|--------|
B|--------|--------|--------|--------|--------|--------|--------|--------|--------|
G|--------|--------|--------|--------|--------|--------|--------|--------|--------|
D|--------|--------|--------|--------|--------|--------|--------|--------|--------|
A|--------|--------|--------|--------|--------|--------|--------|--------|--------|
E|--------|--------|--------|--------|--------|--------|--------|--------|--------|


E|--------|--------|--------|--------|--------|--------|--------|--------|--------|
B|--------|--------|--------|--------|--------|--------|--------|--------|--------|
G|--------|--------|--------|--------|--------|--------|--------|--------|--------|
D|--------|--------|--------|--------|--------|--------|--------|--------|--------|
A|--------|--------|--------|--------|--------|--------|--------|--------|--------|
E|--------|--------|--------|--------|--------|--------|--------|--------|--------|


E|--------|--------|--------|--------|
B|--------|--------|--------|--------|
G|--------|--------|--------|--------|
D|--------|--------|--------|--------|
A|--------|--------|--------|--------|
E|--------|--------|--------|--------|





Track 4: Gtr 1 Clean

E|--------|--------|--------|--------|--------|-------12----|-------------|-----------------|
B|--------|--------|--------|--------|--------|-------12----|-10----10----|-----------------|
G|--------|--------|--------|--------|--------|-------12----|-9-----10----|------6----4-----|
D|--------|--------|--------|--------|--------|-------11----|-9-----9-----|------7----6-----|
A|--------|--------|--------|--------|--------|-------------|-9-----10----|-----------------|
E|--------|--------|--------|--------|--------|-------------|-------------|-----------------|


E|-------------|--------|--------|--------|--------|--------|--------|--------|--------|
B|-------------|--------|--------|--------|--------|--------|--------|--------|--------|
G|-------------|--------|--------|--------|--------|--------|--------|--------|--------|
D|-------------|--------|--------|--------|--------|--------|--------|--------|--------|
A|-------------|--------|--------|--------|--------|--------|--------|--------|--------|
E|-------------|--------|--------|--------|--------|--------|--------|--------|--------|


E|--------|--------|--------|--------|--------|--------|--------|--------|--------|
B|--------|--------|--------|--------|--------|--------|--------|--------|--------|
G|--------|--------|--------|--------|--------|--------|--------|--------|--------|
D|--------|--------|--------|--------|--------|--------|--------|--------|--------|
A|--------|--------|--------|--------|--------|--------|--------|--------|--------|
E|--------|--------|--------|--------|--------|--------|--------|--------|--------|


E|--------|--------|--------|--------|--------|--------|--------|--------|--------|
B|--------|--------|--------|--------|--------|--------|--------|--------|--------|
G|--------|--------|--------|--------|--------|--------|--------|--------|--------|
D|--------|--------|--------|--------|--------|--------|--------|--------|--------|
A|--------|--------|--------|--------|--------|--------|--------|--------|--------|
E|--------|--------|--------|--------|--------|--------|--------|--------|--------|


E|--------|--------|--------|--------|--------|--------|--------|--------|--------|
B|--------|--------|--------|--------|--------|--------|--------|--------|--------|
G|--------|--------|--------|--------|--------|--------|--------|--------|--------|
D|--------|--------|--------|--------|--------|--------|--------|--------|--------|
A|--------|--------|--------|--------|--------|--------|--------|--------|--------|
E|--------|--------|--------|--------|--------|--------|--------|--------|--------|


E|--------|--------|--------|--------|--------|--------|--------|--------|--------|
B|--------|--------|--------|--------|--------|--------|--------|--------|--------|
G|--------|--------|--------|--------|--------|--------|--------|--------|--------|
D|--------|--------|--------|--------|--------|--------|--------|--------|--------|
A|--------|--------|--------|--------|--------|--------|--------|--------|--------|
E|--------|--------|--------|--------|--------|--------|--------|--------|--------|


E|--------|--------|--------|--------|--------|--------|--------|--------|--------|
B|--------|--------|--------|--------|--------|--------|--------|--------|--------|
G|--------|--------|--------|--------|--------|--------|--------|--------|--------|
D|--------|--------|--------|--------|--------|--------|--------|--------|--------|
A|--------|--------|--------|--------|--------|--------|--------|--------|--------|
E|--------|--------|--------|--------|--------|--------|--------|--------|--------|


E|--------|--------|--------|--------|--------|--------|--------|--------|--------|
B|--------|--------|--------|--------|--------|--------|--------|--------|--------|
G|--------|--------|--------|--------|--------|--------|--------|--------|--------|
D|--------|--------|--------|--------|--------|--------|--------|--------|--------|
A|--------|--------|--------|--------|--------|--------|--------|--------|--------|
E|--------|--------|--------|--------|--------|--------|--------|--------|--------|


E|--------|--------|--------|--------|--------|--------|--------|--------|--------|
B|--------|--------|--------|--------|--------|--------|--------|--------|--------|
G|--------|--------|--------|--------|--------|--------|--------|--------|--------|
D|--------|--------|--------|--------|--------|--------|--------|--------|--------|
A|--------|--------|--------|--------|--------|--------|--------|--------|--------|
E|--------|--------|--------|--------|--------|--------|--------|--------|--------|


E|--------|--------|--------|--------|--------|--------|--------|--------|--------|
B|--------|--------|--------|--------|--------|--------|--------|--------|--------|
G|--------|--------|--------|--------|--------|--------|--------|--------|--------|
D|--------|--------|--------|--------|--------|--------|--------|--------|--------|
A|--------|--------|--------|--------|--------|--------|--------|--------|--------|
E|--------|--------|--------|--------|--------|--------|--------|--------|--------|


E|--------|--------|--------|--------|--------|--------|--------|--------|--------|
B|--------|--------|--------|--------|--------|--------|--------|--------|--------|
G|--------|--------|--------|--------|--------|--------|--------|--------|--------|
D|--------|--------|--------|--------|--------|--------|--------|--------|--------|
A|--------|--------|--------|--------|--------|--------|--------|--------|--------|
E|--------|--------|--------|--------|--------|--------|--------|--------|--------|


E|--------|--------|--------|--------|--------|--------|--------|--------|--------|
B|--------|--------|--------|--------|--------|--------|--------|--------|--------|
G|--------|--------|--------|--------|--------|--------|--------|--------|--------|
D|--------|--------|--------|--------|--------|--------|--------|--------|--------|
A|--------|--------|--------|--------|--------|--------|--------|--------|--------|
E|--------|--------|--------|--------|--------|--------|--------|--------|--------|


E|--------|--------|--------|--------|--------|--------|--------|--------|--------|
B|--------|--------|--------|--------|--------|--------|--------|--------|--------|
G|--------|--------|--------|--------|--------|--------|--------|--------|--------|
D|--------|--------|--------|--------|--------|--------|--------|--------|--------|
A|--------|--------|--------|--------|--------|--------|--------|--------|--------|
E|--------|--------|--------|--------|--------|--------|--------|--------|--------|


E|--------|--------|--------|--------|--------|--------|--------|--------|--------|
B|--------|--------|--------|--------|--------|--------|--------|--------|--------|
G|--------|--------|--------|--------|--------|--------|--------|--------|--------|
D|--------|--------|--------|--------|--------|--------|--------|--------|--------|
A|--------|--------|--------|--------|--------|--------|--------|--------|--------|
E|--------|--------|--------|--------|--------|--------|--------|--------|--------|


E|--------|--------|--------|--------|--------|--------|--------|--------|--------|
B|--------|--------|--------|--------|--------|--------|--------|--------|--------|
G|--------|--------|--------|--------|--------|--------|--------|--------|--------|
D|--------|--------|--------|--------|--------|--------|--------|--------|--------|
A|--------|--------|--------|--------|--------|--------|--------|--------|--------|
E|--------|--------|--------|--------|--------|--------|--------|--------|--------|


E|--------|--------|--------|--------|--------|--------|--------|--------|--------|
B|--------|--------|--------|--------|--------|--------|--------|--------|--------|
G|--------|--------|--------|--------|--------|--------|--------|--------|--------|
D|--------|--------|--------|--------|--------|--------|--------|--------|--------|
A|--------|--------|--------|--------|--------|--------|--------|--------|--------|
E|--------|--------|--------|--------|--------|--------|--------|--------|--------|


E|--------|--------|--------|--------|--------|--------|--------|--------|
B|--------|--------|--------|--------|--------|--------|--------|--------|
G|--------|--------|--------|--------|--------|--------|--------|--------|
D|--------|--------|--------|--------|--------|--------|--------|--------|
A|--------|--------|--------|--------|--------|--------|--------|--------|
E|--------|--------|--------|--------|--------|--------|--------|--------|





Track 5: Gtr 1 (w/ slight dist)

E|--------|--------|--------|--------|--------|--------|--------|--------|--------|
B|--------|--------|--------|--------|--------|--------|--------|--------|--------|
G|--------|--------|--------|--------|--------|--------|--------|--------|--------|
D|--------|--------|--------|--------|--------|--------|--------|--------|--------|
A|--------|--------|--------|--------|--------|--------|--------|--------|--------|
E|--------|--------|--------|--------|--------|--------|--------|--------|--------|


E|--------|--------|--------|--------|--------|--------|--------|--------|--------|
B|--------|--------|--------|--------|--------|--------|--------|--------|--------|
G|--------|--------|--------|--------|--------|--------|--------|--------|--------|
D|--------|--------|--------|--------|--------|--------|--------|--------|--------|
A|--------|--------|--------|--------|--------|--------|--------|--------|--------|
E|--------|--------|--------|--------|--------|--------|--------|--------|--------|


E|--------|--------|--------|--------|--------|--------|--------|--------|--------|
B|--------|--------|--------|--------|--------|--------|--------|--------|--------|
G|--------|--------|--------|--------|--------|--------|--------|--------|--------|
D|--------|--------|--------|--------|--------|--------|--------|--------|--------|
A|--------|--------|--------|--------|--------|--------|--------|--------|--------|
E|--------|--------|--------|--------|--------|--------|--------|--------|--------|


E|--------|--------|--------|--------|--------|--------|--------|--------|--------|
B|--------|--------|--------|--------|--------|--------|--------|--------|--------|
G|--------|--------|--------|--------|--------|--------|--------|--------|--------|
D|--------|--------|--------|--------|--------|--------|--------|--------|--------|
A|--------|--------|--------|--------|--------|--------|--------|--------|--------|
E|--------|--------|--------|--------|--------|--------|--------|--------|--------|


E|--------|--------|--------|--------|--------|--------|--------|--------|--------|
B|--------|--------|--------|--------|--------|--------|--------|--------|--------|
G|--------|--------|--------|--------|--------|--------|--------|--------|--------|
D|--------|--------|--------|--------|--------|--------|--------|--------|--------|
A|--------|--------|--------|--------|--------|--------|--------|--------|--------|
E|--------|--------|--------|--------|--------|--------|--------|--------|--------|


E|--------|--------|--------|--------|--------|--------|--------|--------|--------|
B|--------|--------|--------|--------|--------|--------|--------|--------|--------|
G|--------|--------|--------|--------|--------|--------|--------|--------|--------|
D|--------|--------|--------|--------|--------|--------|--------|--------|--------|
A|--------|--------|--------|--------|--------|--------|--------|--------|--------|
E|--------|--------|--------|--------|--------|--------|--------|--------|--------|


E|--------|--------|--------|--------|--------|--------|--------|--------|--------|
B|--------|--------|--------|--------|--------|--------|--------|--------|--------|
G|--------|--------|--------|--------|--------|--------|--------|--------|--------|
D|--------|--------|--------|--------|--------|--------|--------|--------|--------|
A|--------|--------|--------|--------|--------|--------|--------|--------|--------|
E|--------|--------|--------|--------|--------|--------|--------|--------|--------|


E|--------|--------|--------|--------|--------|--------|--------|--------|--------|
B|--------|--------|--------|--------|--------|--------|--------|--------|--------|
G|--------|--------|--------|--------|--------|--------|--------|--------|--------|
D|--------|--------|--------|--------|--------|--------|--------|--------|--------|
A|--------|--------|--------|--------|--------|--------|--------|--------|--------|
E|--------|--------|--------|--------|--------|--------|--------|--------|--------|


E|--------|--------|--------|--------|--------|--------|--------|--------|--------|
B|--------|--------|--------|--------|--------|--------|--------|--------|--------|
G|--------|--------|--------|--------|--------|--------|--------|--------|--------|
D|--------|--------|--------|--------|--------|--------|--------|--------|--------|
A|--------|--------|--------|--------|--------|--------|--------|--------|--------|
E|--------|--------|--------|--------|--------|--------|--------|--------|--------|


E|--------|--------|--------|--------|--------|-------------|-----7--------------|
B|--------|--------|--------|--------|--------|-------------|----------10--10----|
G|--------|--------|--------|--------|--------|-------------|--------------------|
D|--------|--------|--------|--------|--------|-------------|--------------------|
A|--------|--------|--------|--------|--------|-------------|--------------------|
E|--------|--------|--------|--------|--------|-------------|--------------------|


E|-------------|------------------------|-------------------------|-------------|-------------|
B|-------10----|------10---8----7-------|-------------------------|-------7-----|-------------|
G|-------------|-9----------------------|-------------------------|-------------|-9-----7-----|
D|-------------|--------------------7---|-7---9--10-9--7----7-----|-------------|-------------|
A|-------------|------------------------|-------------------------|-------------|-------------|
E|-------------|------------------------|-------------------------|-------------|-------------|


E|--------------------|---------------------------|-----------------|-------------|
B|------------7-------|------5------------3-------|------5----10----|-------10----|
G|-9--------------11--|-11-------9---9--------6---|-6---------------|-------------|
D|--------------------|---------------------------|-----------------|-------------|
A|--------------------|---------------------------|-----------------|-------------|
E|--------------------|---------------------------|-----------------|-------------|


E|---------12------------|-------------|-----------------|-------------|--------------------|
B|-12--12------10--10----|-------10----|-----------7-----|-------------|--------------------|
G|-----------------------|-------------|-----------------|-9-----7-----|-9--------------7---|
D|-----------------------|-------------|-----------------|-------------|------------9-------|
A|-----------------------|-------------|-----------------|-------------|--------------------|
E|-----------------------|-------------|-----------------|-------------|--------------------|


E|--------------------|-9---8---7--------------|-------------|-------------|-------------|
B|-7------------------|--------------10--------|-------------|-------------|-------------|
G|-----10--9----9-----|------------------------|-------------|-------------|-------------|
D|--------------------|------------------------|-------------|-------------|-------------|
A|--------------------|------------------------|-------------|-------------|-------------|
E|--------------------|------------------------|-------------|-------------|-------------|


E|--------|--------|--------|--------|--------|--------|--------|--------|--------|
B|--------|--------|--------|--------|--------|--------|--------|--------|--------|
G|--------|--------|--------|--------|--------|--------|--------|--------|--------|
D|--------|--------|--------|--------|--------|--------|--------|--------|--------|
A|--------|--------|--------|--------|--------|--------|--------|--------|--------|
E|--------|--------|--------|--------|--------|--------|--------|--------|--------|


E|--------|--------|--------|--------|--------|--------|--------|--------|--------|
B|--------|--------|--------|--------|--------|--------|--------|--------|--------|
G|--------|--------|--------|--------|--------|--------|--------|--------|--------|
D|--------|--------|--------|--------|--------|--------|--------|--------|--------|
A|--------|--------|--------|--------|--------|--------|--------|--------|--------|
E|--------|--------|--------|--------|--------|--------|--------|--------|--------|


E|--------|--------|--------|--------|--------|--------|--------|--------|--------|
B|--------|--------|--------|--------|--------|--------|--------|--------|--------|
G|--------|--------|--------|--------|--------|--------|--------|--------|--------|
D|--------|--------|--------|--------|--------|--------|--------|--------|--------|
A|--------|--------|--------|--------|--------|--------|--------|--------|--------|
E|--------|--------|--------|--------|--------|--------|--------|--------|--------|


E|--------|--------|--------|--------|--------|--------|--------|--------|--------|
B|--------|--------|--------|--------|--------|--------|--------|--------|--------|
G|--------|--------|--------|--------|--------|--------|--------|--------|--------|
D|--------|--------|--------|--------|--------|--------|--------|--------|--------|
A|--------|--------|--------|--------|--------|--------|--------|--------|--------|
E|--------|--------|--------|--------|--------|--------|--------|--------|--------|


E|--------|--------|--------|--------|--------|--------|--------|--------|
B|--------|--------|--------|--------|--------|--------|--------|--------|
G|--------|--------|--------|--------|--------|--------|--------|--------|
D|--------|--------|--------|--------|--------|--------|--------|--------|
A|--------|--------|--------|--------|--------|--------|--------|--------|
E|--------|--------|--------|--------|--------|--------|--------|--------|





Track 6: Gtr 1 Clean

E|--------|--------|--------|--------|--------|--------|--------|--------|--------|
B|--------|--------|--------|--------|--------|--------|--------|--------|--------|
G|--------|--------|--------|--------|--------|--------|--------|--------|--------|
D|--------|--------|--------|--------|--------|--------|--------|--------|--------|
A|--------|--------|--------|--------|--------|--------|--------|--------|--------|
E|--------|--------|--------|--------|--------|--------|--------|--------|--------|


E|--------|--------|--------|--------|--------|--------|--------|--------|--------|
B|--------|--------|--------|--------|--------|--------|--------|--------|--------|
G|--------|--------|--------|--------|--------|--------|--------|--------|--------|
D|--------|--------|--------|--------|--------|--------|--------|--------|--------|
A|--------|--------|--------|--------|--------|--------|--------|--------|--------|
E|--------|--------|--------|--------|--------|--------|--------|--------|--------|


E|--------|--------|--------|--------|--------|--------|--------|--------|--------|
B|--------|--------|--------|--------|--------|--------|--------|--------|--------|
G|--------|--------|--------|--------|--------|--------|--------|--------|--------|
D|--------|--------|--------|--------|--------|--------|--------|--------|--------|
A|--------|--------|--------|--------|--------|--------|--------|--------|--------|
E|--------|--------|--------|--------|--------|--------|--------|--------|--------|


E|--------|--------|--------|--------|--------|--------|--------|--------|--------|
B|--------|--------|--------|--------|--------|--------|--------|--------|--------|
G|--------|--------|--------|--------|--------|--------|--------|--------|--------|
D|--------|--------|--------|--------|--------|--------|--------|--------|--------|
A|--------|--------|--------|--------|--------|--------|--------|--------|--------|
E|--------|--------|--------|--------|--------|--------|--------|--------|--------|


E|--------|--------|--------|--------|--------|--------|--------|--------|--------|
B|--------|--------|--------|--------|--------|--------|--------|--------|--------|
G|--------|--------|--------|--------|--------|--------|--------|--------|--------|
D|--------|--------|--------|--------|--------|--------|--------|--------|--------|
A|--------|--------|--------|--------|--------|--------|--------|--------|--------|
E|--------|--------|--------|--------|--------|--------|--------|--------|--------|


E|--------|--------|--------|--------|--------|--------|--------|--------|--------|
B|--------|--------|--------|--------|--------|--------|--------|--------|--------|
G|--------|--------|--------|--------|--------|--------|--------|--------|--------|
D|--------|--------|--------|--------|--------|--------|--------|--------|--------|
A|--------|--------|--------|--------|--------|--------|--------|--------|--------|
E|--------|--------|--------|--------|--------|--------|--------|--------|--------|


E|--------|--------|--------|--------|--------|--------|--------|--------|--------|
B|--------|--------|--------|--------|--------|--------|--------|--------|--------|
G|--------|--------|--------|--------|--------|--------|--------|--------|--------|
D|--------|--------|--------|--------|--------|--------|--------|--------|--------|
A|--------|--------|--------|--------|--------|--------|--------|--------|--------|
E|--------|--------|--------|--------|--------|--------|--------|--------|--------|


E|--------|--------|--------|--------|--------|--------|--------|--------|--------|
B|--------|--------|--------|--------|--------|--------|--------|--------|--------|
G|--------|--------|--------|--------|--------|--------|--------|--------|--------|
D|--------|--------|--------|--------|--------|--------|--------|--------|--------|
A|--------|--------|--------|--------|--------|--------|--------|--------|--------|
E|--------|--------|--------|--------|--------|--------|--------|--------|--------|


E|--------|--------|--------|--------|--------|--------|--------|--------|--------|
B|--------|--------|--------|--------|--------|--------|--------|--------|--------|
G|--------|--------|--------|--------|--------|--------|--------|--------|--------|
D|--------|--------|--------|--------|--------|--------|--------|--------|--------|
A|--------|--------|--------|--------|--------|--------|--------|--------|--------|
E|--------|--------|--------|--------|--------|--------|--------|--------|--------|


E|--------|--------|--------|--------|--------|--------|--------|--------|--------|
B|--------|--------|--------|--------|--------|--------|--------|--------|--------|
G|--------|--------|--------|--------|--------|--------|--------|--------|--------|
D|--------|--------|--------|--------|--------|--------|--------|--------|--------|
A|--------|--------|--------|--------|--------|--------|--------|--------|--------|
E|--------|--------|--------|--------|--------|--------|--------|--------|--------|


E|--------|--------|--------|--------|--------|--------|--------|--------|--------|
B|--------|--------|--------|--------|--------|--------|--------|--------|--------|
G|--------|--------|--------|--------|--------|--------|--------|--------|--------|
D|--------|--------|--------|--------|--------|--------|--------|--------|--------|
A|--------|--------|--------|--------|--------|--------|--------|--------|--------|
E|--------|--------|--------|--------|--------|--------|--------|--------|--------|


E|--------|--------|--------|--------|--------|--------|--------|--------|--------------------|
B|--------|--------|--------|--------|--------|--------|--------|--------|--------------------|
G|--------|--------|--------|--------|--------|--------|--------|--------|--------------------|
D|--------|--------|--------|--------|--------|--------|--------|--------|--------------------|
A|--------|--------|--------|--------|--------|--------|--------|--------|-------9------------|
E|--------|--------|--------|--------|--------|--------|--------|--------|--------------------|


E|-12----------|-----------------|-------------|---------------------------------|
B|-12----10----|-10--------------|-------------|---------------------------------|
G|-12----9-----|-10---------6----|-4-----------|-7-----------7-------7-----------|
D|-11----9-----|-9----------7----|-6-----------|-7-----------7-----------9---7---|
A|-------9-----|-10--------------|-------------|---------------------------------|
E|-------------|-----------------|-------------|---------------------------------|


E|---------------------------|---------------------------------|---------------------------|
B|-8-----------------7--8----|-7-------------------------------|----------------------10---|
G|-7-------------------------|---------7-----------7-----------|-7-------7-------9---------|
D|-------------------8--9----|-7-------7-----------7---9-------|-9-------9-------11--------|
A|---------------------------|---------------------------------|---------10------12--------|
E|---------------------------|---------------------------------|---------------------------|


E|---------------------------------|-----------------------------|---------------------------------|
B|-7-------------------------------|-8----------------------8----|-7---10--------------------------|
G|-7-----------7-------7-----------|-7---------------------------|-7-------7-----------7---7---7---|
D|-------------7-------7---9---7---|------------------7--9--9----|---------------------7---9---7---|
A|---------------------------------|-----------------------------|---------------------------------|
E|---------------------------------|-----------------------------|---------------------------------|


E|--------------------|---------------------------------|---------------------------|
B|--------------------|---------------------------------|-8-----------------7--8----|
G|-7------------------|-7-----------7-------7-----------|-7-------------------------|
D|-9------------------|-7-----------7-----------9---7---|-------------------8--9----|
A|--------------------|---------------------------------|---------------------------|
E|--------------------|---------------------------------|---------------------------|


E|---------------------------------|---------------------------|---------------------------------|
B|-7-------------------------------|----------------------10---|-7-------------------------------|
G|---------7-----------7-----------|-7-------7-------9---------|-7-----------7-------7-----------|
D|-7-------7-----------7---9-------|-9-------9-------11--------|-------------7-------7---9---7---|
A|---------------------------------|---------10------12--------|---------------------------------|
E|---------------------------------|---------------------------|---------------------------------|


E|-----------------------------|---------------------------------|--------------------|
B|-8----------------------8----|-7---10--------------------------|--------------------|
G|-7---------------------------|-7-------7-----------7---7---7---|-7------------------|
D|------------------7--9--9----|---------------------7---9---7---|-9------------------|
A|-----------------------------|---------------------------------|--------------------|
E|-----------------------------|---------------------------------|--------------------|


E|--------|--------|--------|--------|--------|--------|--------|--------|--------|
B|--------|--------|--------|--------|--------|--------|--------|--------|--------|
G|--------|--------|--------|--------|--------|--------|--------|--------|--------|
D|--------|--------|--------|--------|--------|--------|--------|--------|--------|
A|--------|--------|--------|--------|--------|--------|--------|--------|--------|
E|--------|--------|--------|--------|--------|--------|--------|--------|--------|


E|--------|--------|--------|--------|--------|--------|--------|--------|--------|
B|--------|--------|--------|--------|--------|--------|--------|--------|--------|
G|--------|--------|--------|--------|--------|--------|--------|--------|--------|
D|--------|--------|--------|--------|--------|--------|--------|--------|--------|
A|--------|--------|--------|--------|--------|--------|--------|--------|--------|
E|--------|--------|--------|--------|--------|--------|--------|--------|--------|


E|--------|--------|--------|--------|--------|--------|
B|--------|--------|--------|--------|--------|--------|
G|--------|--------|--------|--------|--------|--------|
D|--------|--------|--------|--------|--------|--------|
A|--------|--------|--------|--------|--------|--------|
E|--------|--------|--------|--------|--------|--------|





Track 7: Gtr III Elec. piano

E|--------|--------|--------|--------|--------|--------|--------|--------|--------|
B|--------|--------|--------|--------|--------|--------|--------|--------|--------|
G|--------|--------|--------|--------|--------|--------|--------|--------|--------|
D|--------|--------|--------|--------|--------|--------|--------|--------|--------|
A|--------|--------|--------|--------|--------|--------|--------|--------|--------|
E|--------|--------|--------|--------|--------|--------|--------|--------|--------|


E|--------|--------|--------|--------|--------|--------|--------|--------|--------|
B|--------|--------|--------|--------|--------|--------|--------|--------|--------|
G|--------|--------|--------|--------|--------|--------|--------|--------|--------|
D|--------|--------|--------|--------|--------|--------|--------|--------|--------|
A|--------|--------|--------|--------|--------|--------|--------|--------|--------|
E|--------|--------|--------|--------|--------|--------|--------|--------|--------|


E|--------|--------|--------|--------|--------|--------|--------|--------|--------|
B|--------|--------|--------|--------|--------|--------|--------|--------|--------|
G|--------|--------|--------|--------|--------|--------|--------|--------|--------|
D|--------|--------|--------|--------|--------|--------|--------|--------|--------|
A|--------|--------|--------|--------|--------|--------|--------|--------|--------|
E|--------|--------|--------|--------|--------|--------|--------|--------|--------|


E|--------|--------|--------|--------|--------|--------|--------|--------|--------|
B|--------|--------|--------|--------|--------|--------|--------|--------|--------|
G|--------|--------|--------|--------|--------|--------|--------|--------|--------|
D|--------|--------|--------|--------|--------|--------|--------|--------|--------|
A|--------|--------|--------|--------|--------|--------|--------|--------|--------|
E|--------|--------|--------|--------|--------|--------|--------|--------|--------|


E|--------|--------|--------|--------|--------|--------|--------|--------|--------|
B|--------|--------|--------|--------|--------|--------|--------|--------|--------|
G|--------|--------|--------|--------|--------|--------|--------|--------|--------|
D|--------|--------|--------|--------|--------|--------|--------|--------|--------|
A|--------|--------|--------|--------|--------|--------|--------|--------|--------|
E|--------|--------|--------|--------|--------|--------|--------|--------|--------|


E|--------|--------|--------|--------|--------|--------|--------|--------|--------|
B|--------|--------|--------|--------|--------|--------|--------|--------|--------|
G|--------|--------|--------|--------|--------|--------|--------|--------|--------|
D|--------|--------|--------|--------|--------|--------|--------|--------|--------|
A|--------|--------|--------|--------|--------|--------|--------|--------|--------|
E|--------|--------|--------|--------|--------|--------|--------|--------|--------|


E|--------|--------|--------|--------|--------|--------|--------|--------|--------|
B|--------|--------|--------|--------|--------|--------|--------|--------|--------|
G|--------|--------|--------|--------|--------|--------|--------|--------|--------|
D|--------|--------|--------|--------|--------|--------|--------|--------|--------|
A|--------|--------|--------|--------|--------|--------|--------|--------|--------|
E|--------|--------|--------|--------|--------|--------|--------|--------|--------|


E|--------|--------|--------|--------|--------|--------|--------|--------|--------|
B|--------|--------|--------|--------|--------|--------|--------|--------|--------|
G|--------|--------|--------|--------|--------|--------|--------|--------|--------|
D|--------|--------|--------|--------|--------|--------|--------|--------|--------|
A|--------|--------|--------|--------|--------|--------|--------|--------|--------|
E|--------|--------|--------|--------|--------|--------|--------|--------|--------|


E|--------|--------|--------|--------|--------|--------|--------|--------|--------|
B|--------|--------|--------|--------|--------|--------|--------|--------|--------|
G|--------|--------|--------|--------|--------|--------|--------|--------|--------|
D|--------|--------|--------|--------|--------|--------|--------|--------|--------|
A|--------|--------|--------|--------|--------|--------|--------|--------|--------|
E|--------|--------|--------|--------|--------|--------|--------|--------|--------|


E|--------|--------|--------|--------|--------|--------|--------|--------|--------|
B|--------|--------|--------|--------|--------|--------|--------|--------|--------|
G|--------|--------|--------|--------|--------|--------|--------|--------|--------|
D|--------|--------|--------|--------|--------|--------|--------|--------|--------|
A|--------|--------|--------|--------|--------|--------|--------|--------|--------|
E|--------|--------|--------|--------|--------|--------|--------|--------|--------|


E|--------|--------|--------|--------|--------|--------|--------|--------|--------|
B|--------|--------|--------|--------|--------|--------|--------|--------|--------|
G|--------|--------|--------|--------|--------|--------|--------|--------|--------|
D|--------|--------|--------|--------|--------|--------|--------|--------|--------|
A|--------|--------|--------|--------|--------|--------|--------|--------|--------|
E|--------|--------|--------|--------|--------|--------|--------|--------|--------|


E|--------|--------|--------|--------|--------|--------|--------|--------|--------|
B|--------|--------|--------|--------|--------|--------|--------|--------|--------|
G|--------|--------|--------|--------|--------|--------|--------|--------|--------|
D|--------|--------|--------|--------|--------|--------|--------|--------|--------|
A|--------|--------|--------|--------|--------|--------|--------|--------|--------|
E|--------|--------|--------|--------|--------|--------|--------|--------|--------|


E|--------|--------|--------|--------|--------|--------|--------|--------|--------|
B|--------|--------|--------|--------|--------|--------|--------|--------|--------|
G|--------|--------|--------|--------|--------|--------|--------|--------|--------|
D|--------|--------|--------|--------|--------|--------|--------|--------|--------|
A|--------|--------|--------|--------|--------|--------|--------|--------|--------|
E|--------|--------|--------|--------|--------|--------|--------|--------|--------|


E|--------|--------|--------|--------|--------|--------|--------|--------|--------|
B|--------|--------|--------|--------|--------|--------|--------|--------|--------|
G|--------|--------|--------|--------|--------|--------|--------|--------|--------|
D|--------|--------|--------|--------|--------|--------|--------|--------|--------|
A|--------|--------|--------|--------|--------|--------|--------|--------|--------|
E|--------|--------|--------|--------|--------|--------|--------|--------|--------|


E|--------|------------------------------|---------------------|-----------------------|
B|--------|--------------6---5-----------|-----------5---------|-----3-----------------|
G|--------|----------------------5---7---|-7-------------------|-4-----------2---------|
D|--------|------------------------------|---------------------|-----------------------|
A|--------|-5----------------------------|---------------------|-----------------------|
E|--------|------------------------------|---------------------|-----------------------|


E|-------9---------|------10-------------------|---------------------------|--------------------|
B|-----------------|------10-------------------|---------------------------|--------------------|
G|------------9----|------11----------10-------|------9-------9----7-------|------7-------------|
D|-----------------|---------------------------|---------------------------|--------------------|
A|-----------------|---------------------------|---------------------------|--------------------|
E|-----------------|---------------------------|---------------------------|--------------------|


E|-----------------|------10----------10--10--10--|---------------------------|-----------------|
B|------1----3-----|------------------------------|---------------------------|-----------------|
G|------2----4-----|------------------10--9-------|------7-------7--------7---|-7---------------|
D|------3----5-----|------------------------------|---------------------------|-----------------|
A|-----------------|------------------------------|---------------------------|-----------------|
E|-----------------|------------------------------|---------------------------|-----------------|


E|-------9---------|---------------------------|---------------------------|--------------------|
B|-----------------|------6-----------6--------|------5-------5----3-------|-----3--------------|
G|------------9----|------7--------------------|---------------------------|--------------------|
D|-----------------|---------------------------|---------------------------|--------------------|
A|-----------------|---------------------------|---------------------------|--------------------|
E|-----------------|---------------------------|---------------------------|--------------------|


E|-----------------|------10-------------------|---------------------------|--------------------|
B|------1----3-----|------10-------------------|---------------------------|--------------------|
G|------2----4-----|------11-------------------|--------------9----7-------|-----7--------------|
D|------3----5-----|-----------------------12--|-12--------------------9---|-9------------------|
A|-----------------|---------------------------|---------------------------|--------------------|
E|-----------------|---------------------------|---------------------------|--------------------|


E|-------9---------|------10----------------------|---------------------------|---------------------------|
B|-----------------|------10----------------------|---------------------------|---------------------------|
G|------------9----|------11----------10--9---7---|------9-------9----7-------|-----7--------7---7--------|
D|-----------------|------------------------------|---------------------------|---------------------------|
A|-----------------|------------------------------|---------------------------|---------------------------|
E|-----------------|------------------------------|---------------------------|---------------------------|


E|-----------------|
B|------1----3-----|
G|------2----4-----|
D|------3----5-----|
A|-----------------|
E|-----------------|





Track 8: Gtr 1 Clean

E|--------|--------|--------|--------|--------|--------|--------|--------|--------|
B|--------|--------|--------|--------|--------|--------|--------|--------|--------|
G|--------|--------|--------|--------|--------|--------|--------|--------|--------|
D|--------|--------|--------|--------|--------|--------|--------|--------|--------|
A|--------|--------|--------|--------|--------|--------|--------|--------|--------|
E|--------|--------|--------|--------|--------|--------|--------|--------|--------|


E|--------|--------|--------|--------|--------|--------|--------|--------|--------|
B|--------|--------|--------|--------|--------|--------|--------|--------|--------|
G|--------|--------|--------|--------|--------|--------|--------|--------|--------|
D|--------|--------|--------|--------|--------|--------|--------|--------|--------|
A|--------|--------|--------|--------|--------|--------|--------|--------|--------|
E|--------|--------|--------|--------|--------|--------|--------|--------|--------|


E|--------|--------|--------|--------|--------|--------|--------|--------|--------|
B|--------|--------|--------|--------|--------|--------|--------|--------|--------|
G|--------|--------|--------|--------|--------|--------|--------|--------|--------|
D|--------|--------|--------|--------|--------|--------|--------|--------|--------|
A|--------|--------|--------|--------|--------|--------|--------|--------|--------|
E|--------|--------|--------|--------|--------|--------|--------|--------|--------|


E|--------|--------|--------|--------|--------|--------|--------|--------|--------|
B|--------|--------|--------|--------|--------|--------|--------|--------|--------|
G|--------|--------|--------|--------|--------|--------|--------|--------|--------|
D|--------|--------|--------|--------|--------|--------|--------|--------|--------|
A|--------|--------|--------|--------|--------|--------|--------|--------|--------|
E|--------|--------|--------|--------|--------|--------|--------|--------|--------|


E|--------|--------|--------|--------|--------|--------|--------|--------|--------|
B|--------|--------|--------|--------|--------|--------|--------|--------|--------|
G|--------|--------|--------|--------|--------|--------|--------|--------|--------|
D|--------|--------|--------|--------|--------|--------|--------|--------|--------|
A|--------|--------|--------|--------|--------|--------|--------|--------|--------|
E|--------|--------|--------|--------|--------|--------|--------|--------|--------|


E|--------|--------|--------|--------|--------|--------|--------|--------|--------|
B|--------|--------|--------|--------|--------|--------|--------|--------|--------|
G|--------|--------|--------|--------|--------|--------|--------|--------|--------|
D|--------|--------|--------|--------|--------|--------|--------|--------|--------|
A|--------|--------|--------|--------|--------|--------|--------|--------|--------|
E|--------|--------|--------|--------|--------|--------|--------|--------|--------|


E|--------|--------|--------|--------|--------|--------|--------|--------|--------|
B|--------|--------|--------|--------|--------|--------|--------|--------|--------|
G|--------|--------|--------|--------|--------|--------|--------|--------|--------|
D|--------|--------|--------|--------|--------|--------|--------|--------|--------|
A|--------|--------|--------|--------|--------|--------|--------|--------|--------|
E|--------|--------|--------|--------|--------|--------|--------|--------|--------|


E|--------|--------|--------|--------|--------|--------|--------|--------|--------|
B|--------|--------|--------|--------|--------|--------|--------|--------|--------|
G|--------|--------|--------|--------|--------|--------|--------|--------|--------|
D|--------|--------|--------|--------|--------|--------|--------|--------|--------|
A|--------|--------|--------|--------|--------|--------|--------|--------|--------|
E|--------|--------|--------|--------|--------|--------|--------|--------|--------|


E|--------|--------|--------|--------|--------|--------|--------|--------|--------|
B|--------|--------|--------|--------|--------|--------|--------|--------|--------|
G|--------|--------|--------|--------|--------|--------|--------|--------|--------|
D|--------|--------|--------|--------|--------|--------|--------|--------|--------|
A|--------|--------|--------|--------|--------|--------|--------|--------|--------|
E|--------|--------|--------|--------|--------|--------|--------|--------|--------|


E|--------|--------|--------|--------|--------|--------|--------|--------|--------|
B|--------|--------|--------|--------|--------|--------|--------|--------|--------|
G|--------|--------|--------|--------|--------|--------|--------|--------|--------|
D|--------|--------|--------|--------|--------|--------|--------|--------|--------|
A|--------|--------|--------|--------|--------|--------|--------|--------|--------|
E|--------|--------|--------|--------|--------|--------|--------|--------|--------|


E|--------|--------|--------|--------|--------|--------|--------|--------|--------|
B|--------|--------|--------|--------|--------|--------|--------|--------|--------|
G|--------|--------|--------|--------|--------|--------|--------|--------|--------|
D|--------|--------|--------|--------|--------|--------|--------|--------|--------|
A|--------|--------|--------|--------|--------|--------|--------|--------|--------|
E|--------|--------|--------|--------|--------|--------|--------|--------|--------|


E|--------|--------|--------|--------|--------|--------|--------|--------|--------|
B|--------|--------|--------|--------|--------|--------|--------|--------|--------|
G|--------|--------|--------|--------|--------|--------|--------|--------|--------|
D|--------|--------|--------|--------|--------|--------|--------|--------|--------|
A|--------|--------|--------|--------|--------|--------|--------|--------|--------|
E|--------|--------|--------|--------|--------|--------|--------|--------|--------|


E|--------|--------|--------|--------|--------|--------|--------|--------|--------|
B|--------|--------|--------|--------|--------|--------|--------|--------|--------|
G|--------|--------|--------|--------|--------|--------|--------|--------|--------|
D|--------|--------|--------|--------|--------|--------|--------|--------|--------|
A|--------|--------|--------|--------|--------|--------|--------|--------|--------|
E|--------|--------|--------|--------|--------|--------|--------|--------|--------|


E|--------|--------|--------|--------|--------|--------|--------|--------|--------|
B|--------|--------|--------|--------|--------|--------|--------|--------|--------|
G|--------|--------|--------|--------|--------|--------|--------|--------|--------|
D|--------|--------|--------|--------|--------|--------|--------|--------|--------|
A|--------|--------|--------|--------|--------|--------|--------|--------|--------|
E|--------|--------|--------|--------|--------|--------|--------|--------|--------|


E|--------|---------------------------------|---------------------------|---------------------------------|
B|--------|---------------------------------|-8-----------------7--8----|-7-------------------------------|
G|--------|-7-----------7-------7-----------|-7-------------------------|---------7-----------7-----------|
D|--------|-7-----------7-----------9---7---|-------------------8--9----|-7-------7-----------7---9-------|
A|--------|---------------------------------|---------------------------|---------------------------------|
E|--------|---------------------------------|---------------------------|---------------------------------|


E|---------------------------|---------------------------------|-----------------------------|
B|----------------------10---|-7-------------------------------|-8----------------------8----|
G|-7-------7-------9---------|-7-----------7-------7-----------|-7---------------------------|
D|-9-------9-------11--------|-------------7-------7---9---7---|------------------7--9--9----|
A|---------10------12--------|---------------------------------|-----------------------------|
E|---------------------------|---------------------------------|-----------------------------|


E|---------------------------------|--------------------|---------------------------------|
B|-7---10--------------------------|--------------------|---------------------------------|
G|-7-------7-----------7---7---7---|-7------------------|-7-----------7-------7-----------|
D|---------------------7---9---7---|-9------------------|-7-----------7-----------9---7---|
A|---------------------------------|--------------------|---------------------------------|
E|---------------------------------|--------------------|---------------------------------|


E|---------------------------|---------------------------------|---------------------------|
B|-8-----------------7--8----|-7-------------------------------|----------------------10---|
G|-7-------------------------|---------7-----------7-----------|-7-------7-------9---------|
D|-------------------8--9----|-7-------7-----------7---9-------|-9-------9-------11--------|
A|---------------------------|---------------------------------|---------10------12--------|
E|---------------------------|---------------------------------|---------------------------|


E|---------------------------------|-----------------------------|---------------------------------|
B|-7-------------------------------|-8----------------------8----|-7---10--------------------------|
G|-7-----------7-------7-----------|-7---------------------------|-7-------7-----------7---7---7---|
D|-------------7-------7---9---7---|------------------7--9--9----|---------------------7---9---7---|
A|---------------------------------|-----------------------------|---------------------------------|
E|---------------------------------|-----------------------------|---------------------------------|


E|--------------------|---------------------------------|---------------------------|
B|--------------------|---------------------------------|-8-----------------7--8----|
G|-7------------------|-7-----------7-------7-----------|-7-------------------------|
D|-9------------------|-7-----------7-----------9---7---|-------------------8--9----|
A|--------------------|---------------------------------|---------------------------|
E|--------------------|---------------------------------|---------------------------|


E|---------------------------------|---------------------------|---------------------------------|
B|-7-------------------------------|----------------------10---|-7-------------------------------|
G|---------7-----------7-----------|-7-------7-------9---------|-7-----------7-------7-----------|
D|-7-------7-----------7---9-------|-9-------9-------11--------|-------------7-------7---9---7---|
A|---------------------------------|---------10------12--------|---------------------------------|
E|---------------------------------|---------------------------|---------------------------------|


E|-----------------------------|---------------------------------|--------------------|
B|-8----------------------8----|-7---10--------------------------|--------------------|
G|-7---------------------------|-7-------7-----------7---7---7---|-7------------------|
D|------------------7--9--9----|---------------------7---9---7---|-9------------------|
A|-----------------------------|---------------------------------|--------------------|
E|-----------------------------|---------------------------------|--------------------|





Track 9: Untitled

G|--------------------|---------------------------|---------------------------|---------------------------|
D|--------------------|---------------------------|-----------------------4---|---------------------------|
A|-4------------------|---------------------------|-2-------------2---4-------|---------------------------|
E|--------------------|-2---------4---5-------2---|-----------4---------------|-2---------4---5-------2---|


G|---------------------------|---------------------------|---------------------------|
D|---------------------------|---------------------------|---------------------------|
A|-2-------------2-------4---|-----------0---0---4---0---|-5---------------------4---|
E|-------4---4---------------|-2-------------------------|-----------3---3-----------|


G|-----------------------|---------------------|---------------------------|---------------------------|
D|-----------------------|---------------------|---------------------------|---------------------------|
A|-------4---4---4---4---|-0-----0---5---------|---------------------------|-------------4---5---------|
E|-2---------------------|---------------------|-2---2-------2---3---------|-5---5---------------------|


G|---------------------------|---------------------------|---------------------------|
D|---------------------------|-0---0---------------------|---------------------------|
A|---------------------------|---------2---0---5---------|---------------------------|
E|-2---2-------2---3---------|---------------------------|-2---2-------2---3---------|


G|---------------------------|---------------------------|------------------------|
D|---------------------------|---------------------------|------------------------|
A|-----------------5---------|---------------------------|-0----2---0---5---------|
E|-5---5---7---5-------------|-2---2-------2---3----3----|------------------------|


G|---------------------------|---------------------------|---------------------------|
D|---------------------------|---------------------------|---------------------------|
A|---------------------------|-------------4---5---------|---------------------------|
E|-2---2-------2---3---------|-5---5---------------------|-2---2-------2---3---------|


G|---------------------------|---------------------------|---------------------------|
D|---------0---0-------------|---------------------------|---------------------------|
A|-0---0-----------5---------|---------------------------|---------------------------|
E|---------------------------|-2---2-------2---3---------|-5---5-------6---7-----7---|


G|---------------------|---------------------|------------------------------|---------------------------|
D|---------------------|---------------------|------------------------------|---------------------------|
A|-4-----4-------------|-4-----4-------------|-----------------2------------|---------5---4-------------|
E|-----------3-----3---|-----------2---------|-4---5---5---2------------2---|-4---5-----------2---------|


G|------------------------------|---------------------------|---------------------------|
D|------------------------------|-------------4-------------|---------------------------|
A|-----------------2--------2---|-----2---4-----------------|---------4-------5-----5---|
E|-4---5---5---2----------------|-4---------------2---------|-5---5-------5-------------|


G|--------------------|---------------------------------|---------------------------|
D|--------------------|---------------------------------|---------------------------|
A|------5-------------|-4---4-------4-------------------|-5-------------------------|
E|-3--------3---2-----|-----------------5---5---7---5---|-----------2---2-------2---|


G|---------------------------|---------------------------|---------------------------|
D|---------------------------|---------------------------|-----------0---0-----------|
A|---------------------------|-5-------------------------|-------------------2---0---|
E|-3---------5---5---7---5---|-----------2---2-------2---|-3-------------------------|


G|---------------------------|------------------------------|---------------------------|
D|---------------------------|------------------------------|---------------------------|
A|-5-------------------------|------------------------------|-5-------------------------|
E|-----------2---2-------2---|-3--------3---5-------5---7---|-----------2---2-------2---|


G|------------------------|---------------------------|---------------------------|
D|------------------------|---------------------------|---------------------------|
A|-----------0----2---2---|-5-------------------------|-----------------------4---|
E|-3----3-----------------|-----------2---2-------2---|-3---------5---5-----------|


G|---------------------------|------------------------|---------------------------|
D|---------------------------|------------------------|---------------------------|
A|-5-------------------------|-----------0----4---0---|-5-------------------------|
E|-----------2---2-------2---|-3----------------------|-----------2---2-------2---|


G|---------------------------|---------------------|---------------------|---------------------------|
D|---------------------------|---------------------|---------------------|---------------------------|
A|---------------------------|-----------4-----4---|-----------4-----4---|---------------------------|
E|-3---------5---5-------6---|-7-----7-------------|-3-----3-------------|-2-----2---4---5---5---2---|


G|---------------------------|---------------------------|---------------------------|
D|-----------------------4---|---------------------------|---------------------------|
A|-2-----2-------2---4-------|---------------------------|-2-----2-----------2---4---|
E|-----------4---------------|-2-----2---4---5---5---2---|-----------4---------------|


G|---------------------------|---------------------------|---------------------------|
D|---------------------------|---------------------------|---------------------------|
A|-------------------4-------|-5-----5-------------------|-----------4---4-------4---|
E|-2---------5---5-------5---|-----------3---3-------3---|-2-----2-------------------|


G|------------------------|---------------------------------|---------------------------|
D|------------------------|-----------------2---2-----------|-2-------2---0-------------|
A|--------------7-----7---|-2---2-------2---------------2---|-----------------3-----3---|
E|-5---5----5-------------|---------------------------------|---------------------------|


G|------------------------|-----------------|-------------3---------|-----3---3---3---------|
D|------------------------|-----------------|-3---3---3-------------|-3---------------------|
A|---------1----3---------|-3---------1-----|-----------------1-----|-----------------0-----|
E|-3---3--------------3---|------1----------|-----------------------|-----------------------|


G|-------------2-------------|-----2---2--------------|---------------------------|
D|-2---2---2-----------------|-2------------0---------|---------------------------|
A|-----------------0-----0---|------------------------|---------------------------|
E|---------------------------|------------------------|-2---2-------2---3---------|


G|---------------------------|---------------------------|---------------------------|
D|---------------------------|---------------------------|---------------------------|
A|-------------4---5---------|---------------------------|-----4-------5---5---------|
E|-5---5---------------------|-2---2-------2---3---------|---------5-----------------|


G|---------------------------|---------------------------|---------------------------|
D|---------------------------|---------------------------|---------------------------|
A|---------------------------|-------------7---5---------|---------------------------|
E|-2---2-------2---3---------|-5---5---------------------|-2---2-------2---3----3----|


G|------------------------|---------------------------|---------------------------|
D|------------------------|---------------------------|---------------------------|
A|----------4---5---------|---------------------------|-------------4---5---------|
E|-5----7-----------------|-2---2-------2---3---------|-5---5---------------------|


G|---------------------------|---------------------------|---------------------------|
D|---------------------------|---------------------------|---------------------------|
A|---------------------------|-5---5-----------5---------|---------------------------|
E|-2---2-------2---3---------|---------7---5-------------|-2---2-------2---3---------|


G|---------------------------|---------------------------|---------------------------|
D|---------------------------|---------------------------|---------------------------|
A|-------------4---5---------|---------------------------|-------------4---5---------|
E|-5---5---------------------|-2---2-------2---3---------|-5---5---7-----------------|


G|---------------------------|---------------------------|---------------------------|
D|---------------------------|---------------------------|---------------------------|
A|---------------------------|---------4---4---5---------|---------------------------|
E|-2---2-------2---3---------|-5---5---------------------|-2---2-------2---3---------|


G|---------------------------|---------------------------|---------------------------|
D|---------------------------|---------------------------|---------------------------|
A|-5---5-----------5---------|-----------------------2---|-0---0---4---4---5---------|
E|---------7---5-------------|-2---2-------2---3---------|---------------------------|


G|---------------------------|---------------------------|-----------------------|
D|---------------------------|---------------------------|-----------------------|
A|---------------------------|---------4-------5---------|-----------------------|
E|-2---2-------2---3-----3---|-5---5-------5-------------|-2---2-------2---3-----|


G|-----------------------|---------------------------|---------------------------|
D|-----------------------|---------------------------|---------------------------|
A|---------4---4---5-----|---------------------------|-5---5-----------5---------|
E|-5---5-----------------|-2---2-------2---3-----3---|---------7---5-------------|


G|---------------------------|---------------------------|---------------------------|
D|---------------------------|---------------------------|---------------------------|
A|---------------------------|-------------4---5---------|---------------------------|
E|-2---2-------2---3---------|-5---5---------------------|-2---2-------2---3---------|


G|------------------------------|---------------------------|---------------------------|
D|------------------------------|---------------------------|---------------------------|
A|-------------4---5---5--------|---------------------------|---------4---7---5---------|
E|-5---5---5--------------------|-2---2-------2---3---------|-5---5---------------------|


G|---------------------------|------------------------------|---------------------------|
D|---------------------------|------------------------------|---------------------------|
A|---------------------------|-5---5-----------5---5--------|---------------------------|
E|-2---2-------2---3---------|---------7---5----------------|-2---2-------2---3---------|


G|---------------------------|---------------------|---------------------|---------------------------|
D|---------------------------|---------------------|---------------------|---------------------------|
A|---------------------------|-4-----4-------------|-4-----4-------------|-----------------2---------|
E|-5---5---5---5---7-----7---|-----------3-----3---|-----------2---------|-4---5---5---2---------2---|


G|---------------------------|---------------------------|---------------------------|
D|-------------4-------------|---------------------------|---------------------------|
A|-----2---4-----------------|-----------------2---------|---------2---4-------------|
E|-4---------------2---------|-4---5---5---2---------2---|-4---4-----------2---------|


G|---------------------------|-----------------------|------------------------------|
D|---------------------------|-----------------------|------------------------------|
A|-----------------5---------|---------5-------------|-4---4---4---4---0---0----0---|
E|-5---5---5---5-------------|-3---3-------3---2-----|------------------------------|


G|---------------------------|---------------------------|---------------------------|
D|-0-------------------------|---------------------------|---------------------------|
A|---------------------------|-----------------------4---|-5-------------------------|
E|-----------2---2-------2---|-3---------5---5-----------|-----------2---2-------2---|


G|---------------------------|---------------------------|------------------------------|
D|---------------------------|---------------------------|------------------------------|
A|-----------4---5---5-------|-5-------------------------|----------2---0---0---4---4---|
E|-3---------------------5---|-----------2---2-------2---|-3----------------------------|


G|---------------------------|---------------------|---------------------------|---------------------------|
D|---------------------------|------5----7----7----|---------------------------|---------------------------|
A|-5-------------------------|---------------------|-5-------------------------|-------------------4---4---|
E|-----------2---2-------2---|-3--------------5----|-----------2---2-------2---|-3---------5---5-----------|


G|---------------------------|---------------------------|---------------------------|
D|---------------------------|---------------------------|---------------------------|
A|-5-------------------------|-----------4---4-----------|-5-------------------------|
E|-----------2---2-------2---|-3---------------------5---|-----------2---2-------2---|


G|---------------------------|---------------------------|---------------------------|
D|---------------------------|---------------------------|---------------------------|
A|---------------------------|-5-------------------------|-----------2---0---4---0---|
E|-3---------5---5-------7---|-----------2---2-------2---|-3-------------------------|


G|---------------------------|---------------------------|---------------------------|
D|---------------------------|---------------------------|---------------------------|
A|-5-------------------------|-----------------------4---|-5-------------------------|
E|-----------2---2-------2---|-3---------5---5-----------|-----------2---2-------2---|


G|---------------------------|---------------------------|---------------------------|
D|-----------12--12----------|---------------------------|---------------------------|
A|-------------------12--0---|-5-------------------------|-----------------------4---|
E|-3-------------------------|-----------2---2-------2---|-3---------5---5-----------|


G|---------------------------|------------------------|---------------------------|
D|---------------------------|------------------------|---------------------------|
A|-5-------------------------|----------------3---4---|-5-------------------------|
E|-----------2---2-------2---|-3----3----5------------|-----------2---2-------2---|


G|---------------------------|---------------------------|---------------------------|
D|---------------------------|---------------------------|-----------12--12--12------|
A|-----------------------7---|-5-------------------------|-----------------------0---|
E|-3---------5---5-----------|-----------2---2-------2---|-3-------------------------|


G|---------------------------|------------------------------|---------------------------|
D|---------------------------|------------------------------|---------------------------|
A|-5-------------------------|--------------------------4---|-5-------------------------|
E|-----------2---2-------2---|-3--------3---5---5---7-------|-----------2---2-------2---|


G|------------------------|---------------------------|---------------------------|
D|------------------------|---------------------------|---------------------------|
A|------------------------|-5-------------------------|-----------------------4---|
E|-3----3----5---5--------|-----------2---2-------2---|-3---------5---5-----------|


G|---------------------------|---------------------------|---------------------------|
D|---------------------------|-----------12--12--12------|---------------------------|
A|-5-------------------------|-----------------------0---|-5-------------------------|
E|-----------2---2-------2---|-3-------------------------|-----------2---2-------2---|


G|---------------------------|---------------------------|------------------------|
D|---------------------------|---------------------------|------------------------|
A|-----------------------4---|-5-------------------------|----------------3---4---|
E|-3---------5---5-----------|-----------2---2-------2---|-3----3----5------------|