Site menu:

    

Browse: 0-9 A B C D E F G H I J K L N O P Q R S T U V W X Y Z

steely dan - aja:



Title: Aja
Artist: 
Album: Aja
Author: Donald Fagan and Walter Becker


Track 1: Acoustic piano arranged for guitar

E|---------------14--14-14-|-14---------------------|--------|--------------------|
B|-4-----------------14-16-|-16---------------------|--------|--------------------|
G|-6-----------------------|-------15--15-------6---|-6------|-6------------------|
D|-8---------16------------|---------------16-------|-8------|-8---------4--------|
A|-------------------------|------------------------|--------|--------------------|
E|-7-----------------------|------------------------|-7------|-7-------------2----|


E|-----------14------------|--------------------------|--------|-----------------------|
B|-4--------------14-13-12-|-11----7---2----4---------|--------|-----------------------|
G|-6-----------------------|-----------1----3----1----|-3------|-3---------------------|
D|-8-----------------------|--------------------------|--------|-----------------------|
A|-------------------------|--------------------------|--------|-----------------------|
E|-7-----------------------|--------------------------|--------|-----------2---2---2---|


E|--------|--------|--------|--------|--------|--------|--------|--------|--------|
B|--------|--------|--------|--------|--------|--------|--------|--------|--------|
G|--------|--------|--------|--------|--------|--------|--------|--------|--------|
D|--------|--------|--------|--------|--------|--------|--------|--------|--------|
A|--------|--------|--------|--------|--------|--------|--------|--------|--------|
E|--------|--------|--------|--------|--------|--------|--------|--------|--------|


E|--------|-------------|---------------------|---------------------|----------------------|
B|--------|-7------5----|-3----2----3---5-----|-3-----2---2----0----|-0-----0----2----3----|
G|--------|-7------6----|-4----2----4---6-----|-4-----2---2----0----|-0-----0----2----4----|
D|--------|-------------|---------------------|---------------------|----------------------|
A|--------|-------------|---------------------|---------------------|----------------------|
E|--------|-------------|---------------------|---------------------|----------------------|


E|-------------|---------------------|-----------------------|-------------------------|
B|-5-----2-----|------4----5-----4---|-4-----1---2-------4---|-----2-------1--2--1-----|
G|-6-----3-----|------5----6-----5---|-5-----3---3-------3---|-----3-------------3-----|
D|-------------|---------------------|-------4---4-------4---|-----4-------------4-----|
A|-------------|---------------------|-----------------------|-------------------------|
E|-------------|---------------------|-----------------------|-------------------------|


E|------------10--14--|-14--10-------------------|------------5---------|-------------|
B|-7------------------|---------------------7----|-7-----5----7----7----|-5------5----|
G|-7-----7--------14--|-14--11---------7----7----|-7-----5---------7----|-5------5----|
D|-------9------------|-----------9----9---------|----------------------|-------------|
A|--------------------|-----------10-------------|----------------------|-------------|
E|--------------------|--------------------------|----------------------|-------------|


E|--------|--------|--------|-------------|--------------14--9--11-11---|---------------------------|
B|--------|--------|--------|--------2----|----------9-------9--9--9----|-----9---9---7-------------|
G|--------|--------|--------|--------3----|-----------------------------|-----8---8---6----6---8----|
D|--------|--------|--------|-------------|-----------------------------|----------------------8----|
A|--------|--------|--------|--------2----|-----------------------------|---------------------------|
E|--------|--------|--------|-------------|-----------------------------|----------------------7----|


E|-------------|------------------------------|------------------------|------------------------|
B|-------------|----------------------4-------|-----4---4-----4---4----|-4----2---4----5---5----|
G|--------8----|----------------------3---4---|-3---1---1-----3---3----|-4-------------6---6----|
D|--------8----|------------------------------|------------------------|---------------7---7----|
A|-------------|------------------------------|------------------------|------------------------|
E|--------7----|----------2---2---2-----------|------------------------|---------------7---7----|


E|-----------------|-----------------|-------------|--------------------|-------------|
B|-------5----4----|------0-----5----|--------5----|-----------3---5----|--------5----|
G|-------6----4----|------1-----6----|--------6----|---------------4----|--------4----|
D|-------7----4----|------4-----7----|--------7----|---------------5----|--------5----|
A|-----------------|-----------------|-------------|---------------3----|--------3----|
E|-----------------|------------7----|--------7----|--------------------|-------------|


E|----------3-------------|-------------|---------------------------|-----------------|
B|------5--------3---5----|--------5----|-----5----------------7----|-------5----3----|
G|------4------------4----|--------4----|---------4------------7----|-------6----4----|
D|------5------------4----|--------4----|-------------4-------------|-----------------|
A|------3------------5----|--------5----|-----------------0---------|-----------------|
E|------------------------|-------------|---------------------------|-----------------|


E|---------------------|------------------------|--------------------------|-----------------|
B|-2----3---5-----3----|-----2---2----0----0----|------0----2----3----5----|------2----------|
G|-2----4---6-----4----|-----2---2----0----0----|------0----2----4----6----|------3----------|
D|---------------------|------------------------|--------------------------|-----------------|
A|---------------------|------------------------|--------------------------|-----------------|
E|---------------------|------------------------|--------------------------|-----------------|


E|---------------------|------------------------------|----------------------|-----------10--14--14--10--|
B|-4----5-----4---4----|------1---2-------4-------2---|-----1--2--1-----7----|---------------------------|
G|-5----6-----5---5----|------3---3-------3-------3---|-----------3-----7----|------7--------14--14--11--|
D|---------------------|------4---4-------4-------4---|-----------4----------|------9--------------------|
A|---------------------|------------------------------|----------------------|---------------------------|
E|---------------------|------------------------------|----------------------|---------------------------|


E|--------------------------|-----------5--------------|-----------------|--------|
B|----------------7----7----|------5----7----7----5----|-------5---------|--------|
G|-----------7----7----7----|------5---------7----5----|-------5---------|--------|
D|------9----9--------------|--------------------------|-----------------|--------|
A|------10------------------|--------------------------|-----------------|--------|
E|--------------------------|--------------------------|-----------------|--------|


E|--------|--------|--------|--------|--------|--------|--------|--------|--------|
B|--------|--------|--------|--------|--------|--------|--------|--------|--------|
G|--------|--------|--------|--------|--------|--------|--------|--------|--------|
D|--------|--------|--------|--------|--------|--------|--------|--------|--------|
A|--------|--------|--------|--------|--------|--------|--------|--------|--------|
E|--------|--------|--------|--------|--------|--------|--------|--------|--------|


E|--------|--------|--------|--------|--------|--------|--------|--------|--------|
B|--------|--------|--------|--------|--------|--------|--------|--------|--------|
G|--------|--------|--------|--------|--------|--------|--------|--------|--------|
D|--------|--------|--------|--------|--------|--------|--------|--------|--------|
A|--------|--------|--------|--------|--------|--------|--------|--------|--------|
E|--------|--------|--------|--------|--------|--------|--------|--------|--------|


E|--------|--------|--------|--------|--------|--------|--------|--------|--------|
B|--------|--------|--------|--------|--------|--------|--------|--------|--------|
G|--------|--------|--------|--------|--------|--------|--------|--------|--------|
D|--------|--------|--------|--------|--------|--------|--------|--------|--------|
A|--------|--------|--------|--------|--------|--------|--------|--------|--------|
E|--------|--------|--------|--------|--------|--------|--------|--------|--------|


E|--------|--------|--------|--------|--------|--------|--------|--------|--------|
B|--------|--------|--------|--------|--------|--------|--------|--------|--------|
G|--------|--------|--------|--------|--------|--------|--------|--------|--------|
D|--------|--------|--------|--------|--------|--------|--------|--------|--------|
A|--------|--------|--------|--------|--------|--------|--------|--------|--------|
E|--------|--------|--------|--------|--------|--------|--------|--------|--------|


E|--------|--------|--------|--------|--------|--------|--------|--------|--------|
B|--------|--------|--------|--------|--------|--------|--------|--------|--------|
G|--------|--------|--------|--------|--------|--------|--------|--------|--------|
D|--------|--------|--------|--------|--------|--------|--------|--------|--------|
A|--------|--------|--------|--------|--------|--------|--------|--------|--------|
E|--------|--------|--------|--------|--------|--------|--------|--------|--------|


E|--------|--------|--------|--------|--------|--------|--------|--------|--------|
B|--------|--------|--------|--------|--------|--------|--------|--------|--------|
G|--------|--------|--------|--------|--------|--------|--------|--------|--------|
D|--------|--------|--------|--------|--------|--------|--------|--------|--------|
A|--------|--------|--------|--------|--------|--------|--------|--------|--------|
E|--------|--------|--------|--------|--------|--------|--------|--------|--------|


E|--------|--------|--------|--------|--------|--------|--------|--------|--------|
B|--------|--------|--------|--------|--------|--------|--------|--------|--------|
G|--------|--------|--------|--------|--------|--------|--------|--------|--------|
D|--------|--------|--------|--------|--------|--------|--------|--------|--------|
A|--------|--------|--------|--------|--------|--------|--------|--------|--------|
E|--------|--------|--------|--------|--------|--------|--------|--------|--------|


E|--------|--------|--------|--------|--------|--------|--------|--------|--------|
B|--------|--------|--------|--------|--------|--------|--------|--------|--------|
G|--------|--------|--------|--------|--------|--------|--------|--------|--------|
D|--------|--------|--------|--------|--------|--------|--------|--------|--------|
A|--------|--------|--------|--------|--------|--------|--------|--------|--------|
E|--------|--------|--------|--------|--------|--------|--------|--------|--------|


E|--------|--------|--------|--------|--------|--------|--------|--------|--------|
B|--------|--------|--------|--------|--------|--------|--------|--------|--------|
G|--------|--------|--------|--------|--------|--------|--------|--------|--------|
D|--------|--------|--------|--------|--------|--------|--------|--------|--------|
A|--------|--------|--------|--------|--------|--------|--------|--------|--------|
E|--------|--------|--------|--------|--------|--------|--------|--------|--------|


E|--------|--------|--------|--------|-------11-----------|-10--------------------|
B|--------|--------|--------|--------|-----------9--------|-------6---------------|
G|--------|--------|--------|--------|---------------8----|-----------6-------6---|
D|--------|--------|--------|--------|--------------------|---------------6-------|
A|--------|--------|--------|--------|--------------------|-----------------------|
E|--------|--------|--------|--------|--------------------|-----------------------|


E|--------------------------0---|-0-----0-----|--------|--------|--------|--------|
B|-5---------------9--------0---|-0-----0-----|--------|--------|--------|--------|
G|-----5-------5---6--------2---|-2-----2-----|--------|--------|--------|--------|
D|---------5-------8--------4---|-4-----4-----|--------|--------|--------|--------|
A|------------------------------|-------------|--------|--------|--------|--------|
E|------------------------------|-------------|--------|--------|--------|--------|


E|--------|--------|--------|--------|--------|--------|--------|--------|--------|
B|--------|--------|--------|--------|--------|--------|--------|--------|--------|
G|--------|--------|--------|--------|--------|--------|--------|--------|--------|
D|--------|--------|--------|--------|--------|--------|--------|--------|--------|
A|--------|--------|--------|--------|--------|--------|--------|--------|--------|
E|--------|--------|--------|--------|--------|--------|--------|--------|--------|


E|-11-----------10----|---------------------------------|----------0---0-----|-0------|
B|-----9--------------|-6---------------5---------------|-9--------0---0-----|-0------|
G|---------8----------|-----6-------6-------5-------5---|-6--------2---2-----|-2------|
D|--------------------|---------6---------------5-------|-8--------4---4-----|-4------|
A|--------------------|---------------------------------|--------------------|--------|
E|--------------------|---------------------------------|--------------------|--------|


E|-3------2----|-------2---------7--7----|--------------------|--------------14--14-14-14---|
B|-6------5----|-------5------10---------|---------------4----|------------------14-16-16---|
G|-5------4----|-------4---9-------------|---------------6----|-----------------------------|
D|-------------|-------------------------|---------------8----|----------16-----------------|
A|-------------|-------------------------|--------------------|-----------------------------|
E|-------------|-------------------------|-----------2---7----|-----------------------------|


E|---------------------------|-------------|------------------------|----------14-----------------|
B|---------------------------|-------------|-------------------4----|---------------14-13-12-11---|
G|-----15--15-------6---6----|--------6----|-------------------6----|-----------------------------|
D|-------------16-------8----|--------8----|----------4--------8----|-----------------------------|
A|---------------------------|-------------|------------------------|-----------------------------|
E|----------------------7----|--------7----|--------------2----7----|-----------------------------|


E|-----------------------------|-------------|---------------------------|--------|
B|-----7---2----4--------------|-------------|---------------------------|--------|
G|---------1----3----1----3----|--------3----|---------------------------|--------|
D|-----------------------------|-------------|---------------------------|--------|
A|-----------------------------|-------------|---------------------------|--------|
E|-----------------------------|-------------|----------2---2---2--------|--------|


E|--------|--------|--------|--------|--------|--------|--------|--------|-------------|
B|--------|--------|--------|--------|--------|--------|--------|--------|--------7----|
G|--------|--------|--------|--------|--------|--------|--------|--------|--------7----|
D|--------|--------|--------|--------|--------|--------|--------|--------|-------------|
A|--------|--------|--------|--------|--------|--------|--------|--------|-------------|
E|--------|--------|--------|--------|--------|--------|--------|--------|-------------|


E|-----------------|---------------------|------------------------|--------------------------|
B|-------5----3----|-2----3---5-----3----|-----2---2----0----0----|------0----2----3----5----|
G|-------6----4----|-2----4---6-----4----|-----2---2----0----0----|------0----2----4----6----|
D|-----------------|---------------------|------------------------|--------------------------|
A|-----------------|---------------------|------------------------|--------------------------|
E|-----------------|---------------------|------------------------|--------------------------|


E|-----------------|---------------------|------------------------------|----------------------|
B|------2----------|-4----5-----4---4----|------1---2-------4-------2---|-----1--2--1-----7----|
G|------3----------|-5----6-----5---5----|------3---3-------3-------3---|-----------3-----7----|
D|-----------------|---------------------|------4---4-------4-------4---|-----------4----------|
A|-----------------|---------------------|------------------------------|----------------------|
E|-----------------|---------------------|------------------------------|----------------------|


E|-----------10--14--14--10--|--------------------------|-----------5--------------|
B|---------------------------|----------------7----7----|------5----7----7----5----|
G|------7--------14--14--11--|-----------7----7----7----|------5---------7----5----|
D|------9--------------------|------9----9--------------|--------------------------|
A|---------------------------|------10------------------|--------------------------|
E|---------------------------|--------------------------|--------------------------|


E|-----------------|--------|--------|--------|--------|--------|--------|--------|
B|-------5---------|--------|--------|--------|--------|--------|--------|--------|
G|-------5---------|--------|--------|--------|--------|--------|--------|--------|
D|-----------------|--------|--------|--------|--------|--------|--------|--------|
A|-----------------|--------|--------|--------|--------|--------|--------|--------|
E|-----------------|--------|--------|--------|--------|--------|--------|--------|


E|--------|--------|--------|--------|--------|--------|--------|--------|--------|
B|--------|--------|--------|--------|--------|--------|--------|--------|--------|
G|--------|--------|--------|--------|--------|--------|--------|--------|--------|
D|--------|--------|--------|--------|--------|--------|--------|--------|--------|
A|--------|--------|--------|--------|--------|--------|--------|--------|--------|
E|--------|--------|--------|--------|--------|--------|--------|--------|--------|


E|--------|--------|--------|--------|
B|--------|--------|--------|--------|
G|--------|--------|--------|--------|
D|--------|--------|--------|--------|
A|--------|--------|--------|--------|
E|--------|--------|--------|--------|





Track 2: elec piano arranged for guitar

E|--------|--------|---------14----------13-------|-----13----------------|-------------------14--|
B|--------|--------|------------------------------|-------------11--11----|-4-----4-------14------|
G|--------|--------|-----15------15--13-------13--|-13------11------------|-6-----6---13----------|
D|--------|--------|------------------------------|-----------------------|-8-----8---------------|
A|--------|--------|------------------------------|-----------------------|-----------------------|
E|--------|--------|------------------------------|-----------------------|-7-----7---------------|


E|-------------4---4------------|--------|---------------------|--------|--------|
B|-14-16---16--2---2---4--------|-2------|-2-------------------|--------|--------|
G|-15-15---15----------1--------|-3------|-3-------------------|--------|--------|
D|------------------------------|--------|---------------------|--------|--------|
A|------------------------------|-2------|-2-----4---4---6-----|--------|--------|
E|--------------------------2---|--------|---------------------|--------|--------|


E|-----12-10-9---------|--------|----------12-10-9----------------------------|--------|
B|--------------10-----|--------|-------------------10------------------------|--------|
G|---------------------|--------|-----------------------9--7--6---------------|--------|
D|---------------------|--------|--------------------------------7------------|--------|
A|---------------------|--------|------------------------------------7--5--4--|--------|
E|---------------------|--------|---------------------------------------------|-5------|


E|--------|--------|--------|--------|-12--12--12---12--12--12--12--|-12--12--12---12---12---|
B|--------|--------|--------|--------|------------------------------|------------------------|
G|--------|--------|--------|--------|-9---9---9----9---9---9---9---|-9---9---9----9----9----|
D|--------|--------|--------|--------|------------------------------|------------------------|
A|--------|--------|--------|--------|------------------------------|------------------------|
E|--------|--------|--------|--------|------------------------------|------------------------|


E|---------------------|-------------|-------------|-----------------|-----------------------|
B|-3-----2---2----0----|-0-----------|-5-----2-----|-2---------------|-----------------------|
G|-4-----2---2----0----|-0-----------|-6-----3-----|-3---------------|-------5---6-------8---|
D|---------------------|-------------|-------------|-----------------|-------4---4-------4---|
A|---------------------|-------------|-------------|-----------------|-----------------------|
E|---------------------|-------------|-------------|-----------------|-----------------------|


E|-------------------------|------------17---|-10--10--12-----|------------5---------|
B|-------------------------|-----------------|----------------|-7-----5----7----7----|
G|-----6-------5--6--5-----|------------14---|-7---7---9------|-7-----5---------7----|
D|-----4-------4--4--4-----|-----------------|----------------|----------------------|
A|-------------------------|-----------------|----------------|----------------------|
E|-------------------------|-----------------|----------------|----------------------|


E|--------|-------------|-3------2----|--------2----|---------------2--------|--------|
B|-5------|-5-----3-----|-6------5----|--------5----|------------------------|--------|
G|-5------|-5-----4-----|-5------4----|--------4----|------------------------|--------|
D|--------|-7-----7-----|-------------|-------------|----------4-------------|--------|
A|--------|-------------|-------------|-------------|------------------------|--------|
E|--------|-------------|-------------|-------------|------------------------|--------|


E|--------|--------|--------|--------|--------|--------|--------|--------|--------|
B|--------|--------|--------|--------|--------|--------|--------|--------|--------|
G|--------|--------|--------|--------|--------|--------|--------|--------|--------|
D|--------|--------|--------|--------|--------|--------|--------|--------|--------|
A|--------|--------|--------|--------|--------|--------|--------|--------|--------|
E|--------|--------|--------|--------|--------|--------|--------|--------|--------|


E|--------|--------|--------|--------12--12--|-12---12--12--12--12--12--12--|-12---12---12--------|
B|--------|--------|--------|----------------|------------------------------|----------------3----|
G|--------|--------|--------|--------9---9---|-9----9---9---9---9---9---9---|-9----9----9----4----|
D|--------|--------|--------|----------------|------------------------------|---------------------|
A|--------|--------|--------|----------------|------------------------------|---------------------|
E|--------|--------|--------|----------------|------------------------------|---------------------|


E|------------------------|-----------------|-----------------|-----------------|------------------------------|
B|-----2---2----0----0----|------------5----|------2-----2----|-----------------|------------------------------|
G|-----2---2----0----0----|------------6----|------3-----3----|-----------------|------5---6-------8-------6---|
D|------------------------|-----------------|-----------------|-----------------|------4---4-------4-------4---|
A|------------------------|-----------------|-----------------|-----------------|------------------------------|
E|------------------------|-----------------|-----------------|-----------------|------------------------------|


E|----------------------|-----------17---10--10--|-12----------|-----------5--------------|
B|----------------------|------------------------|--------7----|------5----7----7----5----|
G|-----5--6--5----------|-----------14---7---7---|-9------7----|------5---------7----5----|
D|-----4--4--4----------|------------------------|-------------|--------------------------|
A|----------------------|------------------------|-------------|--------------------------|
E|----------------------|------------------------|-------------|--------------------------|


E|-------------|------------3----|-------2-----|-------2-----|----------2---------|
B|--------5----|------3-----6----|-------5-----|-------5-----|--------------------|
G|--------5----|------4-----5----|-------4-----|-------4-----|--------------------|
D|--------7----|------7----------|-------------|-------------|-----4--------------|
A|-------------|-----------------|-------------|-------------|--------------------|
E|-------------|-----------------|-------------|-------------|--------------------|


E|-------------|-------------|-------------|-------------|-------------|-------------|
B|-------------|-------------|-------------|-------------|-------------|-------------|
G|-------------|-------------|-------------|-------------|-------------|-------------|
D|-------------|-------------|-------------|-------------|-------------|-------------|
A|-------------|-------------|-------------|-------------|-------------|-------------|
E|-------------|-------------|-------------|-------------|-------------|-------------|


E|-------------|-------------|-------------|-----------------|--------|--------|--------|
B|-------------|-------------|-------------|-----------------|--------|--------|--------|
G|-------------|-------------|-------------|-----------------|--------|--------|--------|
D|-------------|-------------|-------------|-----------------|--------|--------|--------|
A|-------------|-------------|-------------|-----------------|--------|--------|--------|
E|-------------|-------------|-------------|-----------------|--------|--------|--------|


E|--------|--------|--------|--------|--------|--------|--------|--------|--------|
B|--------|--------|--------|--------|--------|--------|--------|--------|--------|
G|--------|--------|--------|--------|--------|--------|--------|--------|--------|
D|--------|--------|--------|--------|--------|--------|--------|--------|--------|
A|--------|--------|--------|--------|--------|--------|--------|--------|--------|
E|--------|--------|--------|--------|--------|--------|--------|--------|--------|


E|--------|--------|-------10----------9---|-----------------|--------|--------|--------|
B|--------|--------|-----------------------|------10---------|--------|--------|--------|
G|--------|--------|-------7-----------6---|-----------------|--------|--------|--------|
D|--------|--------|-----------------------|------7----------|--------|--------|--------|
A|--------|--------|-----------------------|-----------------|--------|--------|--------|
E|--------|--------|-----------------------|-----------------|--------|--------|--------|


E|--------|--------|--------|--------|--------|--------|--------|--------|--------|
B|--------|--------|--------|--------|--------|--------|--------|--------|--------|
G|--------|--------|--------|--------|--------|--------|--------|--------|--------|
D|--------|--------|--------|--------|--------|--------|--------|--------|--------|
A|--------|--------|--------|--------|--------|--------|--------|--------|--------|
E|--------|--------|--------|--------|--------|--------|--------|--------|--------|


E|--------|--------|--------|--------|--------|--------|--------|--------|--------|
B|--------|--------|--------|--------|--------|--------|--------|--------|--------|
G|--------|--------|--------|--------|--------|--------|--------|--------|--------|
D|--------|--------|--------|--------|--------|--------|--------|--------|--------|
A|--------|--------|--------|--------|--------|--------|--------|--------|--------|
E|--------|--------|--------|--------|--------|--------|--------|--------|--------|


E|--------|--------|--------|--------|--------|--------|--------|--------|--------|
B|--------|--------|--------|--------|--------|--------|--------|--------|--------|
G|--------|--------|--------|--------|--------|--------|--------|--------|--------|
D|--------|--------|--------|--------|--------|--------|--------|--------|--------|
A|--------|--------|--------|--------|--------|--------|--------|--------|--------|
E|--------|--------|--------|--------|--------|--------|--------|--------|--------|


E|--------|--------|--------|--------|--------|--------|--------|--------|--------|
B|--------|--------|--------|--------|--------|--------|--------|--------|--------|
G|--------|--------|--------|--------|--------|--------|--------|--------|--------|
D|--------|--------|--------|--------|--------|--------|--------|--------|--------|
A|--------|--------|--------|--------|--------|--------|--------|--------|--------|
E|--------|--------|--------|--------|--------|--------|--------|--------|--------|


E|--------|--------|--------|--------|--------|--------|--------|--------|--------|
B|--------|--------|--------|--------|--------|--------|--------|--------|--------|
G|--------|--------|--------|--------|--------|--------|--------|--------|--------|
D|--------|--------|--------|--------|--------|--------|--------|--------|--------|
A|--------|--------|--------|--------|--------|--------|--------|--------|--------|
E|--------|--------|--------|--------|--------|--------|--------|--------|--------|


E|--------|--------|--------|--------|--------|--------|--------|--------|--------|
B|--------|--------|--------|--------|--------|--------|--------|--------|--------|
G|--------|--------|--------|--------|--------|--------|--------|--------|--------|
D|--------|--------|--------|--------|--------|--------|--------|--------|--------|
A|--------|--------|--------|--------|--------|--------|--------|--------|--------|
E|--------|--------|--------|--------|--------|--------|--------|--------|--------|


E|--------|--------|--------|--------|--------|--------|--------|--------|--------|
B|--------|--------|--------|--------|--------|--------|--------|--------|--------|
G|--------|--------|--------|--------|--------|--------|--------|--------|--------|
D|--------|--------|--------|--------|--------|--------|--------|--------|--------|
A|--------|--------|--------|--------|--------|--------|--------|--------|--------|
E|--------|--------|--------|--------|--------|--------|--------|--------|--------|


E|--------|--------|--------|--------|--------|--------|--------|--------|--------|
B|--------|--------|--------|--------|--------|--------|--------|--------|--------|
G|--------|--------|--------|--------|--------|--------|--------|--------|--------|
D|--------|--------|--------|--------|--------|--------|--------|--------|--------|
A|--------|--------|--------|--------|--------|--------|--------|--------|--------|
E|--------|--------|--------|--------|--------|--------|--------|--------|--------|


E|--------|--------|--------|--------|-------------|-------------|----------------|
B|--------|--------|--------|--------|-------------|-------------|----------------|
G|--------|--------|--------|--------|-------------|-------------|------------15--|
D|--------|--------|--------|--------|-------------|-------------|----------------|
A|--------|--------|--------|--------|-------------|-------------|----------------|
E|--------|--------|--------|--------|-------------|-------------|----------------|


E|-14----------13-----------13--|--------------------|------------------14----------|
B|------------------------------|-----11--11----4----|------4-------14------14-16---|
G|-----15--13-------13--13------|-11------------6----|------6---13----------15-15---|
D|------------------------------|---------------8----|------8-----------------------|
A|------------------------------|--------------------|------------------------------|
E|------------------------------|---------------7----|------7-----------------------|


E|-----4---4-----------------|-------------|------------------------|-------------|
B|-16--2---2---4--------2----|--------2----|------------------------|-------------|
G|-15----------1--------3----|--------3----|------------------------|-------------|
D|---------------------------|-------------|------------------------|-------------|
A|----------------------2----|--------2----|-----4---4---6----------|-------------|
E|------------------2--------|-------------|------------------------|-------------|


E|------------12-10-9--|-------------|-------------|-----12-10-9---------------------------------|
B|---------------------|-10----------|-------------|--------------10-----------------------------|
G|---------------------|-------------|-------------|------------------9--7--6--------------------|
D|---------------------|-------------|-------------|---------------------------7-----------------|
A|---------------------|-------------|-------------|-------------------------------7--5--4-------|
E|---------------------|-------------|-------------|----------------------------------------5----|


E|-------------|-------------|-------------|-------------|--------12--12--|-12---12--12--12--12--12--12--|
B|-------------|-------------|-------------|-------------|----------------|------------------------------|
G|-------------|-------------|-------------|-------------|--------9---9---|-9----9---9---9---9---9---9---|
D|-------------|-------------|-------------|-------------|----------------|------------------------------|
A|-------------|-------------|-------------|-------------|----------------|------------------------------|
E|-------------|-------------|-------------|-------------|----------------|------------------------------|


E|-12---12---12--------|------------------------|-----------------|-----------------|
B|----------------3----|-----2---2----0----0----|------------5----|------2-----2----|
G|-9----9----9----4----|-----2---2----0----0----|------------6----|------3-----3----|
D|---------------------|------------------------|-----------------|-----------------|
A|---------------------|------------------------|-----------------|-----------------|
E|---------------------|------------------------|-----------------|-----------------|


E|-----------------|------------------------------|----------------------|-----------17---10--10--|
B|-----------------|------------------------------|----------------------|------------------------|
G|-----------------|------5---6-------8-------6---|-----5--6--5----------|-----------14---7---7---|
D|-----------------|------4---4-------4-------4---|-----4--4--4----------|------------------------|
A|-----------------|------------------------------|----------------------|------------------------|
E|-----------------|------------------------------|----------------------|------------------------|


E|-12----------|-----------5--------------|-------------|------------3----|-------2-----|
B|--------7----|------5----7----7----5----|--------5----|------3-----6----|-------5-----|
G|-9------7----|------5---------7----5----|--------5----|------4-----5----|-------4-----|
D|-------------|--------------------------|--------7----|------7----------|-------------|
A|-------------|--------------------------|-------------|-----------------|-------------|
E|-------------|--------------------------|-------------|-----------------|-------------|


E|-------2-----|--------------------|------------------------------|---------------------------|
B|-------5-----|----------5---5-----|-----5-------5-------5--------|----------5-------5--------|
G|-------4-----|----------6---6-----|-----6-------6-------6--------|----------6-------6--------|
D|-------------|----------7---7-----|-----7-------7-------7--------|----------7-------7--------|
A|-------------|--------------------|------------------------------|---------------------------|
E|-------------|----------7---7-----|-----7-------7-------7--------|----------7-------7--------|


E|---------------------------|--------------------|------------------------------|
B|----------5-------5--------|----------5---5-----|-----5-------5-------5--------|
G|----------6-------6--------|----------6---6-----|-----6-------6-------6--------|
D|----------7-------7--------|----------7---7-----|-----7-------7-------7--------|
A|---------------------------|--------------------|------------------------------|
E|----------7-------7--------|----------7---7-----|-----7-------7-------7--------|


E|---------------------------|---------------------------|--------------------|------------------------------|
B|----------5-------5--------|----------5-------5--------|----------5---5-----|-----5-------5-------5--------|
G|----------6-------6--------|----------6-------6--------|----------6---6-----|-----6-------6-------6--------|
D|----------7-------7--------|----------7-------7--------|----------7---7-----|-----7-------7-------7--------|
A|---------------------------|---------------------------|--------------------|------------------------------|
E|----------7-------7--------|----------7-------7--------|----------7---7-----|-----7-------7-------7--------|


E|---------------------------|---------------------------|--------------------|------------------------------|
B|----------5-------5--------|----------5-------5--------|----------5---5-----|-----5-------5-------5--------|
G|----------6-------6--------|----------6-------6--------|----------6---6-----|-----6-------6-------6--------|
D|----------7-------7--------|----------7-------7--------|----------7---7-----|-----7-------7-------7--------|
A|---------------------------|---------------------------|--------------------|------------------------------|
E|----------7-------7--------|----------7-------7--------|----------7---7-----|-----7-------7-------7--------|


E|---------------------------|---------------------------|--------------------|
B|----------5-------5--------|----------5-------5--------|----------5---------|
G|----------6-------6--------|----------6-------6--------|----------6---------|
D|----------7-------7--------|----------7-------7--------|----------7---------|
A|---------------------------|---------------------------|--------------------|
E|----------7-------7--------|----------7-------7--------|----------7---------|





Track 3: clean electric

E|--------|--------|-----9-----------6------------|--------------------|-----------9---9---9--8--7--|
B|--------|--------|---------9---9-------9----7---|-6----6-------------|----------------------------|
G|--------|--------|------------------------------|----------8---8-----|-6-----6--------------------|
D|--------|--------|------------------------------|--------------------|-8-----8--------------------|
A|--------|--------|------------------------------|--------------------|----------------------------|
E|--------|--------|------------------------------|--------------------|-7-----7--------------------|


E|-6------------------------|-----9-----------6------------|--------------------|---------------------------|
B|-------7---7----7----7----|---------9---9-------9----7---|-6----6-------------|-4-----------4---4-----4---|
G|-----------6----6----6----|------------------------------|----------8---8-----|-3---4---3---1---1-----3---|
D|-----------6----6----6----|------------------------------|--------------------|---------------------------|
A|--------------------------|------------------------------|--------------------|---------------------------|
E|--------------------------|------------------------------|--------------------|---------------------------|


E|------------------------|-------------|-------------|--------|----------------|--------|
B|-4----4----2---4----5---|-5------5----|-4-----0-----|-5------|-5----------3---|-5------|
G|-3----4-------------6---|-6------6----|-4-----1-----|-6------|-6--------------|-4------|
D|--------------------7---|-7------7----|-4-----4-----|-7------|-7--------------|-5------|
A|------------------------|-------------|-------------|--------|----------------|-3------|
E|--------------------7---|-7-----------|-------------|-7------|-7--------------|--------|


E|-----------3--------|--------|------------------------|--------|--------|--------|
B|-5-----5--------3---|-5------|-5-----5----------------|--------|--------|--------|
G|-4-----4------------|-4------|-4---------4------------|--------|--------|--------|
D|-5-----5------------|-4------|-4-------------4--------|--------|--------|--------|
A|-3-----3------------|-5------|-5-----------------0----|--------|--------|--------|
E|--------------------|--------|------------------------|--------|--------|--------|


E|--------|--------|--------|--------|--------|--------|--------|--------|--------|
B|--------|--------|--------|--------|--------|--------|--------|--------|--------|
G|--------|--------|--------|--------|--------|--------|--------|--------|--------|
D|--------|--------|--------|--------|--------|--------|--------|--------|--------|
A|--------|--------|--------|--------|--------|--------|--------|--------|--------|
E|--------|--------|--------|--------|--------|--------|--------|--------|--------|


E|--------|-------------|-----------1010----10---|-------------|----------9---9---9--8--7--6----|
B|--------|-------------|---------12-------------|-------------|--------------------------------|
G|--------|-------------|-------11---------------|--------6----|------6-------------------------|
D|--------|-------------|-----14-----------------|--------8----|------8-------------------------|
A|--------|-------------|------------------------|-------------|--------------------------------|
E|--------|-------------|------------------------|--------7----|------7-------------------------|


E|----------------------------9---|---------6-----------------|--------------------|
B|-----7---7----7----7------------|-9---9-------9----7---6----|-6------------------|
G|---------6----6----6------------|---------------------------|-----8---8----------|
D|---------6----6----6------------|---------------------------|--------------------|
A|--------------------------------|---------------------------|--------------------|
E|--------------------------------|---------------------------|--------------------|


E|-------------|------------12-10-9--|-------------|-------------|-----12-10-9---------------------------------|
B|-------------|---------------------|-10----------|-------------|--------------10-----------------------------|
G|-------------|---------------------|-------------|-------------|------------------9--7--6--------------------|
D|-------------|---------------------|-------------|-------------|---------------------------7-----------------|
A|-------------|---------------------|-------------|-------------|-------------------------------7--5--4-------|
E|-------------|---------------------|-------------|-------------|----------------------------------------5----|


E|-------------|-------------|-------------|-------------|--------|--------|--------|
B|-------------|-------------|-------------|-------------|--------|--------|--------|
G|-------------|-------------|-------------|-------------|--------|--------|--------|
D|-------------|-------------|-------------|-------------|--------|--------|--------|
A|-------------|-------------|-------------|-------------|--------|--------|--------|
E|-------------|-------------|-------------|-------------|--------|--------|--------|


E|--------|--------|--------|--------|--------|--------|--------|--------|--------|
B|--------|--------|--------|--------|--------|--------|--------|--------|--------|
G|--------|--------|--------|--------|--------|--------|--------|--------|--------|
D|--------|--------|--------|--------|--------|--------|--------|--------|--------|
A|--------|--------|--------|--------|--------|--------|--------|--------|--------|
E|--------|--------|--------|--------|--------|--------|--------|--------|--------|


E|-------------|-------------|----------------------10|-10----10----|------------5----|
B|-------------|-------------|--------------------12--|-------------|-------5----7----|
G|-------------|-------------|------------------11----|-------------|-------6----7----|
D|-------------|-------------|----------------14------|-------------|-------7---------|
A|-------------|-------------|------------------------|-------------|------------7----|
E|-------------|-------------|------------------------|-------------|-------7---------|


E|-5-----5------------|------------------------------|---------------------------|
B|-7-----7------------|--------------------------2---|-2----3----------------2---|
G|-7-----7------------|--------------------------2---|-2----4----------------2---|
D|--------------------|--------------------------2---|-2----5---2------------2---|
A|-7-----7---7--------|-----------------0------------|--------------0------------|
E|--------------------|-----0---3---0----------------|---------------------------|


E|---------------------------|---------------------------|---------------------------|
B|-2----3----------------2---|-2----3----------------2---|-2----3----------------2---|
G|-2----4----------------2---|-2----4----------------2---|-2----4----------------2---|
D|-2----5---2------------2---|-2----5---2------------2---|-2----5---2------------2---|
A|--------------0------------|--------------0------------|--------------0------------|
E|---------------------------|---------------------------|---------------------------|


E|---------------------------|---------------------------|---------------------------|
B|-2----3----------------2---|-2----3----------------2---|-2----3----------------2---|
G|-2----4----------------2---|-2----4----------------2---|-2----4----------------2---|
D|-2----5---2------------2---|-2----5---2------------2---|-2----5---2------------2---|
A|--------------0------------|--------------0------------|--------------0------------|
E|---------------------------|---------------------------|---------------------------|


E|---------------------------|------------------------|------------------------|-----------------|
B|-2----3----------------5---|-5---7--------------5---|-5---7--------------5---|-5---7-----5-----|
G|-2----4----------------6---|-6---7--------------6---|-6---7--------------6---|-6---7-----6-----|
D|-2----5---2------------7---|-7---9--------------7---|-7---9--------------7---|-7---9-----7-----|
A|---------------------------|------------------------|------------------------|-----------------|
E|---------------------------|------------------------|------------------------|-----------------|


E|------------------------|------------------------|-----------------------|-----------------------|
B|----------3---3---5-----|----------3---3---5-----|-12----------12--12----|-12----------12--12----|
G|----------4---4---5-----|----------4---4---5-----|-14----------14--14----|-14----------14--14----|
D|----------5---5---7-----|----------3---3---7-----|-14----------14--14----|-14----------14--14----|
A|------------------------|------------------------|-----------------------|-----------------------|
E|------------------------|------------------------|-----------------------|-----------------------|


E|------------------------|------------------------|------------------------|--------------------|
B|----------5---5---7-----|----------5---5---7-----|----------5---5---7-----|-5--------------3---|
G|----------6---6---7-----|----------6---6---7-----|----------6---6---7-----|-6--------------4---|
D|----------7---7---9-----|----------7---7---9-----|----------7---7---9-----|-7--------------5---|
A|------------------------|------------------------|------------------------|--------------------|
E|------------------------|------------------------|------------------------|--------------------|


E|------------------------|---------------------------|-----------------------|-------------|
B|-3---5--------------3---|-3---5-----12----------12--|-12----12----------12--|-12----------|
G|-4---5--------------4---|-4---5-----14----------14--|-14----14----------14--|-14----------|
D|-5---7--------------3---|-3---7-----14----------14--|-14----14----------14--|-14----------|
A|------------------------|---------------------------|-----------------------|-------------|
E|------------------------|---------------------------|-----------------------|-------------|


E|--------|--------|--------|--------|--------|--------|--------|--------|--------|
B|--------|--------|--------|--------|--------|--------|--------|--------|--------|
G|--------|--------|--------|--------|--------|--------|--------|--------|--------|
D|--------|--------|--------|--------|--------|--------|--------|--------|--------|
A|--------|--------|--------|--------|--------|--------|--------|--------|--------|
E|--------|--------|--------|--------|--------|--------|--------|--------|--------|


E|--------|--------|--------|--------|--------|--------|--------|--------|--------|
B|--------|--------|--------|--------|--------|--------|--------|--------|--------|
G|--------|--------|--------|--------|--------|--------|--------|--------|--------|
D|--------|--------|--------|--------|--------|--------|--------|--------|--------|
A|--------|--------|--------|--------|--------|--------|--------|--------|--------|
E|--------|--------|--------|--------|--------|--------|--------|--------|--------|


E|--------|--------|--------|--------|--------|--------|--------|--------|--------|
B|--------|--------|--------|--------|--------|--------|--------|--------|--------|
G|--------|--------|--------|--------|--------|--------|--------|--------|--------|
D|--------|--------|--------|--------|--------|--------|--------|--------|--------|
A|--------|--------|--------|--------|--------|--------|--------|--------|--------|
E|--------|--------|--------|--------|--------|--------|--------|--------|--------|


E|--------|--------|--------|--------|--------|--------|--------|--------|--------|
B|--------|--------|--------|--------|--------|--------|--------|--------|--------|
G|--------|--------|--------|--------|--------|--------|--------|--------|--------|
D|--------|--------|--------|--------|--------|--------|--------|--------|--------|
A|--------|--------|--------|--------|--------|--------|--------|--------|--------|
E|--------|--------|--------|--------|--------|--------|--------|--------|--------|


E|--------|--------|--------|--------|--------|--------|--------|--------|--------|
B|--------|--------|--------|--------|--------|--------|--------|--------|--------|
G|--------|--------|--------|--------|--------|--------|--------|--------|--------|
D|--------|--------|--------|--------|--------|--------|--------|--------|--------|
A|--------|--------|--------|--------|--------|--------|--------|--------|--------|
E|--------|--------|--------|--------|--------|--------|--------|--------|--------|


E|--------|--------|--------|--------|--------|--------|--------|--------|--------|
B|--------|--------|--------|--------|--------|--------|--------|--------|--------|
G|--------|--------|--------|--------|--------|--------|--------|--------|--------|
D|--------|--------|--------|--------|--------|--------|--------|--------|--------|
A|--------|--------|--------|--------|--------|--------|--------|--------|--------|
E|--------|--------|--------|--------|--------|--------|--------|--------|--------|


E|--------|--------|--------|--------------------|--------------------|----------------0---|
B|--------|--------|--------|-----------7----7---|-7---------5----5---|-5-----9--------0---|
G|--------|--------|--------|--------------------|--------------------|-------6--------2---|
D|--------|--------|--------|--------------------|--------------------|-------8--------4---|
A|--------|--------|--------|--------------------|--------------------|--------------------|
E|--------|--------|--------|--------------------|--------------------|--------------------|


E|-0-----0-----|--------|--------|--------|--------|--------|--------|--------|--------|
B|-0-----0-----|--------|--------|--------|--------|--------|--------|--------|--------|
G|-2-----2-----|--------|--------|--------|--------|--------|--------|--------|--------|
D|-4-----4-----|--------|--------|--------|--------|--------|--------|--------|--------|
A|-------------|--------|--------|--------|--------|--------|--------|--------|--------|
E|-------------|--------|--------|--------|--------|--------|--------|--------|--------|


E|--------|--------|--------|--------|--------|--------------------|--------------------|
B|--------|--------|--------|--------|--------|-----7----7---7-----|-----5----5---5-----|
G|--------|--------|--------|--------|--------|--------------------|--------------------|
D|--------|--------|--------|--------|--------|--------------------|--------------------|
A|--------|--------|--------|--------|--------|--------------------|--------------------|
E|--------|--------|--------|--------|--------|--------------------|--------------------|


E|----------0---0-----|-0------|--------|--------|-------------|-------------|------------9---|
B|-9--------0---0-----|-0------|--------|--------|-------------|-------------|----------------|
G|-6--------2---2-----|-2------|--------|--------|-------------|-------------|----------------|
D|-8--------4---4-----|-4------|--------|--------|-------------|-------------|----------------|
A|--------------------|--------|--------|--------|-------------|-------------|----------------|
E|--------------------|--------|--------|--------|-------------|-------------|----------------|


E|---------6-----------------|--------------------|----------9---9---9--8--7--6----|
B|-9---9-------9----7---6----|-6------------------|--------------------------------|
G|---------------------------|-----8---8-----6----|------6-------------------------|
D|---------------------------|---------------8----|------8-------------------------|
A|---------------------------|--------------------|--------------------------------|
E|---------------------------|---------------7----|------7-------------------------|


E|----------------------------9---|---------6-----------------|-----------------------|
B|-----7---7----7----7------------|-9---9-------9----7---6----|-6-------------4-------|
G|---------6----6----6------------|---------------------------|-----8---8-----3---4---|
D|---------6----6----6------------|---------------------------|-----------------------|
A|--------------------------------|---------------------------|-----------------------|
E|--------------------------------|---------------------------|-----------------------|


E|------------------------|------------------------|-----------------|-----------------|
B|-----4---4-----4---4----|-4----2---4----5---5----|-------5----4----|------0-----5----|
G|-3---1---1-----3---3----|-4-------------6---6----|-------6----4----|------1-----6----|
D|------------------------|---------------7---7----|-------7----4----|------4-----7----|
A|------------------------|------------------------|-----------------|-----------------|
E|------------------------|---------------7---7----|-----------------|------------7----|


E|-------------|--------------------|-------------|----------3-------------|-------------|
B|--------5----|-----------3---5----|--------5----|------5--------3---5----|--------5----|
G|--------6----|---------------4----|--------4----|------4------------4----|--------4----|
D|--------7----|---------------5----|--------5----|------5------------4----|--------4----|
A|-------------|---------------3----|--------3----|------3------------5----|--------5----|
E|--------7----|--------------------|-------------|------------------------|-------------|


E|---------------------------|--------|--------|--------|--------|--------|--------|
B|-----5---------------------|--------|--------|--------|--------|--------|--------|
G|---------4-----------------|--------|--------|--------|--------|--------|--------|
D|-------------4-------------|--------|--------|--------|--------|--------|--------|
A|-----------------0---------|--------|--------|--------|--------|--------|--------|
E|---------------------------|--------|--------|--------|--------|--------|--------|


E|--------|--------|--------|--------|--------|-------------|-------------|----------------------10|
B|--------|--------|--------|--------|--------|-------------|-------------|--------------------12--|
G|--------|--------|--------|--------|--------|-------------|-------------|------------------11----|
D|--------|--------|--------|--------|--------|-------------|-------------|----------------14------|
A|--------|--------|--------|--------|--------|-------------|-------------|------------------------|
E|--------|--------|--------|--------|--------|-------------|-------------|------------------------|


E|-10----10----|-------------|-------------|-------------|-------------|-------------|
B|-------------|-------------|-------------|-------------|-------------|-------------|
G|-------------|-------------|-------------|-------------|-------------|-------------|
D|-------------|-------------|-------------|-------------|-------------|-------------|
A|-------------|-------------|-------------|-------------|-------------|-------------|
E|-------------|-------------|-------------|-------------|-------------|-------------|


E|-------------|-------------|-------------|-------------|-------------|-------------|
B|-------------|-------------|-------------|-------------|-------------|-------------|
G|-------------|-------------|-------------|-------------|-------------|-------------|
D|-------------|-------------|-------------|-------------|-------------|-------------|
A|-------------|-------------|-------------|-------------|-------------|-------------|
E|-------------|-------------|-------------|-------------|-------------|-------------|


E|-------------|-------------|-------------|-------------|-------------|--------|
B|-------------|-------------|-------------|-------------|-------------|--------|
G|-------------|-------------|-------------|-------------|-------------|--------|
D|-------------|-------------|-------------|-------------|-------------|--------|
A|-------------|-------------|-------------|-------------|-------------|--------|
E|-------------|-------------|-------------|-------------|-------------|--------|





Track 4: miramba

E|--------|--------|--------|--------|--------|--------|--------|--------|--------|
B|--------|--------|--------|--------|--------|--------|--------|--------|--------|
G|--------|--------|--------|--------|--------|--------|--------|--------|--------|
D|--------|--------|--------|--------|--------|--------|--------|--------|--------|
A|--------|--------|--------|--------|--------|--------|--------|--------|--------|
E|--------|--------|--------|--------|--------|--------|--------|--------|--------|


E|--------|--------|--------|--------|--------|--------|--------|--------|--------|
B|--------|--------|--------|--------|--------|--------|--------|--------|--------|
G|--------|--------|--------|--------|--------|--------|--------|--------|--------|
D|--------|--------|--------|--------|--------|--------|--------|--------|--------|
A|--------|--------|--------|--------|--------|--------|--------|--------|--------|
E|--------|--------|--------|--------|--------|--------|--------|--------|--------|


E|--------|--------|--------|--------|--------|--------|--------|--------|--------|
B|--------|--------|--------|--------|--------|--------|--------|--------|--------|
G|--------|--------|--------|--------|--------|--------|--------|--------|--------|
D|--------|--------|--------|--------|--------|--------|--------|--------|--------|
A|--------|--------|--------|--------|--------|--------|--------|--------|--------|
E|--------|--------|--------|--------|--------|--------|--------|--------|--------|


E|--------|--------|--------|--------|--------|--------|--------|--------|--------|
B|--------|--------|--------|--------|--------|--------|--------|--------|--------|
G|--------|--------|--------|--------|--------|--------|--------|--------|--------|
D|--------|--------|--------|--------|--------|--------|--------|--------|--------|
A|--------|--------|--------|--------|--------|--------|--------|--------|--------|
E|--------|--------|--------|--------|--------|--------|--------|--------|--------|


E|--------|--------|--------|--------|--------|--------|--------|--------|--------|
B|--------|--------|--------|--------|--------|--------|--------|--------|--------|
G|--------|--------|--------|--------|--------|--------|--------|--------|--------|
D|--------|--------|--------|--------|--------|--------|--------|--------|--------|
A|--------|--------|--------|--------|--------|--------|--------|--------|--------|
E|--------|--------|--------|--------|--------|--------|--------|--------|--------|


E|--------|--------|--------|--------|--------|--------|--------|--------|--------|
B|--------|--------|--------|--------|--------|--------|--------|--------|--------|
G|--------|--------|--------|--------|--------|--------|--------|--------|--------|
D|--------|--------|--------|--------|--------|--------|--------|--------|--------|
A|--------|--------|--------|--------|--------|--------|--------|--------|--------|
E|--------|--------|--------|--------|--------|--------|--------|--------|--------|


E|--------|--------|--------|--------|--------|--------|--------|--------|--------|
B|--------|--------|--------|--------|--------|--------|--------|--------|--------|
G|--------|--------|--------|--------|--------|--------|--------|--------|--------|
D|--------|--------|--------|--------|--------|--------|--------|--------|--------|
A|--------|--------|--------|--------|--------|--------|--------|--------|--------|
E|--------|--------|--------|--------|--------|--------|--------|--------|--------|


E|--------|--------|--------|--------|--------|--------|--------|--------|--------|
B|--------|--------|--------|--------|--------|--------|--------|--------|--------|
G|--------|--------|--------|--------|--------|--------|--------|--------|--------|
D|--------|--------|--------|--------|--------|--------|--------|--------|--------|
A|--------|--------|--------|--------|--------|--------|--------|--------|--------|
E|--------|--------|--------|--------|--------|--------|--------|--------|--------|


E|--------|------------12--|-12--12--12--12--12------10--9---|-----10-------10------9---7---|
B|--------|------------14--|-14--14--14--14--14------12--10--|-----12-------12------10--8---|
G|--------|----------------|---------------------------------|------------------------------|
D|--------|------------14--|-14--14--14--14--14------11--11--|-----12-------12------11--9---|
A|--------|----------------|---------------------------------|------------------------------|
E|--------|----------------|---------------------------------|------------------------------|


E|-----7--------10------9-------|-7------------------|--------|-9-------12--14--------|
B|-----8--------12------10------|-8------------------|--------|-10------10--12--------|
G|------------------------------|--------------------|--------|---------9---11--------|
D|-----9--------12------11------|-9------------------|--------|-11--------------------|
A|------------------------------|--------------------|--------|-----------------------|
E|------------------------------|--------------------|--------|-----------------------|


E|--------|----------12--12--12--12--12--|-12------10--9-------10-------|-10------9---7-------7--------|
B|--------|----------14--14--14--14--14--|-14------12--10------12-------|-12------10--8-------8--------|
G|--------|------------------------------|------------------------------|------------------------------|
D|--------|----------14--14--14--14--14--|-14------11--11------12-------|-12------11--9-------9--------|
A|--------|------------------------------|------------------------------|------------------------------|
E|--------|------------------------------|------------------------------|------------------------------|


E|-10------9-------7------------|-------------|-------9-------12--14--|-------------|
B|-12------10------8------------|-------------|-------10------10--12--|-------------|
G|------------------------------|-------------|---------------9---11--|-------------|
D|-12------11------9------------|-------------|-------11--------------|-------------|
A|------------------------------|-------------|-----------------------|-------------|
E|------------------------------|-------------|-----------------------|-------------|


E|--------|--------|--------|--------|--------|--------|--------|--------|--------|
B|--------|--------|--------|--------|--------|--------|--------|--------|--------|
G|--------|--------|--------|--------|--------|--------|--------|--------|--------|
D|--------|--------|--------|--------|--------|--------|--------|--------|--------|
A|--------|--------|--------|--------|--------|--------|--------|--------|--------|
E|--------|--------|--------|--------|--------|--------|--------|--------|--------|


E|--------|--------|--------|--------|--------|--------|--------|--------|--------|
B|--------|--------|--------|--------|--------|--------|--------|--------|--------|
G|--------|--------|--------|--------|--------|--------|--------|--------|--------|
D|--------|--------|--------|--------|--------|--------|--------|--------|--------|
A|--------|--------|--------|--------|--------|--------|--------|--------|--------|
E|--------|--------|--------|--------|--------|--------|--------|--------|--------|


E|--------|--------|--------|--------|--------|--------|--------|--------|--------|
B|--------|--------|--------|--------|--------|--------|--------|--------|--------|
G|--------|--------|--------|--------|--------|--------|--------|--------|--------|
D|--------|--------|--------|--------|--------|--------|--------|--------|--------|
A|--------|--------|--------|--------|--------|--------|--------|--------|--------|
E|--------|--------|--------|--------|--------|--------|--------|--------|--------|


E|--------|--------|--------|--------|--------|------10----------9--------|-------------|
B|--------|--------|--------|--------|--------|---------------------------|-10----------|
G|--------|--------|--------|--------|--------|------7-----------6--------|-------------|
D|--------|--------|--------|--------|--------|---------------------------|-7-----------|
A|--------|--------|--------|--------|--------|---------------------------|-------------|
E|--------|--------|--------|--------|--------|---------------------------|-------------|


E|-------------|--------|--------|--------|--------|--------|--------|--------|--------|
B|-------------|--------|--------|--------|--------|--------|--------|--------|--------|
G|-------------|--------|--------|--------|--------|--------|--------|--------|--------|
D|-------------|--------|--------|--------|--------|--------|--------|--------|--------|
A|-------------|--------|--------|--------|--------|--------|--------|--------|--------|
E|-------------|--------|--------|--------|--------|--------|--------|--------|--------|


E|--------|--------|--------|--------|--------|--------|--------|--------|--------|
B|--------|--------|--------|--------|--------|--------|--------|--------|--------|
G|--------|--------|--------|--------|--------|--------|--------|--------|--------|
D|--------|--------|--------|--------|--------|--------|--------|--------|--------|
A|--------|--------|--------|--------|--------|--------|--------|--------|--------|
E|--------|--------|--------|--------|--------|--------|--------|--------|--------|


E|--------|--------|--------|--------|--------|--------|--------|--------|--------|
B|--------|--------|--------|--------|--------|--------|--------|--------|--------|
G|--------|--------|--------|--------|--------|--------|--------|--------|--------|
D|--------|--------|--------|--------|--------|--------|--------|--------|--------|
A|--------|--------|--------|--------|--------|--------|--------|--------|--------|
E|--------|--------|--------|--------|--------|--------|--------|--------|--------|


E|--------|--------|--------|--------|--------|--------|--------|--------|--------|
B|--------|--------|--------|--------|--------|--------|--------|--------|--------|
G|--------|--------|--------|--------|--------|--------|--------|--------|--------|
D|--------|--------|--------|--------|--------|--------|--------|--------|--------|
A|--------|--------|--------|--------|--------|--------|--------|--------|--------|
E|--------|--------|--------|--------|--------|--------|--------|--------|--------|


E|--------|--------|--------|--------|--------|--------|--------|--------|--------|
B|--------|--------|--------|--------|--------|--------|--------|--------|--------|
G|--------|--------|--------|--------|--------|--------|--------|--------|--------|
D|--------|--------|--------|--------|--------|--------|--------|--------|--------|
A|--------|--------|--------|--------|--------|--------|--------|--------|--------|
E|--------|--------|--------|--------|--------|--------|--------|--------|--------|


E|--------|--------|--------|--------|--------|--------|--------|--------|--------|
B|--------|--------|--------|--------|--------|--------|--------|--------|--------|
G|--------|--------|--------|--------|--------|--------|--------|--------|--------|
D|--------|--------|--------|--------|--------|--------|--------|--------|--------|
A|--------|--------|--------|--------|--------|--------|--------|--------|--------|
E|--------|--------|--------|--------|--------|--------|--------|--------|--------|


E|--------|--------|--------|--------|--------|--------|--------|--------|--------|
B|--------|--------|--------|--------|--------|--------|--------|--------|--------|
G|--------|--------|--------|--------|--------|--------|--------|--------|--------|
D|--------|--------|--------|--------|--------|--------|--------|--------|--------|
A|--------|--------|--------|--------|--------|--------|--------|--------|--------|
E|--------|--------|--------|--------|--------|--------|--------|--------|--------|


E|--------|--------|--------|--------|--------|--------|--------|--------|--------|
B|--------|--------|--------|--------|--------|--------|--------|--------|--------|
G|--------|--------|--------|--------|--------|--------|--------|--------|--------|
D|--------|--------|--------|--------|--------|--------|--------|--------|--------|
A|--------|--------|--------|--------|--------|--------|--------|--------|--------|
E|--------|--------|--------|--------|--------|--------|--------|--------|--------|


E|--------|--------|--------|--------|--------|--------|--------|--------|--------|
B|--------|--------|--------|--------|--------|--------|--------|--------|--------|
G|--------|--------|--------|--------|--------|--------|--------|--------|--------|
D|--------|--------|--------|--------|--------|--------|--------|--------|--------|
A|--------|--------|--------|--------|--------|--------|--------|--------|--------|
E|--------|--------|--------|--------|--------|--------|--------|--------|--------|


E|--------|--------|--------|--------|--------|--------|--------|--------|--------|
B|--------|--------|--------|--------|--------|--------|--------|--------|--------|
G|--------|--------|--------|--------|--------|--------|--------|--------|--------|
D|--------|--------|--------|--------|--------|--------|--------|--------|--------|
A|--------|--------|--------|--------|--------|--------|--------|--------|--------|
E|--------|--------|--------|--------|--------|--------|--------|--------|--------|


E|--------|--------|--------|--------|--------|--------|--------|--------|
B|--------|--------|--------|--------|--------|--------|--------|--------|
G|--------|--------|--------|--------|--------|--------|--------|--------|
D|--------|--------|--------|--------|--------|--------|--------|--------|
A|--------|--------|--------|--------|--------|--------|--------|--------|
E|--------|--------|--------|--------|--------|--------|--------|--------|





Track 5: Denny Dias

E|--------|--------|--------|--------|--------|--------|--------|--------|--------|
B|--------|--------|--------|--------|--------|--------|--------|--------|--------|
G|--------|--------|--------|--------|--------|--------|--------|--------|--------|
D|--------|--------|--------|--------|--------|--------|--------|--------|--------|
A|--------|--------|--------|--------|--------|--------|--------|--------|--------|
E|--------|--------|--------|--------|--------|--------|--------|--------|--------|


E|--------|--------|--------|--------|--------|--------|--------|--------|--------|
B|--------|--------|--------|--------|--------|--------|--------|--------|--------|
G|--------|--------|--------|--------|--------|--------|--------|--------|--------|
D|--------|--------|--------|--------|--------|--------|--------|--------|--------|
A|--------|--------|--------|--------|--------|--------|--------|--------|--------|
E|--------|--------|--------|--------|--------|--------|--------|--------|--------|


E|--------|--------|--------|--------|--------|--------|--------|--------|--------|
B|--------|--------|--------|--------|--------|--------|--------|--------|--------|
G|--------|--------|--------|--------|--------|--------|--------|--------|--------|
D|--------|--------|--------|--------|--------|--------|--------|--------|--------|
A|--------|--------|--------|--------|--------|--------|--------|--------|--------|
E|--------|--------|--------|--------|--------|--------|--------|--------|--------|


E|--------|--------|--------|--------|--------|--------|--------|--------|--------|
B|--------|--------|--------|--------|--------|--------|--------|--------|--------|
G|--------|--------|--------|--------|--------|--------|--------|--------|--------|
D|--------|--------|--------|--------|--------|--------|--------|--------|--------|
A|--------|--------|--------|--------|--------|--------|--------|--------|--------|
E|--------|--------|--------|--------|--------|--------|--------|--------|--------|


E|--------|--------|--------|--------|--------|--------|--------|--------|--------|
B|--------|--------|--------|--------|--------|--------|--------|--------|--------|
G|--------|--------|--------|--------|--------|--------|--------|--------|--------|
D|--------|--------|--------|--------|--------|--------|--------|--------|--------|
A|--------|--------|--------|--------|--------|--------|--------|--------|--------|
E|--------|--------|--------|--------|--------|--------|--------|--------|--------|


E|--------|--------|--------|--------|--------|--------|--------|--------|--------|
B|--------|--------|--------|--------|--------|--------|--------|--------|--------|
G|--------|--------|--------|--------|--------|--------|--------|--------|--------|
D|--------|--------|--------|--------|--------|--------|--------|--------|--------|
A|--------|--------|--------|--------|--------|--------|--------|--------|--------|
E|--------|--------|--------|--------|--------|--------|--------|--------|--------|


E|--------|--------|--------|--------|--------|--------|--------|--------|--------|
B|--------|--------|--------|--------|--------|--------|--------|--------|--------|
G|--------|--------|--------|--------|--------|--------|--------|--------|--------|
D|--------|--------|--------|--------|--------|--------|--------|--------|--------|
A|--------|--------|--------|--------|--------|--------|--------|--------|--------|
E|--------|--------|--------|--------|--------|--------|--------|--------|--------|


E|--------|--------|--------|--------|--------|--------|--------|--------|--------|
B|--------|--------|--------|--------|--------|--------|--------|--------|--------|
G|--------|--------|--------|--------|--------|--------|--------|--------|--------|
D|--------|--------|--------|--------|--------|--------|--------|--------|--------|
A|--------|--------|--------|--------|--------|--------|--------|--------|--------|
E|--------|--------|--------|--------|--------|--------|--------|--------|--------|


E|--------|--------|--------|--------|--------|--------|--------|--------|--------|
B|--------|--------|--------|--------|--------|--------|--------|--------|--------|
G|--------|--------|--------|--------|--------|--------|--------|--------|--------|
D|--------|--------|--------|--------|--------|--------|--------|--------|--------|
A|--------|--------|--------|--------|--------|--------|--------|--------|--------|
E|--------|--------|--------|--------|--------|--------|--------|--------|--------|


E|--------|--------|--------|--------|--------|--------|--------|--------|--------|
B|--------|--------|--------|--------|--------|--------|--------|--------|--------|
G|--------|--------|--------|--------|--------|--------|--------|--------|--------|
D|--------|--------|--------|--------|--------|--------|--------|--------|--------|
A|--------|--------|--------|--------|--------|--------|--------|--------|--------|
E|--------|--------|--------|--------|--------|--------|--------|--------|--------|


E|-----------1011121314--10--|-12-----10-10----10------8---8--10----8--|-7---------------------8-------8---|
B|---------------------------|-----12-------10-------------------10----|-----8---10-8--7-----------7---8---|
G|---------------------------|-----------------------------------------|-----------------------------------|
D|---------------------------|-----------------------------------------|-----------------------------------|
A|---------------------------|-----------------------------------------|-----------------------------------|
E|---------------------------|-----------------------------------------|-----------------------------------|


E|-------8-------------7--------------|-------------------------------|------------------|
B|-8--7--7---7--5--5--------5----3----|-5-----------------------------|------------------|
G|------------------------------------|------4----2----4--------------|------------------|
D|------------------------------------|---------------------4----2----|-2----------------|
A|------------------------------------|-------------------------------|------------7--8--|
E|------------------------------------|-------------------------------|------------------|


E|-------------------------------------------|-----------------------7-------7----7--|
B|-------------------------------------------|-------7--8--10-7--10------10----------|
G|-------------------------------6--7--9--6--|-7--9----------------------------------|
D|----8--9--8--7---------9-------------------|---------------------------------------|
A|-9--------------9--------------------------|---------------------------------------|
E|-------------------------------------------|---------------------------------------|


E|-9---7---7--7--9---7----7--9----|-------------|-----------------|---------------------------|
B|--------------------------------|-------------|-----------------|-8-------------10--10------|
G|--------------------------------|-------------|-----------------|---------------------------|
D|--------------------------------|-------------|-----------------|---------------------------|
A|--------------------------------|-------------|-----------------|---------------------------|
E|--------------------------------|-------------|-----------------|---------------------------|


E|-----10------12---------------|-----------------9---9---9---9---9---9---7-----|------------------------|
B|---------------------12--12---|-12------10--12-----------------------------10-|-8----8----10-----------|
G|------------------------------|-----12----------------------------------------|---------------9---9----|
D|------------------------------|-----------------------------------------------|------------------------|
A|------------------------------|-----------------------------------------------|------------------------|
E|------------------------------|-----------------------------------------------|------------------------|


E|-------------|-----------------|----------------------------------------|--------------------|
B|-------------|-----------------|-----------3--2-------------------------|----------------6---|
G|-------------|-----------------|--------4----------2--2--2--0-------4---|--------------------|
D|-------------|-----------------|-----5----------------------------------|--------------------|
A|-------------|-----------------|----------------------------------------|--------------------|
E|-------------|-----------------|----------------------------------------|--------------------|


E|-------------5-------7-------5-----------|---------5---7---5-----------------|-------------------------------|
B|-----8------------------------------8----|-6---8---------------8---6---------|-----------------------5-------|
G|-----------------------------------------|-----------------------------------|---------------6---6-------6---|
D|-----------------------------------------|-----------------------------------|-------------------------------|
A|-----------------------------------------|-----------------------------------|-------------------------------|
E|-----------------------------------------|-----------------------------------|-------------------------------|


E|----------------------------------|-------------|----------17----17---|-------------14---------------|
B|-5-------5---7---7---7------------|-------------|---------------------|------------------------------|
G|-----6----------------------------|-------------|---------------------|-----------------16--16--16---|
D|----------------------------------|-------------|---------------------|------------------------------|
A|----------------------------------|-------------|---------------------|------------------------------|
E|----------------------------------|-------------|---------------------|------------------------------|


E|-------------------------------------|----------------------------------12--|-----15--------12-----------|
B|------------------------------10-----|----12---12--------------10--13-------|----------14-------14--14---|
G|---------------------10-10-----------|-------------12------10---------------|----------------------------|
D|-----------------12------------------|-----------------12-------------------|----------------------------|
A|-------------10----------------------|--------------------------------------|----------------------------|
E|-------------------------------------|--------------------------------------|----------------------------|


E|-------------|-------------|-------------|----------------14---14--12--|--------------------------------|
B|-------------|-------------|-------------|-------------15--------------|-----12--15--13-------12--------|
G|-------------|-------------|-------------|----------16-----------------|------------------14------12----|
D|-------------|-------------|-------------|-----------------------------|-----------------------------12-|
A|-------------|-------------|-------------|-----------------------------|--------------------------------|
E|-------------|-------------|-------------|-----------------------------|--------------------------------|


E|---------------7----------------|--------------------------------------|-------------------------|
B|-10-----------------10--8---7---|--------------------------------------|-------------------------|
G|-----10-------------------------|-----7--------------------------------|-------------------------|
D|--------12----------------------|--------7-------------------------9---|-------------------------|
A|--------------------------------|-----------7--9----7----9----9--------|-----9----7--------------|
E|--------------------------------|--------------------------------------|-------------------------|


E|-------------------------------------|--------------------------------------|------------------------------9-------|
B|-------------------------------------|--------------------------------------|----------------------10-12-------12--|
G|-------------------------------------|--------------------------------------|-------------9--11-12-----------------|
D|-------------------------------------|-----------------7--8--9--------------|-7--9--11-12--------------------------|
A|---------------7--8--9--10--10-9--8--|-7---7--8--9--10----------------9--10-|--------------------------------------|
E|-------------------------------------|--------------------------------------|--------------------------------------|


E|--------------------|-----------10--12--12----------------|-----------------------------------------|
B|-12-----------------|--------10-------------13--13-13-15--|-12-13-----12----------------------------|
G|-----11--11---9-----|-----10------------------------------|--------14-----12-9--9--7----------------|
D|--------------------|-------------------------------------|----------------------------10-10-9--7---|
A|--------------------|-------------------------------------|-----------------------------------------|
E|--------------------|-------------------------------------|-----------------------------------------|


E|-----------------------------7--8--10-8--7-----|-7--8--7-----7--------------------------------------|
B|-----------------------8--10----------------10-|----------10----10--8-------8-----------------------|
G|--------------7--9--10-------------------------|------------------------10------10--9---10--9---7---|
D|-----7--9--10----------------------------------|----------------------------------------------------|
A|-----------------------------------------------|----------------------------------------------------|
E|-----------------------------------------------|----------------------------------------------------|


E|--------|-------------|--------|--------|--------|--------|--------|--------|--------|
B|--------|-------------|--------|--------|--------|--------|--------|--------|--------|
G|--------|-------------|--------|--------|--------|--------|--------|--------|--------|
D|-8------|-------------|--------|--------|--------|--------|--------|--------|--------|
A|--------|-------------|--------|--------|--------|--------|--------|--------|--------|
E|--------|-------------|--------|--------|--------|--------|--------|--------|--------|


E|--------|--------|--------|--------|--------|--------|--------|--------|--------|
B|--------|--------|--------|--------|--------|--------|--------|--------|--------|
G|--------|--------|--------|--------|--------|--------|--------|--------|--------|
D|--------|--------|--------|--------|--------|--------|--------|--------|--------|
A|--------|--------|--------|--------|--------|--------|--------|--------|--------|
E|--------|--------|--------|--------|--------|--------|--------|--------|--------|


E|--------|--------|--------|--------|--------|--------|--------|--------|--------|
B|--------|--------|--------|--------|--------|--------|--------|--------|--------|
G|--------|--------|--------|--------|--------|--------|--------|--------|--------|
D|--------|--------|--------|--------|--------|--------|--------|--------|--------|
A|--------|--------|--------|--------|--------|--------|--------|--------|--------|
E|--------|--------|--------|--------|--------|--------|--------|--------|--------|


E|--------|--------|--------|--------|--------|--------|--------|--------|--------|
B|--------|--------|--------|--------|--------|--------|--------|--------|--------|
G|--------|--------|--------|--------|--------|--------|--------|--------|--------|
D|--------|--------|--------|--------|--------|--------|--------|--------|--------|
A|--------|--------|--------|--------|--------|--------|--------|--------|--------|
E|--------|--------|--------|--------|--------|--------|--------|--------|--------|


E|--------|--------|--------|--------|--------|--------|--------|--------|--------|
B|--------|--------|--------|--------|--------|--------|--------|--------|--------|
G|--------|--------|--------|--------|--------|--------|--------|--------|--------|
D|--------|--------|--------|--------|--------|--------|--------|--------|--------|
A|--------|--------|--------|--------|--------|--------|--------|--------|--------|
E|--------|--------|--------|--------|--------|--------|--------|--------|--------|


E|--------|--------|--------|--------|--------|--------|--------|--------|--------|
B|--------|--------|--------|--------|--------|--------|--------|--------|--------|
G|--------|--------|--------|--------|--------|--------|--------|--------|--------|
D|--------|--------|--------|--------|--------|--------|--------|--------|--------|
A|--------|--------|--------|--------|--------|--------|--------|--------|--------|
E|--------|--------|--------|--------|--------|--------|--------|--------|--------|


E|--------|--------|--------|--------|--------|--------|--------|--------|--------|
B|--------|--------|--------|--------|--------|--------|--------|--------|--------|
G|--------|--------|--------|--------|--------|--------|--------|--------|--------|
D|--------|--------|--------|--------|--------|--------|--------|--------|--------|
A|--------|--------|--------|--------|--------|--------|--------|--------|--------|
E|--------|--------|--------|--------|--------|--------|--------|--------|--------|


E|--------|--------|--------|--------|--------|--------|--------|--------|--------|
B|--------|--------|--------|--------|--------|--------|--------|--------|--------|
G|--------|--------|--------|--------|--------|--------|--------|--------|--------|
D|--------|--------|--------|--------|--------|--------|--------|--------|--------|
A|--------|--------|--------|--------|--------|--------|--------|--------|--------|
E|--------|--------|--------|--------|--------|--------|--------|--------|--------|


E|--------|--------|--------|--------|--------|--------|--------|--------|--------|
B|--------|--------|--------|--------|--------|--------|--------|--------|--------|
G|--------|--------|--------|--------|--------|--------|--------|--------|--------|
D|--------|--------|--------|--------|--------|--------|--------|--------|--------|
A|--------|--------|--------|--------|--------|--------|--------|--------|--------|
E|--------|--------|--------|--------|--------|--------|--------|--------|--------|


E|--------|--------|--------|--------|
B|--------|--------|--------|--------|
G|--------|--------|--------|--------|
D|--------|--------|--------|--------|
A|--------|--------|--------|--------|
E|--------|--------|--------|--------|





Track 6: Acoustic piano arranged for guitar

E|--------|--------|--------|--------|--------|--------|--------|--------|--------|
B|--------|--------|--------|--------|--------|--------|--------|--------|--------|
G|--------|--------|--------|--------|--------|--------|--------|--------|--------|
D|--------|--------|--------|--------|--------|--------|--------|--------|--------|
A|--------|--------|--------|--------|--------|--------|--------|--------|--------|
E|--------|--------|--------|--------|--------|--------|--------|--------|--------|


E|--------|--------|--------|--------|--------|--------|--------|--------|--------|
B|--------|--------|--------|--------|--------|--------|--------|--------|--------|
G|--------|--------|--------|--------|--------|--------|--------|--------|--------|
D|--------|--------|--------|--------|--------|--------|--------|--------|--------|
A|--------|--------|--------|--------|--------|--------|--------|--------|--------|
E|--------|--------|--------|--------|--------|--------|--------|--------|--------|


E|--------|--------|--------|--------|--------|--------|--------|--------|--------|
B|--------|--------|--------|--------|--------|--------|--------|--------|--------|
G|--------|--------|--------|--------|--------|--------|--------|--------|--------|
D|--------|--------|--------|--------|--------|--------|--------|--------|--------|
A|--------|--------|--------|--------|--------|--------|--------|--------|--------|
E|--------|--------|--------|--------|--------|--------|--------|--------|--------|


E|--------|--------|--------|--------|--------|--------|--------|--------|--------|
B|--------|--------|--------|--------|--------|--------|--------|--------|--------|
G|--------|--------|--------|--------|--------|--------|--------|--------|--------|
D|--------|--------|--------|--------|--------|--------|--------|--------|--------|
A|--------|--------|--------|--------|--------|--------|--------|--------|--------|
E|--------|--------|--------|--------|--------|--------|--------|--------|--------|


E|--------|--------|--------|--------|--------|--------|--------|--------|--------|
B|--------|--------|--------|--------|--------|--------|--------|--------|--------|
G|--------|--------|--------|--------|--------|--------|--------|--------|--------|
D|--------|--------|--------|--------|--------|--------|--------|--------|--------|
A|--------|--------|--------|--------|--------|--------|--------|--------|--------|
E|--------|--------|--------|--------|--------|--------|--------|--------|--------|


E|--------|--------|--------|--------|--------|--------|--------|--------|--------|
B|--------|--------|--------|--------|--------|--------|--------|--------|--------|
G|--------|--------|--------|--------|--------|--------|--------|--------|--------|
D|--------|--------|--------|--------|--------|--------|--------|--------|--------|
A|--------|--------|--------|--------|--------|--------|--------|--------|--------|
E|--------|--------|--------|--------|--------|--------|--------|--------|--------|


E|--------|--------|--------|--------|--------|--------|--------|--------|--------|
B|--------|--------|--------|--------|--------|--------|--------|--------|--------|
G|--------|--------|--------|--------|--------|--------|--------|--------|--------|
D|--------|--------|--------|--------|--------|--------|--------|--------|--------|
A|--------|--------|--------|--------|--------|--------|--------|--------|--------|
E|--------|--------|--------|--------|--------|--------|--------|--------|--------|


E|--------|--------|--------|--------|--------|--------|--------|--------|--------|
B|--------|--------|--------|--------|--------|--------|--------|--------|--------|
G|--------|--------|--------|--------|--------|--------|--------|--------|--------|
D|--------|--------|--------|--------|--------|--------|--------|--------|--------|
A|--------|--------|--------|--------|--------|--------|--------|--------|--------|
E|--------|--------|--------|--------|--------|--------|--------|--------|--------|


E|--------|--------|--------|--------|--------|--------|--------|--------|--------|
B|--------|--------|--------|--------|--------|--------|--------|--------|--------|
G|--------|--------|--------|--------|--------|--------|--------|--------|--------|
D|--------|--------|--------|--------|--------|--------|--------|--------|--------|
A|--------|--------|--------|--------|--------|--------|--------|--------|--------|
E|--------|--------|--------|--------|--------|--------|--------|--------|--------|


E|--------|--------|--------|--------|--------|--------|--------|--------|--------|
B|--------|--------|--------|--------|--------|--------|--------|--------|--------|
G|--------|--------|--------|--------|--------|--------|--------|--------|--------|
D|--------|--------|--------|--------|--------|--------|--------|--------|--------|
A|--------|--------|--------|--------|--------|--------|--------|--------|--------|
E|--------|--------|--------|--------|--------|--------|--------|--------|--------|


E|--------|--------|--------|--------|--------|--------|--------|--------|--------|
B|--------|--------|--------|--------|--------|--------|--------|--------|--------|
G|--------|--------|--------|--------|--------|--------|--------|--------|--------|
D|--------|--------|--------|--------|--------|--------|--------|--------|--------|
A|--------|--------|--------|--------|--------|--------|--------|--------|--------|
E|--------|--------|--------|--------|--------|--------|--------|--------|--------|


E|--------|--------|--------|--------|--------|--------|--------|--------|--------|
B|--------|--------|--------|--------|--------|--------|--------|--------|--------|
G|--------|--------|--------|--------|--------|--------|--------|--------|--------|
D|--------|--------|--------|--------|--------|--------|--------|--------|--------|
A|--------|--------|--------|--------|--------|--------|--------|--------|--------|
E|--------|--------|--------|--------|--------|--------|--------|--------|--------|


E|--------|--------|--------|--------|--------|--------|--------|--------|--------|
B|--------|--------|--------|--------|--------|--------|--------|--------|--------|
G|--------|--------|--------|--------|--------|--------|--------|--------|--------|
D|--------|--------|--------|--------|--------|--------|--------|--------|--------|
A|--------|--------|--------|--------|--------|--------|--------|--------|--------|
E|--------|--------|--------|--------|--------|--------|--------|--------|--------|


E|--------|-------------|-------------|--------|--------|--------|--------|--------|
B|--------|-------------|-------------|--------|--------|--------|--------|--------|
G|--------|-------------|-------------|--------|--------|--------|--------|--------|
D|--------|-------------|-------------|--------|--------|--------|--------|--------|
A|--------|-------------|-------------|--------|--------|--------|--------|--------|
E|--------|-------------|-------------|--------|--------|--------|--------|--------|


E|--------|--------|--------|--------|--------|--------|--------|--------|--------|
B|--------|--------|--------|--------|--------|--------|--------|--------|--------|
G|--------|--------|--------|--------|--------|--------|--------|--------|--------|
D|--------|--------|--------|--------|--------|--------|--------|--------|--------|
A|--------|--------|--------|--------|--------|--------|--------|--------|--------|
E|--------|--------|--------|--------|--------|--------|--------|--------|--------|


E|--------|--------|--------|--------|--------|--------|--------|--------|--------|
B|--------|--------|--------|--------|--------|--------|--------|--------|--------|
G|--------|--------|--------|--------|--------|--------|--------|--------|--------|
D|--------|--------|--------|--------|--------|--------|--------|--------|--------|
A|--------|--------|--------|--------|--------|--------|--------|--------|--------|
E|--------|--------|--------|--------|--------|--------|--------|--------|--------|


E|--------|--------|--------|--------|--------|--------|--------|--------|--------|
B|--------|--------|--------|--------|--------|--------|--------|--------|--------|
G|--------|--------|--------|--------|--------|--------|--------|--------|--------|
D|--------|--------|--------|--------|--------|--------|--------|--------|--------|
A|--------|--------|--------|--------|--------|--------|--------|--------|--------|
E|--------|--------|--------|--------|--------|--------|--------|--------|--------|


E|--------|--------|--------|--------|--------|--------|--------|--------|--------|
B|--------|--------|--------|--------|--------|--------|--------|--------|--------|
G|--------|--------|--------|--------|--------|--------|--------|--------|--------|
D|--------|--------|--------|--------|--------|--------|--------|--------|--------|
A|--------|--------|--------|--------|--------|--------|--------|--------|--------|
E|--------|--------|--------|--------|--------|--------|--------|--------|--------|


E|--------|--------|--------|--------|--------|--------|--------|--------|--------|
B|--------|--------|--------|--------|--------|--------|--------|--------|--------|
G|--------|--------|--------|--------|--------|--------|--------|--------|--------|
D|--------|--------|--------|--------|--------|--------|--------|--------|--------|
A|--------|--------|--------|--------|--------|--------|--------|--------|--------|
E|--------|--------|--------|--------|--------|--------|--------|--------|--------|


E|--------|--------|--------|--------|--------|--------|--------|--------|--------|
B|--------|--------|--------|--------|--------|--------|--------|--------|--------|
G|--------|--------|--------|--------|--------|--------|--------|--------|--------|
D|--------|--------|--------|--------|--------|--------|--------|--------|--------|
A|--------|--------|--------|--------|--------|--------|--------|--------|--------|
E|--------|--------|--------|--------|--------|--------|--------|--------|--------|


E|--------|--------|--------|--------|--------|--------|--------|--------|--------|
B|--------|--------|--------|--------|--------|--------|--------|--------|--------|
G|--------|--------|--------|--------|--------|--------|--------|--------|--------|
D|--------|--------|--------|--------|--------|--------|--------|--------|--------|
A|--------|--------|--------|--------|--------|--------|--------|--------|--------|
E|--------|--------|--------|--------|--------|--------|--------|--------|--------|


E|--------|--------|--------|--------|--------|--------|--------|--------|--------|
B|--------|--------|--------|--------|--------|--------|--------|--------|--------|
G|--------|--------|--------|--------|--------|--------|--------|--------|--------|
D|--------|--------|--------|--------|--------|--------|--------|--------|--------|
A|--------|--------|--------|--------|--------|--------|--------|--------|--------|
E|--------|--------|--------|--------|--------|--------|--------|--------|--------|


E|--------|--------|--------|--------|--------|--------|--------|--------|--------|
B|--------|--------|--------|--------|--------|--------|--------|--------|--------|
G|--------|--------|--------|--------|--------|--------|--------|--------|--------|
D|--------|--------|--------|--------|--------|--------|--------|--------|--------|
A|--------|--------|--------|--------|--------|--------|--------|--------|--------|
E|--------|--------|--------|--------|--------|--------|--------|--------|--------|


E|--------|--------|--------|--------|--------|--------|--------|--------|--------|
B|--------|--------|--------|--------|--------|--------|--------|--------|--------|
G|--------|--------|--------|--------|--------|--------|--------|--------|--------|
D|--------|--------|--------|--------|--------|--------|--------|--------|--------|
A|--------|--------|--------|--------|--------|--------|--------|--------|--------|
E|--------|--------|--------|--------|--------|--------|--------|--------|--------|


E|--------|--------|--------|--------|--------|
B|--------|--------|--------|--------|--------|
G|--------|--------|--------|--------|--------|
D|--------|--------|--------|--------|--------|
A|--------|--------|--------|--------|--------|
E|--------|--------|--------|--------|--------|





Track 7: wayne shorter

E|--------|--------|--------|--------|--------|--------|--------|--------|--------|
B|--------|--------|--------|--------|--------|--------|--------|--------|--------|
G|--------|--------|--------|--------|--------|--------|--------|--------|--------|
D|--------|--------|--------|--------|--------|--------|--------|--------|--------|
A|--------|--------|--------|--------|--------|--------|--------|--------|--------|
E|--------|--------|--------|--------|--------|--------|--------|--------|--------|


E|--------|--------|--------|--------|--------|--------|--------|--------|--------|
B|--------|--------|--------|--------|--------|--------|--------|--------|--------|
G|--------|--------|--------|--------|--------|--------|--------|--------|--------|
D|--------|--------|--------|--------|--------|--------|--------|--------|--------|
A|--------|--------|--------|--------|--------|--------|--------|--------|--------|
E|--------|--------|--------|--------|--------|--------|--------|--------|--------|


E|--------|--------|--------|--------|--------|--------|--------|--------|--------|
B|--------|--------|--------|--------|--------|--------|--------|--------|--------|
G|--------|--------|--------|--------|--------|--------|--------|--------|--------|
D|--------|--------|--------|--------|--------|--------|--------|--------|--------|
A|--------|--------|--------|--------|--------|--------|--------|--------|--------|
E|--------|--------|--------|--------|--------|--------|--------|--------|--------|


E|--------|--------|--------|--------|--------|--------|--------|--------|--------|
B|--------|--------|--------|--------|--------|--------|--------|--------|--------|
G|--------|--------|--------|--------|--------|--------|--------|--------|--------|
D|--------|--------|--------|--------|--------|--------|--------|--------|--------|
A|--------|--------|--------|--------|--------|--------|--------|--------|--------|
E|--------|--------|--------|--------|--------|--------|--------|--------|--------|


E|--------|--------|--------|--------|--------|--------|--------|--------|--------|
B|--------|--------|--------|--------|--------|--------|--------|--------|--------|
G|--------|--------|--------|--------|--------|--------|--------|--------|--------|
D|--------|--------|--------|--------|--------|--------|--------|--------|--------|
A|--------|--------|--------|--------|--------|--------|--------|--------|--------|
E|--------|--------|--------|--------|--------|--------|--------|--------|--------|


E|--------|--------|--------|--------|--------|--------|--------|--------|--------|
B|--------|--------|--------|--------|--------|--------|--------|--------|--------|
G|--------|--------|--------|--------|--------|--------|--------|--------|--------|
D|--------|--------|--------|--------|--------|--------|--------|--------|--------|
A|--------|--------|--------|--------|--------|--------|--------|--------|--------|
E|--------|--------|--------|--------|--------|--------|--------|--------|--------|


E|--------|--------|--------|--------|--------|--------|--------|--------|--------|
B|--------|--------|--------|--------|--------|--------|--------|--------|--------|
G|--------|--------|--------|--------|--------|--------|--------|--------|--------|
D|--------|--------|--------|--------|--------|--------|--------|--------|--------|
A|--------|--------|--------|--------|--------|--------|--------|--------|--------|
E|--------|--------|--------|--------|--------|--------|--------|--------|--------|


E|--------|--------|--------|--------|--------|--------|--------|--------|--------|
B|--------|--------|--------|--------|--------|--------|--------|--------|--------|
G|--------|--------|--------|--------|--------|--------|--------|--------|--------|
D|--------|--------|--------|--------|--------|--------|--------|--------|--------|
A|--------|--------|--------|--------|--------|--------|--------|--------|--------|
E|--------|--------|--------|--------|--------|--------|--------|--------|--------|


E|--------|--------|--------|--------|--------|--------|--------|--------|--------|
B|--------|--------|--------|--------|--------|--------|--------|--------|--------|
G|--------|--------|--------|--------|--------|--------|--------|--------|--------|
D|--------|--------|--------|--------|--------|--------|--------|--------|--------|
A|--------|--------|--------|--------|--------|--------|--------|--------|--------|
E|--------|--------|--------|--------|--------|--------|--------|--------|--------|


E|--------|--------|--------|--------|--------|--------|--------|--------|--------|
B|--------|--------|--------|--------|--------|--------|--------|--------|--------|
G|--------|--------|--------|--------|--------|--------|--------|--------|--------|
D|--------|--------|--------|--------|--------|--------|--------|--------|--------|
A|--------|--------|--------|--------|--------|--------|--------|--------|--------|
E|--------|--------|--------|--------|--------|--------|--------|--------|--------|


E|--------|--------|--------|--------|--------|--------|--------|--------|--------|
B|--------|--------|--------|--------|--------|--------|--------|--------|--------|
G|--------|--------|--------|--------|--------|--------|--------|--------|--------|
D|--------|--------|--------|--------|--------|--------|--------|--------|--------|
A|--------|--------|--------|--------|--------|--------|--------|--------|--------|
E|--------|--------|--------|--------|--------|--------|--------|--------|--------|


E|--------|--------|--------|--------|--------|--------|--------|--------|--------|
B|--------|--------|--------|--------|--------|--------|--------|--------|--------|
G|--------|--------|--------|--------|--------|--------|--------|--------|--------|
D|--------|--------|--------|--------|--------|--------|--------|--------|--------|
A|--------|--------|--------|--------|--------|--------|--------|--------|--------|
E|--------|--------|--------|--------|--------|--------|--------|--------|--------|


E|--------|--------|--------|--------|--------|--------|--------|--------|--------|
B|--------|--------|--------|--------|--------|--------|--------|--------|--------|
G|--------|--------|--------|--------|--------|--------|--------|--------|--------|
D|--------|--------|--------|--------|--------|--------|--------|--------|--------|
A|--------|--------|--------|--------|--------|--------|--------|--------|--------|
E|--------|--------|--------|--------|--------|--------|--------|--------|--------|


E|--------|--------|--------|--------|--------|--------|--------|--------|--------|
B|--------|--------|--------|--------|--------|--------|--------|--------|--------|
G|--------|--------|--------|--------|--------|--------|--------|--------|--------|
D|--------|--------|--------|--------|--------|--------|--------|--------|--------|
A|--------|--------|--------|--------|--------|--------|--------|--------|--------|
E|--------|--------|--------|--------|--------|--------|--------|--------|--------|


E|--------|--------|--------|--------|--------|--------|--------|--------|--------|
B|--------|--------|--------|--------|--------|--------|--------|--------|--------|
G|--------|--------|--------|--------|--------|--------|--------|--------|--------|
D|--------|--------|--------|--------|--------|--------|--------|--------|--------|
A|--------|--------|--------|--------|--------|--------|--------|--------|--------|
E|--------|--------|--------|--------|--------|--------|--------|--------|--------|


E|--------|--------------------|--------------------------|------------------------------|
B|--------|--------------------|-------10-----------------|-----10-----------------------|
G|--------|------------9-------|-9--------9--9--------9---|-9----------------9-------9---|
D|--------|-----------------12-|------------------12------|----------------------12------|
A|--------|--------------------|--------------------------|------------------------------|
E|--------|--------------------|--------------------------|------------------------------|


E|------------------------------|-------------------------------|-----------------------------------------|
B|-----12---------------12------|----------12--10-----------10--|-10---10-9-------------------------------|
G|-9-------9-------9------------|------------------9------------|------------119--------------------------|
D|-------------12---------------|-------------------------------|----------------12119--------------------|
A|------------------------------|-------------------------------|----------------------12119--------------|
E|------------------------------|-------------------------------|----------------------------12109--------|


E|------------9----|-9-------------------------|-------------------------------|---------------7------------------|
B|-----------------|-----10--------------------|-------------------------------|-------------------9--------------|
G|-----------------|----------11--11---9-------|-----------------10-12-10---11-|-8----------------------9----9----|
D|-----------------|-----------------------11--|-9------------12---------------|----9-----------------------------|
A|-----------------|---------------------------|-------------------------------|-------11-------------------------|
E|-----------------|---------------------------|-------------------------------|----------------------------------|


E|-------------------------8--6--4--|-------------9--5--3------6--4--2----------|-5---3--1----------------|
B|----------------------------------|-6--------------------5------------4-------|-----------3-------------|
G|-8----6---------------------------|-------------------------------------------|-------------------------|
D|----------------------------------|-------------------------------------------|-------------------------|
A|----------------------------------|-------------------------------------------|-------------------------|
E|----------------------------------|-------------------------------------------|-------------------------|


E|---------------------|-----------------|-----------------|-----------------|-------------|
B|---------------------|-----------------|-----------------|-----------------|-------------|
G|---------------------|-----------------|------------7----|------7----------|-------------|
D|------4----4---6-----|-7----6----------|-----------------|-----------------|-------------|
A|---------------------|-----------------|-----------------|-----------------|------7------|
E|---------------------|-----------------|-----------------|-----------------|-------------|


E|----------------|-----------------|---------------------------|--------------------------10--9---|
B|----------------|-----------------|---------------------------|----------------------------------|
G|----------------|-----------------|---------------------------|-6---7--9--9---------9------------|
D|-4-----------7--|-6-----7---7-----|------7--9----9----9----7--|----------------------------------|
A|----------------|-----------------|---------------------------|----------------------------------|
E|----------------|-----------------|---------------------------|----------------------------------|


E|-9-----9----------------------|-----10-9--9---9--5--9--7--5--9--7--5--9--7--5------|
B|-----------10-7-----7---------|----------------------------------------------------|
G|-----------------7-----7------|----------------------------------------------------|
D|------------------------------|----------------------------------------------------|
A|------------------------------|----------------------------------------------------|
E|------------------------------|----------------------------------------------------|


E|------------------------------|----------------------------------------|----7----7------------------------|
B|----5-------------------------|-------------10-8---------9--7----------|-------------9--------------------|
G|---------6--------------------|-------7--10--------------------8-------|----------------9--6--------------|
D|-------------7-------------7--|-8--10----------------------------------|-----------------------9--6-------|
A|------------------------------|----------------------------------------|-----------------------------7----|
E|------------------------------|----------------------------------------|----------------------------------|


E|--------------------------------|--------|--------------------|---------------------|
B|--------------------------------|--------|--------------------|---------------------|
G|--------------------------------|--------|--------------------|---------------------|
D|----------------6---7---8---9---|--------|--------------------|-6-----7---7----6----|
A|------7---8--9------------------|--------|-----------------9--|---------------------|
E|--------------------------------|--------|--------------------|---------------------|


E|--------|--------|--------|--------|--------|--------|--------|--------|--------|
B|--------|--------|--------|--------|--------|--------|--------|--------|--------|
G|--------|--------|--------|--------|--------|--------|--------|--------|--------|
D|--------|--------|--------|--------|--------|--------|--------|--------|--------|
A|--------|--------|--------|--------|--------|--------|--------|--------|--------|
E|--------|--------|--------|--------|--------|--------|--------|--------|--------|


E|--------|--------|--------|--------|--------|--------|--------|--------|--------|
B|--------|--------|--------|--------|--------|--------|--------|--------|--------|
G|--------|--------|--------|--------|--------|--------|--------|--------|--------|
D|--------|--------|--------|--------|--------|--------|--------|--------|--------|
A|--------|--------|--------|--------|--------|--------|--------|--------|--------|
E|--------|--------|--------|--------|--------|--------|--------|--------|--------|


E|--------|--------|--------|--------|--------|--------|--------|--------|--------|
B|--------|--------|--------|--------|--------|--------|--------|--------|--------|
G|--------|--------|--------|--------|--------|--------|--------|--------|--------|
D|--------|--------|--------|--------|--------|--------|--------|--------|--------|
A|--------|--------|--------|--------|--------|--------|--------|--------|--------|
E|--------|--------|--------|--------|--------|--------|--------|--------|--------|


E|--------|--------|--------|--------|--------|--------|--------|--------|--------|
B|--------|--------|--------|--------|--------|--------|--------|--------|--------|
G|--------|--------|--------|--------|--------|--------|--------|--------|--------|
D|--------|--------|--------|--------|--------|--------|--------|--------|--------|
A|--------|--------|--------|--------|--------|--------|--------|--------|--------|
E|--------|--------|--------|--------|--------|--------|--------|--------|--------|


E|--------|--------|--------|--------|--------|--------|--------|--------|--------|
B|--------|--------|--------|--------|--------|--------|--------|--------|--------|
G|--------|--------|--------|--------|--------|--------|--------|--------|--------|
D|--------|--------|--------|--------|--------|--------|--------|--------|--------|
A|--------|--------|--------|--------|--------|--------|--------|--------|--------|
E|--------|--------|--------|--------|--------|--------|--------|--------|--------|


E|--------|--------|--------|--------|--------|--------|--------|--------|
B|--------|--------|--------|--------|--------|--------|--------|--------|
G|--------|--------|--------|--------|--------|--------|--------|--------|
D|--------|--------|--------|--------|--------|--------|--------|--------|
A|--------|--------|--------|--------|--------|--------|--------|--------|
E|--------|--------|--------|--------|--------|--------|--------|--------|





Track 8: Acoustic piano arranged for guitar

E|--------|--------|--------|--------|--------|--------|--------|--------|--------|
B|--------|--------|--------|--------|--------|--------|--------|--------|--------|
G|--------|--------|--------|--------|--------|--------|--------|--------|--------|
D|--------|--------|--------|--------|--------|--------|--------|--------|--------|
A|--------|--------|--------|--------|--------|--------|--------|--------|--------|
E|--------|--------|--------|--------|--------|--------|--------|--------|--------|


E|--------|--------|--------|--------|--------|--------|--------|--------|--------|
B|--------|--------|--------|--------|--------|--------|--------|--------|--------|
G|--------|--------|--------|--------|--------|--------|--------|--------|--------|
D|--------|--------|--------|--------|--------|--------|--------|--------|--------|
A|--------|--------|--------|--------|--------|--------|--------|--------|--------|
E|--------|--------|--------|--------|--------|--------|--------|--------|--------|


E|--------|--------|--------|--------|--------|--------|--------|--------|--------|
B|--------|--------|--------|--------|--------|--------|--------|--------|--------|
G|--------|--------|--------|--------|--------|--------|--------|--------|--------|
D|--------|--------|--------|--------|--------|--------|--------|--------|--------|
A|--------|--------|--------|--------|--------|--------|--------|--------|--------|
E|--------|--------|--------|--------|--------|--------|--------|--------|--------|


E|--------|--------|--------|--------|--------|--------|--------|--------|--------|
B|--------|--------|--------|--------|--------|--------|--------|--------|--------|
G|--------|--------|--------|--------|--------|--------|--------|--------|--------|
D|--------|--------|--------|--------|--------|--------|--------|--------|--------|
A|--------|--------|--------|--------|--------|--------|--------|--------|--------|
E|--------|--------|--------|--------|--------|--------|--------|--------|--------|


E|--------|--------|--------|--------|--------|--------|--------|--------|--------|
B|--------|--------|--------|--------|--------|--------|--------|--------|--------|
G|--------|--------|--------|--------|--------|--------|--------|--------|--------|
D|--------|--------|--------|--------|--------|--------|--------|--------|--------|
A|--------|--------|--------|--------|--------|--------|--------|--------|--------|
E|--------|--------|--------|--------|--------|--------|--------|--------|--------|


E|--------|--------|--------|--------|--------|--------|--------|--------|--------|
B|--------|--------|--------|--------|--------|--------|--------|--------|--------|
G|--------|--------|--------|--------|--------|--------|--------|--------|--------|
D|--------|--------|--------|--------|--------|--------|--------|--------|--------|
A|--------|--------|--------|--------|--------|--------|--------|--------|--------|
E|--------|--------|--------|--------|--------|--------|--------|--------|--------|


E|--------|--------|--------|--------|--------|--------|--------|--------|--------|
B|--------|--------|--------|--------|--------|--------|--------|--------|--------|
G|--------|--------|--------|--------|--------|--------|--------|--------|--------|
D|--------|--------|--------|--------|--------|--------|--------|--------|--------|
A|--------|--------|--------|--------|--------|--------|--------|--------|--------|
E|--------|--------|--------|--------|--------|--------|--------|--------|--------|


E|--------|--------|--------|--------|--------|--------|--------|--------|--------|
B|--------|--------|--------|--------|--------|--------|--------|--------|--------|
G|--------|--------|--------|--------|--------|--------|--------|--------|--------|
D|--------|--------|--------|--------|--------|--------|--------|--------|--------|
A|--------|--------|--------|--------|--------|--------|--------|--------|--------|
E|--------|--------|--------|--------|--------|--------|--------|--------|--------|


E|--------|--------|--------|--------|--------|--------|--------|--------|--------|
B|--------|--------|--------|--------|--------|--------|--------|--------|--------|
G|--------|--------|--------|--------|--------|--------|--------|--------|--------|
D|--------|--------|--------|--------|--------|--------|--------|--------|--------|
A|--------|--------|--------|--------|--------|--------|--------|--------|--------|
E|--------|--------|--------|--------|--------|--------|--------|--------|--------|


E|--------|--------|--------|--------|--------|--------|--------|--------|--------|
B|--------|--------|--------|--------|--------|--------|--------|--------|--------|
G|--------|--------|--------|--------|--------|--------|--------|--------|--------|
D|--------|--------|--------|--------|--------|--------|--------|--------|--------|
A|--------|--------|--------|--------|--------|--------|--------|--------|--------|
E|--------|--------|--------|--------|--------|--------|--------|--------|--------|


E|--------|--------|--------|--------|--------|--------|--------|--------|--------|
B|--------|--------|--------|--------|--------|--------|--------|--------|--------|
G|--------|--------|--------|--------|--------|--------|--------|--------|--------|
D|--------|--------|--------|--------|--------|--------|--------|--------|--------|
A|--------|--------|--------|--------|--------|--------|--------|--------|--------|
E|--------|--------|--------|--------|--------|--------|--------|--------|--------|


E|--------|--------|--------|--------|--------|--------|--------|--------|--------|
B|--------|--------|--------|--------|--------|--------|--------|--------|--------|
G|--------|--------|--------|--------|--------|--------|--------|--------|--------|
D|--------|--------|--------|--------|--------|--------|--------|--------|--------|
A|--------|--------|--------|--------|--------|--------|--------|--------|--------|
E|--------|--------|--------|--------|--------|--------|--------|--------|--------|


E|--------|--------|--------|--------|--------|--------|--------|--------|--------|
B|--------|--------|--------|--------|--------|--------|--------|--------|--------|
G|--------|--------|--------|--------|--------|--------|--------|--------|--------|
D|--------|--------|--------|--------|--------|--------|--------|--------|--------|
A|--------|--------|--------|--------|--------|--------|--------|--------|--------|
E|--------|--------|--------|--------|--------|--------|--------|--------|--------|


E|--------|--------|--------|--------|--------|--------|--------|--------|--------|
B|--------|--------|--------|--------|--------|--------|--------|--------|--------|
G|--------|--------|--------|--------|--------|--------|--------|--------|--------|
D|--------|--------|--------|--------|--------|--------|--------|--------|--------|
A|--------|--------|--------|--------|--------|--------|--------|--------|--------|
E|--------|--------|--------|--------|--------|--------|--------|--------|--------|


E|--------|--------|--------|--------|--------|--------|--------|--------|--------|
B|--------|--------|--------|--------|--------|--------|--------|--------|--------|
G|--------|--------|--------|--------|--------|--------|--------|--------|--------|
D|--------|--------|--------|--------|--------|--------|--------|--------|--------|
A|--------|--------|--------|--------|--------|--------|--------|--------|--------|
E|--------|--------|--------|--------|--------|--------|--------|--------|--------|


E|--------|--------|--------|--------|--------|--------|--------|--------|--------|
B|--------|--------|--------|--------|--------|--------|--------|--------|--------|
G|--------|--------|--------|--------|--------|--------|--------|--------|--------|
D|--------|--------|--------|--------|--------|--------|--------|--------|--------|
A|--------|--------|--------|--------|--------|--------|--------|--------|--------|
E|--------|--------|--------|--------|--------|--------|--------|--------|--------|


E|--------|--------|--------|--------|--------|--------|--------|--------|--------|
B|--------|--------|--------|--------|--------|--------|--------|--------|--------|
G|--------|--------|--------|--------|--------|--------|--------|--------|--------|
D|--------|--------|--------|--------|--------|--------|--------|--------|--------|
A|--------|--------|--------|--------|--------|--------|--------|--------|--------|
E|--------|--------|--------|--------|--------|--------|--------|--------|--------|


E|--------|--------|--------|--------|--------|--------|--------|--------|--------|
B|--------|--------|--------|--------|--------|--------|--------|--------|--------|
G|--------|--------|--------|--------|--------|--------|--------|--------|--------|
D|--------|--------|--------|--------|--------|--------|--------|--------|--------|
A|--------|--------|--------|--------|--------|--------|--------|--------|--------|
E|--------|--------|--------|--------|--------|--------|--------|--------|--------|


E|--------|--------|--------|--------|--------|--------|--------|--------|--------|
B|--------|--------|--------|--------|--------|--------|--------|--------|--------|
G|--------|--------|--------|--------|--------|--------|--------|--------|--------|
D|--------|--------|--------|--------|--------|--------|--------|--------|--------|
A|--------|--------|--------|--------|--------|--------|--------|--------|--------|
E|--------|--------|--------|--------|--------|--------|--------|--------|--------|


E|--------|--------|--------|--------|--------|--------|--------|--------|--------|
B|--------|--------|--------|--------|--------|--------|--------|--------|--------|
G|--------|--------|--------|--------|--------|--------|--------|--------|--------|
D|--------|--------|--------|--------|--------|--------|--------|--------|--------|
A|--------|--------|--------|--------|--------|--------|--------|--------|--------|
E|--------|--------|--------|--------|--------|--------|--------|--------|--------|


E|--------|--------|--------|--------|--------|--------|--------|--------|--------|
B|--------|--------|--------|--------|--------|--------|--------|--------|--------|
G|--------|--------|--------|--------|--------|--------|--------|--------|--------|
D|--------|--------|--------|--------|--------|--------|--------|--------|--------|
A|--------|--------|--------|--------|--------|--------|--------|--------|--------|
E|--------|--------|--------|--------|--------|--------|--------|--------|--------|


E|--------|--------|--------|--------|--------|--------|--------|--------|--------|
B|--------|--------|--------|--------|--------|--------|--------|--------|--------|
G|--------|--------|--------|--------|--------|--------|--------|--------|--------|
D|--------|--------|--------|--------|--------|--------|--------|--------|--------|
A|--------|--------|--------|--------|--------|--------|--------|--------|--------|
E|--------|--------|--------|--------|--------|--------|--------|--------|--------|


E|--------|--------|--------|--------|--------|--------|--------|--------|--------|
B|--------|--------|--------|--------|--------|--------|--------|--------|--------|
G|--------|--------|--------|--------|--------|--------|--------|--------|--------|
D|--------|--------|--------|--------|--------|--------|--------|--------|--------|
A|--------|--------|--------|--------|--------|--------|--------|--------|--------|
E|--------|--------|--------|--------|--------|--------|--------|--------|--------|


E|--------|--------|--------|--------|--------|--------|--------|--------|--------|
B|--------|--------|--------|--------|--------|--------|--------|--------|--------|
G|--------|--------|--------|--------|--------|--------|--------|--------|--------|
D|--------|--------|--------|--------|--------|--------|--------|--------|--------|
A|--------|--------|--------|--------|--------|--------|--------|--------|--------|
E|--------|--------|--------|--------|--------|--------|--------|--------|--------|


E|--------|--------|--------|--------|
B|--------|--------|--------|--------|
G|--------|--------|--------|--------|
D|--------|--------|--------|--------|
A|--------|--------|--------|--------|
E|--------|--------|--------|--------|





Track 9: Acoustic piano arranged for guitar

E|--------|--------|--------|--------|--------|--------|--------|--------|--------|
B|--------|--------|--------|--------|--------|--------|--------|--------|--------|
G|--------|--------|--------|--------|--------|--------|--------|--------|--------|
D|--------|--------|--------|--------|--------|--------|--------|--------|--------|
A|--------|--------|--------|--------|--------|--------|--------|--------|--------|
E|--------|--------|--------|--------|--------|--------|--------|--------|--------|


E|--------|--------|--------|--------|--------|--------|--------|--------|--------|
B|--------|--------|--------|--------|--------|--------|--------|--------|--------|
G|--------|--------|--------|--------|--------|--------|--------|--------|--------|
D|--------|--------|--------|--------|--------|--------|--------|--------|--------|
A|--------|--------|--------|--------|--------|--------|--------|--------|--------|
E|--------|--------|--------|--------|--------|--------|--------|--------|--------|


E|--------|--------|--------|--------|--------|--------|--------|--------|--------|
B|--------|--------|--------|--------|--------|--------|--------|--------|--------|
G|--------|--------|--------|--------|--------|--------|--------|--------|--------|
D|--------|--------|--------|--------|--------|--------|--------|--------|--------|
A|--------|--------|--------|--------|--------|--------|--------|--------|--------|
E|--------|--------|--------|--------|--------|--------|--------|--------|--------|


E|--------|--------|--------|--------|--------|--------|--------|--------|--------|
B|--------|--------|--------|--------|--------|--------|--------|--------|--------|
G|--------|--------|--------|--------|--------|--------|--------|--------|--------|
D|--------|--------|--------|--------|--------|--------|--------|--------|--------|
A|--------|--------|--------|--------|--------|--------|--------|--------|--------|
E|--------|--------|--------|--------|--------|--------|--------|--------|--------|


E|--------|--------|--------|--------|--------|--------|--------|--------|--------|
B|--------|--------|--------|--------|--------|--------|--------|--------|--------|
G|--------|--------|--------|--------|--------|--------|--------|--------|--------|
D|--------|--------|--------|--------|--------|--------|--------|--------|--------|
A|--------|--------|--------|--------|--------|--------|--------|--------|--------|
E|--------|--------|--------|--------|--------|--------|--------|--------|--------|


E|--------|--------|--------|--------|--------|--------|--------|--------|--------|
B|--------|--------|--------|--------|--------|--------|--------|--------|--------|
G|--------|--------|--------|--------|--------|--------|--------|--------|--------|
D|--------|--------|--------|--------|--------|--------|--------|--------|--------|
A|--------|--------|--------|--------|--------|--------|--------|--------|--------|
E|--------|--------|--------|--------|--------|--------|--------|--------|--------|


E|--------|--------|--------|--------|--------|--------|--------|--------|--------|
B|--------|--------|--------|--------|--------|--------|--------|--------|--------|
G|--------|--------|--------|--------|--------|--------|--------|--------|--------|
D|--------|--------|--------|--------|--------|--------|--------|--------|--------|
A|--------|--------|--------|--------|--------|--------|--------|--------|--------|
E|--------|--------|--------|--------|--------|--------|--------|--------|--------|


E|--------|--------|--------|--------|--------|--------|--------|--------|--------|
B|--------|--------|--------|--------|--------|--------|--------|--------|--------|
G|--------|--------|--------|--------|--------|--------|--------|--------|--------|
D|--------|--------|--------|--------|--------|--------|--------|--------|--------|
A|--------|--------|--------|--------|--------|--------|--------|--------|--------|
E|--------|--------|--------|--------|--------|--------|--------|--------|--------|


E|--------|--------|--------|--------|--------|--------|--------|--------|--------|
B|--------|--------|--------|--------|--------|--------|--------|--------|--------|
G|--------|--------|--------|--------|--------|--------|--------|--------|--------|
D|--------|--------|--------|--------|--------|--------|--------|--------|--------|
A|--------|--------|--------|--------|--------|--------|--------|--------|--------|
E|--------|--------|--------|--------|--------|--------|--------|--------|--------|


E|--------|--------|--------|--------|--------|--------|--------|--------|--------|
B|--------|--------|--------|--------|--------|--------|--------|--------|--------|
G|--------|--------|--------|--------|--------|--------|--------|--------|--------|
D|--------|--------|--------|--------|--------|--------|--------|--------|--------|
A|--------|--------|--------|--------|--------|--------|--------|--------|--------|
E|--------|--------|--------|--------|--------|--------|--------|--------|--------|


E|--------|--------|--------|--------|--------|--------|--------|--------|--------|
B|--------|--------|--------|--------|--------|--------|--------|--------|--------|
G|--------|--------|--------|--------|--------|--------|--------|--------|--------|
D|--------|--------|--------|--------|--------|--------|--------|--------|--------|
A|--------|--------|--------|--------|--------|--------|--------|--------|--------|
E|--------|--------|--------|--------|--------|--------|--------|--------|--------|


E|--------|--------|--------|--------|--------|--------|--------|--------|--------|
B|--------|--------|--------|--------|--------|--------|--------|--------|--------|
G|--------|--------|--------|--------|--------|--------|--------|--------|--------|
D|--------|--------|--------|--------|--------|--------|--------|--------|--------|
A|--------|--------|--------|--------|--------|--------|--------|--------|--------|
E|--------|--------|--------|--------|--------|--------|--------|--------|--------|


E|--------|--------|--------|--------|--------|--------|--------|--------|--------|
B|--------|--------|--------|--------|--------|--------|--------|--------|--------|
G|--------|--------|--------|--------|--------|--------|--------|--------|--------|
D|--------|--------|--------|--------|--------|--------|--------|--------|--------|
A|--------|--------|--------|--------|--------|--------|--------|--------|--------|
E|--------|--------|--------|--------|--------|--------|--------|--------|--------|


E|--------|--------|--------|--------|--------|--------|--------|--------|--------|
B|--------|--------|--------|--------|--------|--------|--------|--------|--------|
G|--------|--------|--------|--------|--------|--------|--------|--------|--------|
D|--------|--------|--------|--------|--------|--------|--------|--------|--------|
A|--------|--------|--------|--------|--------|--------|--------|--------|--------|
E|--------|--------|--------|--------|--------|--------|--------|--------|--------|


E|--------|--------|--------|--------|--------|--------|--------|--------|--------|
B|--------|--------|--------|--------|--------|--------|--------|--------|--------|
G|--------|--------|--------|--------|--------|--------|--------|--------|--------|
D|--------|--------|--------|--------|--------|--------|--------|--------|--------|
A|--------|--------|--------|--------|--------|--------|--------|--------|--------|
E|--------|--------|--------|--------|--------|--------|--------|--------|--------|


E|--------|--------|--------|--------|--------|--------|--------|--------|--------|
B|--------|--------|--------|--------|--------|--------|--------|--------|--------|
G|--------|--------|--------|--------|--------|--------|--------|--------|--------|
D|--------|--------|--------|--------|--------|--------|--------|--------|--------|
A|--------|--------|--------|--------|--------|--------|--------|--------|--------|
E|--------|--------|--------|--------|--------|--------|--------|--------|--------|


E|--------|--------|--------|--------|--------|--------|--------|--------|--------|
B|--------|--------|--------|--------|--------|--------|--------|--------|--------|
G|--------|--------|--------|--------|--------|--------|--------|--------|--------|
D|--------|--------|--------|--------|--------|--------|--------|--------|--------|
A|--------|--------|--------|--------|--------|--------|--------|--------|--------|
E|--------|--------|--------|--------|--------|--------|--------|--------|--------|


E|--------|--------|--------|--------|--------|--------|--------|--------|--------|
B|--------|--------|--------|--------|--------|--------|--------|--------|--------|
G|--------|--------|--------|--------|--------|--------|--------|--------|--------|
D|--------|--------|--------|--------|--------|--------|--------|--------|--------|
A|--------|--------|--------|--------|--------|--------|--------|--------|--------|
E|--------|--------|--------|--------|--------|--------|--------|--------|--------|


E|--------|--------|--------|--------|--------|--------|--------|--------|--------|
B|--------|--------|--------|--------|--------|--------|--------|--------|--------|
G|--------|--------|--------|--------|--------|--------|--------|--------|--------|
D|--------|--------|--------|--------|--------|--------|--------|--------|--------|
A|--------|--------|--------|--------|--------|--------|--------|--------|--------|
E|--------|--------|--------|--------|--------|--------|--------|--------|--------|


E|--------|--------|--------|--------|--------|--------|--------|--------|--------|
B|--------|--------|--------|--------|--------|--------|--------|--------|--------|
G|--------|--------|--------|--------|--------|--------|--------|--------|--------|
D|--------|--------|--------|--------|--------|--------|--------|--------|--------|
A|--------|--------|--------|--------|--------|--------|--------|--------|--------|
E|--------|--------|--------|--------|--------|--------|--------|--------|--------|


E|--------|--------|--------|--------|--------|--------|--------|--------|--------|
B|--------|--------|--------|--------|--------|--------|--------|--------|--------|
G|--------|--------|--------|--------|--------|--------|--------|--------|--------|
D|--------|--------|--------|--------|--------|--------|--------|--------|--------|
A|--------|--------|--------|--------|--------|--------|--------|--------|--------|
E|--------|--------|--------|--------|--------|--------|--------|--------|--------|


E|--------|--------|--------|--------|--------|--------|--------|--------|--------|
B|--------|--------|--------|--------|--------|--------|--------|--------|--------|
G|--------|--------|--------|--------|--------|--------|--------|--------|--------|
D|--------|--------|--------|--------|--------|--------|--------|--------|--------|
A|--------|--------|--------|--------|--------|--------|--------|--------|--------|
E|--------|--------|--------|--------|--------|--------|--------|--------|--------|


E|--------|--------|--------|--------|--------|--------|--------|--------|--------|
B|--------|--------|--------|--------|--------|--------|--------|--------|--------|
G|--------|--------|--------|--------|--------|--------|--------|--------|--------|
D|--------|--------|--------|--------|--------|--------|--------|--------|--------|
A|--------|--------|--------|--------|--------|--------|--------|--------|--------|
E|--------|--------|--------|--------|--------|--------|--------|--------|--------|


E|--------|--------|--------|--------|--------|--------|--------|--------|--------|
B|--------|--------|--------|--------|--------|--------|--------|--------|--------|
G|--------|--------|--------|--------|--------|--------|--------|--------|--------|
D|--------|--------|--------|--------|--------|--------|--------|--------|--------|
A|--------|--------|--------|--------|--------|--------|--------|--------|--------|
E|--------|--------|--------|--------|--------|--------|--------|--------|--------|


E|--------|--------|--------|--------|
B|--------|--------|--------|--------|
G|--------|--------|--------|--------|
D|--------|--------|--------|--------|
A|--------|--------|--------|--------|
E|--------|--------|--------|--------|





Track 10: Acoustic piano arranged for guitar

E|--------|--------|--------|--------|--------|--------|--------|--------|--------|
B|--------|--------|--------|--------|--------|--------|--------|--------|--------|
G|--------|--------|--------|--------|--------|--------|--------|--------|--------|
D|--------|--------|--------|--------|--------|--------|--------|--------|--------|
A|--------|--------|--------|--------|--------|--------|--------|--------|--------|
E|--------|--------|--------|--------|--------|--------|--------|--------|--------|


E|--------|--------|--------|--------|--------|--------|--------|--------|--------|
B|--------|--------|--------|--------|--------|--------|--------|--------|--------|
G|--------|--------|--------|--------|--------|--------|--------|--------|--------|
D|--------|--------|--------|--------|--------|--------|--------|--------|--------|
A|--------|--------|--------|--------|--------|--------|--------|--------|--------|
E|--------|--------|--------|--------|--------|--------|--------|--------|--------|


E|--------|--------|--------|--------|--------|--------|--------|--------|--------|
B|--------|--------|--------|--------|--------|--------|--------|--------|--------|
G|--------|--------|--------|--------|--------|--------|--------|--------|--------|
D|--------|--------|--------|--------|--------|--------|--------|--------|--------|
A|--------|--------|--------|--------|--------|--------|--------|--------|--------|
E|--------|--------|--------|--------|--------|--------|--------|--------|--------|


E|--------|--------|--------|--------|--------|--------|--------|--------|--------|
B|--------|--------|--------|--------|--------|--------|--------|--------|--------|
G|--------|--------|--------|--------|--------|--------|--------|--------|--------|
D|--------|--------|--------|--------|--------|--------|--------|--------|--------|
A|--------|--------|--------|--------|--------|--------|--------|--------|--------|
E|--------|--------|--------|--------|--------|--------|--------|--------|--------|


E|--------|--------|--------|--------|--------|--------|--------|--------|--------|
B|--------|--------|--------|--------|--------|--------|--------|--------|--------|
G|--------|--------|--------|--------|--------|--------|--------|--------|--------|
D|--------|--------|--------|--------|--------|--------|--------|--------|--------|
A|--------|--------|--------|--------|--------|--------|--------|--------|--------|
E|--------|--------|--------|--------|--------|--------|--------|--------|--------|


E|--------|--------|--------|--------|--------|--------|--------|--------|--------|
B|--------|--------|--------|--------|--------|--------|--------|--------|--------|
G|--------|--------|--------|--------|--------|--------|--------|--------|--------|
D|--------|--------|--------|--------|--------|--------|--------|--------|--------|
A|--------|--------|--------|--------|--------|--------|--------|--------|--------|
E|--------|--------|--------|--------|--------|--------|--------|--------|--------|


E|--------|--------|--------|--------|--------|--------|--------|--------|--------|
B|--------|--------|--------|--------|--------|--------|--------|--------|--------|
G|--------|--------|--------|--------|--------|--------|--------|--------|--------|
D|--------|--------|--------|--------|--------|--------|--------|--------|--------|
A|--------|--------|--------|--------|--------|--------|--------|--------|--------|
E|--------|--------|--------|--------|--------|--------|--------|--------|--------|


E|--------|--------|--------|--------|--------|--------|--------|--------|--------|
B|--------|--------|--------|--------|--------|--------|--------|--------|--------|
G|--------|--------|--------|--------|--------|--------|--------|--------|--------|
D|--------|--------|--------|--------|--------|--------|--------|--------|--------|
A|--------|--------|--------|--------|--------|--------|--------|--------|--------|
E|--------|--------|--------|--------|--------|--------|--------|--------|--------|


E|--------|--------|--------|--------|--------|--------|--------|--------|--------|
B|--------|--------|--------|--------|--------|--------|--------|--------|--------|
G|--------|--------|--------|--------|--------|--------|--------|--------|--------|
D|--------|--------|--------|--------|--------|--------|--------|--------|--------|
A|--------|--------|--------|--------|--------|--------|--------|--------|--------|
E|--------|--------|--------|--------|--------|--------|--------|--------|--------|


E|--------|--------|--------|--------|--------|--------|--------|--------|--------|
B|--------|--------|--------|--------|--------|--------|--------|--------|--------|
G|--------|--------|--------|--------|--------|--------|--------|--------|--------|
D|--------|--------|--------|--------|--------|--------|--------|--------|--------|
A|--------|--------|--------|--------|--------|--------|--------|--------|--------|
E|--------|--------|--------|--------|--------|--------|--------|--------|--------|


E|--------|--------|--------|--------|--------|--------|--------|--------|--------|
B|--------|--------|--------|--------|--------|--------|--------|--------|--------|
G|--------|--------|--------|--------|--------|--------|--------|--------|--------|
D|--------|--------|--------|--------|--------|--------|--------|--------|--------|
A|--------|--------|--------|--------|--------|--------|--------|--------|--------|
E|--------|--------|--------|--------|--------|--------|--------|--------|--------|


E|--------|--------|--------|--------|--------|--------|--------|--------|--------|
B|--------|--------|--------|--------|--------|--------|--------|--------|--------|
G|--------|--------|--------|--------|--------|--------|--------|--------|--------|
D|--------|--------|--------|--------|--------|--------|--------|--------|--------|
A|--------|--------|--------|--------|--------|--------|--------|--------|--------|
E|--------|--------|--------|--------|--------|--------|--------|--------|--------|


E|--------|--------|--------|--------|--------|--------|--------|--------|--------|
B|--------|--------|--------|--------|--------|--------|--------|--------|--------|
G|--------|--------|--------|--------|--------|--------|--------|--------|--------|
D|--------|--------|--------|--------|--------|--------|--------|--------|--------|
A|--------|--------|--------|--------|--------|--------|--------|--------|--------|
E|--------|--------|--------|--------|--------|--------|--------|--------|--------|


E|--------|--------|--------|--------|--------|--------|--------|--------|--------|
B|--------|--------|--------|--------|--------|--------|--------|--------|--------|
G|--------|--------|--------|--------|--------|--------|--------|--------|--------|
D|--------|--------|--------|--------|--------|--------|--------|--------|--------|
A|--------|--------|--------|--------|--------|--------|--------|--------|--------|
E|--------|--------|--------|--------|--------|--------|--------|--------|--------|


E|--------|--------|--------|--------|--------|--------|--------|--------|--------|
B|--------|--------|--------|--------|--------|--------|--------|--------|--------|
G|--------|--------|--------|--------|--------|--------|--------|--------|--------|
D|--------|--------|--------|--------|--------|--------|--------|--------|--------|
A|--------|--------|--------|--------|--------|--------|--------|--------|--------|
E|--------|--------|--------|--------|--------|--------|--------|--------|--------|


E|--------|--------|--------|--------|--------|--------|--------|--------|--------|
B|--------|--------|--------|--------|--------|--------|--------|--------|--------|
G|--------|--------|--------|--------|--------|--------|--------|--------|--------|
D|--------|--------|--------|--------|--------|--------|--------|--------|--------|
A|--------|--------|--------|--------|--------|--------|--------|--------|--------|
E|--------|--------|--------|--------|--------|--------|--------|--------|--------|


E|--------|--------|--------|--------|--------|--------|--------|--------|--------|
B|--------|--------|--------|--------|--------|--------|--------|--------|--------|
G|--------|--------|--------|--------|--------|--------|--------|--------|--------|
D|--------|--------|--------|--------|--------|--------|--------|--------|--------|
A|--------|--------|--------|--------|--------|--------|--------|--------|--------|
E|--------|--------|--------|--------|--------|--------|--------|--------|--------|


E|--------|--------|--------|--------|--------|--------|--------|--------|--------|
B|--------|--------|--------|--------|--------|--------|--------|--------|--------|
G|--------|--------|--------|--------|--------|--------|--------|--------|--------|
D|--------|--------|--------|--------|--------|--------|--------|--------|--------|
A|--------|--------|--------|--------|--------|--------|--------|--------|--------|
E|--------|--------|--------|--------|--------|--------|--------|--------|--------|


E|--------|--------|--------|--------|--------|-------------|-------------|--------|
B|--------|--------|--------|--------|--------|-------------|-------------|--------|
G|--------|--------|--------|--------|--------|-------------|-------------|--------|
D|--------|--------|--------|--------|--------|-------------|-------------|--------|
A|--------|--------|--------|--------|--------|-------------|-------------|--------|
E|--------|--------|--------|--------|--------|-------------|-------------|--------|


E|--------|--------|--------|--------|--------|--------|--------|--------|--------|
B|--------|--------|--------|--------|--------|--------|--------|--------|--------|
G|--------|--------|--------|--------|--------|--------|--------|--------|--------|
D|--------|--------|--------|--------|--------|--------|--------|--------|--------|
A|--------|--------|--------|--------|--------|--------|--------|--------|--------|
E|--------|--------|--------|--------|--------|--------|--------|--------|--------|


E|--------|--------|--------|--------|--------|--------|--------|--------|--------|
B|--------|--------|--------|--------|--------|--------|--------|--------|--------|
G|--------|--------|--------|--------|--------|--------|--------|--------|--------|
D|--------|--------|--------|--------|--------|--------|--------|--------|--------|
A|--------|--------|--------|--------|--------|--------|--------|--------|--------|
E|--------|--------|--------|--------|--------|--------|--------|--------|--------|


E|--------|--------|--------|--------|--------|--------|--------|--------|--------|
B|--------|--------|--------|--------|--------|--------|--------|--------|--------|
G|--------|--------|--------|--------|--------|--------|--------|--------|--------|
D|--------|--------|--------|--------|--------|--------|--------|--------|--------|
A|--------|--------|--------|--------|--------|--------|--------|--------|--------|
E|--------|--------|--------|--------|--------|--------|--------|--------|--------|


E|--------|--------|--------|--------|--------|--------|--------|--------|--------|
B|--------|--------|--------|--------|--------|--------|--------|--------|--------|
G|--------|--------|--------|--------|--------|--------|--------|--------|--------|
D|--------|--------|--------|--------|--------|--------|--------|--------|--------|
A|--------|--------|--------|--------|--------|--------|--------|--------|--------|
E|--------|--------|--------|--------|--------|--------|--------|--------|--------|


E|--------|--------|--------|--------|--------|--------|--------|--------|--------|
B|--------|--------|--------|--------|--------|--------|--------|--------|--------|
G|--------|--------|--------|--------|--------|--------|--------|--------|--------|
D|--------|--------|--------|--------|--------|--------|--------|--------|--------|
A|--------|--------|--------|--------|--------|--------|--------|--------|--------|
E|--------|--------|--------|--------|--------|--------|--------|--------|--------|


E|--------|--------|--------|--------|--------|
B|--------|--------|--------|--------|--------|
G|--------|--------|--------|--------|--------|
D|--------|--------|--------|--------|--------|
A|--------|--------|--------|--------|--------|
E|--------|--------|--------|--------|--------|





Track 11: Acoustic piano arranged for guitar

E|--------|--------|--------|--------|--------|--------|--------|--------|--------|
B|--------|--------|--------|--------|--------|--------|--------|--------|--------|
G|--------|--------|--------|--------|--------|--------|--------|--------|--------|
D|--------|--------|--------|--------|--------|--------|--------|--------|--------|
A|--------|--------|--------|--------|--------|--------|--------|--------|--------|
E|--------|--------|--------|--------|--------|--------|--------|--------|--------|


E|--------|--------|--------|--------|--------|--------|--------|--------|--------|
B|--------|--------|--------|--------|--------|--------|--------|--------|--------|
G|--------|--------|--------|--------|--------|--------|--------|--------|--------|
D|--------|--------|--------|--------|--------|--------|--------|--------|--------|
A|--------|--------|--------|--------|--------|--------|--------|--------|--------|
E|--------|--------|--------|--------|--------|--------|--------|--------|--------|


E|--------|--------|--------|--------|--------|--------|--------|--------|--------|
B|--------|--------|--------|--------|--------|--------|--------|--------|--------|
G|--------|--------|--------|--------|--------|--------|--------|--------|--------|
D|--------|--------|--------|--------|--------|--------|--------|--------|--------|
A|--------|--------|--------|--------|--------|--------|--------|--------|--------|
E|--------|--------|--------|--------|--------|--------|--------|--------|--------|


E|--------|--------|--------|--------|--------|--------|--------|--------|--------|
B|--------|--------|--------|--------|--------|--------|--------|--------|--------|
G|--------|--------|--------|--------|--------|--------|--------|--------|--------|
D|--------|--------|--------|--------|--------|--------|--------|--------|--------|
A|--------|--------|--------|--------|--------|--------|--------|--------|--------|
E|--------|--------|--------|--------|--------|--------|--------|--------|--------|


E|--------|--------|--------|--------|--------|--------|--------|--------|--------|
B|--------|--------|--------|--------|--------|--------|--------|--------|--------|
G|--------|--------|--------|--------|--------|--------|--------|--------|--------|
D|--------|--------|--------|--------|--------|--------|--------|--------|--------|
A|--------|--------|--------|--------|--------|--------|--------|--------|--------|
E|--------|--------|--------|--------|--------|--------|--------|--------|--------|


E|--------|--------|--------|--------|--------|--------|--------|--------|--------|
B|--------|--------|--------|--------|--------|--------|--------|--------|--------|
G|--------|--------|--------|--------|--------|--------|--------|--------|--------|
D|--------|--------|--------|--------|--------|--------|--------|--------|--------|
A|--------|--------|--------|--------|--------|--------|--------|--------|--------|
E|--------|--------|--------|--------|--------|--------|--------|--------|--------|


E|--------|--------|--------|--------|--------|--------|--------|--------|--------|
B|--------|--------|--------|--------|--------|--------|--------|--------|--------|
G|--------|--------|--------|--------|--------|--------|--------|--------|--------|
D|--------|--------|--------|--------|--------|--------|--------|--------|--------|
A|--------|--------|--------|--------|--------|--------|--------|--------|--------|
E|--------|--------|--------|--------|--------|--------|--------|--------|--------|


E|--------|--------|--------|--------|--------|--------|--------|--------|--------|
B|--------|--------|--------|--------|--------|--------|--------|--------|--------|
G|--------|--------|--------|--------|--------|--------|--------|--------|--------|
D|--------|--------|--------|--------|--------|--------|--------|--------|--------|
A|--------|--------|--------|--------|--------|--------|--------|--------|--------|
E|--------|--------|--------|--------|--------|--------|--------|--------|--------|


E|--------|--------|--------|--------|--------|--------|--------|--------|--------|
B|--------|--------|--------|--------|--------|--------|--------|--------|--------|
G|--------|--------|--------|--------|--------|--------|--------|--------|--------|
D|--------|--------|--------|--------|--------|--------|--------|--------|--------|
A|--------|--------|--------|--------|--------|--------|--------|--------|--------|
E|--------|--------|--------|--------|--------|--------|--------|--------|--------|


E|--------|--------|--------|--------|--------|--------|--------|--------|--------|
B|--------|--------|--------|--------|--------|--------|--------|--------|--------|
G|--------|--------|--------|--------|--------|--------|--------|--------|--------|
D|--------|--------|--------|--------|--------|--------|--------|--------|--------|
A|--------|--------|--------|--------|--------|--------|--------|--------|--------|
E|--------|--------|--------|--------|--------|--------|--------|--------|--------|


E|--------|--------|--------|--------|--------|--------|--------|--------|--------|
B|--------|--------|--------|--------|--------|--------|--------|--------|--------|
G|--------|--------|--------|--------|--------|--------|--------|--------|--------|
D|--------|--------|--------|--------|--------|--------|--------|--------|--------|
A|--------|--------|--------|--------|--------|--------|--------|--------|--------|
E|--------|--------|--------|--------|--------|--------|--------|--------|--------|


E|--------|--------|--------|--------|--------|--------|--------|--------|--------|
B|--------|--------|--------|--------|--------|--------|--------|--------|--------|
G|--------|--------|--------|--------|--------|--------|--------|--------|--------|
D|--------|--------|--------|--------|--------|--------|--------|--------|--------|
A|--------|--------|--------|--------|--------|--------|--------|--------|--------|
E|--------|--------|--------|--------|--------|--------|--------|--------|--------|


E|--------|--------|--------|--------|--------|--------|--------|--------|--------|
B|--------|--------|--------|--------|--------|--------|--------|--------|--------|
G|--------|--------|--------|--------|--------|--------|--------|--------|--------|
D|--------|--------|--------|--------|--------|--------|--------|--------|--------|
A|--------|--------|--------|--------|--------|--------|--------|--------|--------|
E|--------|--------|--------|--------|--------|--------|--------|--------|--------|


E|--------|--------|--------|--------|--------|--------|--------|--------|--------|
B|--------|--------|--------|--------|--------|--------|--------|--------|--------|
G|--------|--------|--------|--------|--------|--------|--------|--------|--------|
D|--------|--------|--------|--------|--------|--------|--------|--------|--------|
A|--------|--------|--------|--------|--------|--------|--------|--------|--------|
E|--------|--------|--------|--------|--------|--------|--------|--------|--------|


E|--------|--------|--------|--------|--------|--------|--------|--------|--------|
B|--------|--------|--------|--------|--------|--------|--------|--------|--------|
G|--------|--------|--------|--------|--------|--------|--------|--------|--------|
D|--------|--------|--------|--------|--------|--------|--------|--------|--------|
A|--------|--------|--------|--------|--------|--------|--------|--------|--------|
E|--------|--------|--------|--------|--------|--------|--------|--------|--------|


E|--------|--------|--------|--------|--------|--------|--------|--------|--------|
B|--------|--------|--------|--------|--------|--------|--------|--------|--------|
G|--------|--------|--------|--------|--------|--------|--------|--------|--------|
D|--------|--------|--------|--------|--------|--------|--------|--------|--------|
A|--------|--------|--------|--------|--------|--------|--------|--------|--------|
E|--------|--------|--------|--------|--------|--------|--------|--------|--------|


E|--------|--------|--------|--------|--------|--------|--------|--------|--------|
B|--------|--------|--------|--------|--------|--------|--------|--------|--------|
G|--------|--------|--------|--------|--------|--------|--------|--------|--------|
D|--------|--------|--------|--------|--------|--------|--------|--------|--------|
A|--------|--------|--------|--------|--------|--------|--------|--------|--------|
E|--------|--------|--------|--------|--------|--------|--------|--------|--------|


E|--------|--------|--------|--------|--------|--------|--------|--------|--------|
B|--------|--------|--------|--------|--------|--------|--------|--------|--------|
G|--------|--------|--------|--------|--------|--------|--------|--------|--------|
D|--------|--------|--------|--------|--------|--------|--------|--------|--------|
A|--------|--------|--------|--------|--------|--------|--------|--------|--------|
E|--------|--------|--------|--------|--------|--------|--------|--------|--------|


E|--------|--------|--------|--------|--------|-------------|-------------|--------|
B|--------|--------|--------|--------|--------|-------------|-------------|--------|
G|--------|--------|--------|--------|--------|-------------|-------------|--------|
D|--------|--------|--------|--------|--------|-------------|-------------|--------|
A|--------|--------|--------|--------|--------|-------------|-------------|--------|
E|--------|--------|--------|--------|--------|-------------|-------------|--------|


E|--------|--------|--------|--------|--------|--------|--------|--------|--------|
B|--------|--------|--------|--------|--------|--------|--------|--------|--------|
G|--------|--------|--------|--------|--------|--------|--------|--------|--------|
D|--------|--------|--------|--------|--------|--------|--------|--------|--------|
A|--------|--------|--------|--------|--------|--------|--------|--------|--------|
E|--------|--------|--------|--------|--------|--------|--------|--------|--------|


E|--------|--------|--------|--------|--------|--------|--------|--------|--------|
B|--------|--------|--------|--------|--------|--------|--------|--------|--------|
G|--------|--------|--------|--------|--------|--------|--------|--------|--------|
D|--------|--------|--------|--------|--------|--------|--------|--------|--------|
A|--------|--------|--------|--------|--------|--------|--------|--------|--------|
E|--------|--------|--------|--------|--------|--------|--------|--------|--------|


E|--------|--------|--------|--------|--------|--------|--------|--------|--------|
B|--------|--------|--------|--------|--------|--------|--------|--------|--------|
G|--------|--------|--------|--------|--------|--------|--------|--------|--------|
D|--------|--------|--------|--------|--------|--------|--------|--------|--------|
A|--------|--------|--------|--------|--------|--------|--------|--------|--------|
E|--------|--------|--------|--------|--------|--------|--------|--------|--------|


E|--------|--------|--------|--------|--------|--------|--------|--------|--------|
B|--------|--------|--------|--------|--------|--------|--------|--------|--------|
G|--------|--------|--------|--------|--------|--------|--------|--------|--------|
D|--------|--------|--------|--------|--------|--------|--------|--------|--------|
A|--------|--------|--------|--------|--------|--------|--------|--------|--------|
E|--------|--------|--------|--------|--------|--------|--------|--------|--------|


E|--------|--------|--------|--------|--------|--------|--------|--------|--------|
B|--------|--------|--------|--------|--------|--------|--------|--------|--------|
G|--------|--------|--------|--------|--------|--------|--------|--------|--------|
D|--------|--------|--------|--------|--------|--------|--------|--------|--------|
A|--------|--------|--------|--------|--------|--------|--------|--------|--------|
E|--------|--------|--------|--------|--------|--------|--------|--------|--------|


E|--------|--------|--------|--------|--------|
B|--------|--------|--------|--------|--------|
G|--------|--------|--------|--------|--------|
D|--------|--------|--------|--------|--------|
A|--------|--------|--------|--------|--------|
E|--------|--------|--------|--------|--------|





Track 12: Bass

G|--------|----------------|--------|-------------|--------|----------------|--------|
D|--------|------------4---|--------|-------------|--------|------------4---|--------|
A|-2------|-2--------------|-2------|-2-----------|-2------|-2--------------|-2------|
E|--------|----------------|--------|--------2----|--------|----------------|--------|


G|-------------------------|------------------------|-----------4------------|-----------4---------|
D|-------------------------|-------4---4------------|-------4--------4-------|-------4-------------|
A|-2-----2-----------------|-2------------------2---|-2------------------2---|-2--------------2----|
E|-------------2-------2---|----------------2-------|------------------------|---------------------|


G|-----------------|--------|-------4---4---------|--------|-------0---0---------|
D|-4-----2---------|--------|---------------------|--------|---------------------|
A|-----------------|-2------|-2--------------2----|-3------|-3--------------3----|
E|------------0----|--------|---------------------|--------|---------------------|


G|--------|-------7---7------------|-----9---7-------7---7--9------9---|-----------------------------|
D|-0------|-0--------------0-------|-----------------------------------|-----------------------------|
A|--------|--------------------6---|-----------------------------------|-----------------------------|
E|--------|------------------------|-0-----------0---0-----------------|-0--------0---0----0-----2---|


G|-----------------------------|----------------------|-----------------8---|---------------------------|
D|-----------------------------|----------------5-----|-4-------------------|---------------------------|
A|-----------------------------|----------------------|-------6---6---------|-6-----6---6---------------|
E|-3--------3---3---0-----3----|-3-------3--3---------|---------------------|----------------0--2---3---|


G|---------------------------|-----------------------|-----9---7-------7---7--9------9---|
D|---------------------------|-----------------6-----|-----------------------------------|
A|---------------------------|-------------6---------|-----------------------------------|
E|-4--------4---4--------4---|-----4-----------------|-0-----------0---0-----------------|


G|--------------------------------|--------------------------------|--------------5---------|
D|--------------------------------|--------------------------------|------------------------|
A|--------------------------------|-3--------3---3----3--3-----3---|-3--------3--------3----|
E|-0--------0---0----0--0-----0---|--------------------------------|------------------------|


G|-------------|-------------|-------------|--------------------------|-------------|
D|-------------|-------------|-------------|-----------------4--------|-------------|
A|-------------|-4------3----|--------3----|------3----3---------2----|--------2----|
E|-1-----3-----|-------------|-------------|--------------------------|-------------|


G|-----------------|-------------|-----------------------------|---------------------------|
D|-----------------|-------------|-----------------------------|-----4---4-----------------|
A|------------2----|--------2----|------2-----------------2----|------------------2---2----|
E|-------2---------|-------------|------------2-------2--------|--------------2------------|


G|---------4-----------------|---------4--------------|---------------------|-------------|
D|-----4--------4------------|-----4-------------4----|------2--------------|-------------|
A|------------------2---2----|--------------2---------|----------------2----|--------2----|
E|---------------------------|------------------------|-----------0---------|-------------|


G|-----4---4--------------|-------------|-----0---0--------------|-------------|-----7---7----------------9---|
D|------------------------|-------------|-------------------0----|--------0----|--------------0---------------|
A|--------------2----3----|--------3----|--------------3---------|-------------|------------------6-----------|
E|------------------------|-------------|------------------------|-------------|----------------------0-------|


G|-7-------7---7--9------9--------|-----------------------------|-----------------------------|
D|--------------------------------|-----------------------------|-----------------------------|
A|--------------------------------|-----------------------------|-----------------------------|
E|-----0---0-----------------0----|-----0---0----0-----2---3----|-----3---3---0-----3----3----|


G|----------------------|---------------8--------|------------------------------|------------------------------|
D|-----------5-----4----|------------------------|------------------------------|------------------------------|
A|----------------------|-----6---6---------6----|-----6---6--------------------|------------------------------|
E|----3--3--------------|------------------------|--------------0--2---3---4----|-----4---4--------4-------4---|


G|-------------------9---|-7-------7---7--9------9--------|--------------------------------|
D|---------6-------------|--------------------------------|--------------------------------|
A|-----6-----------------|--------------------------------|---------------------------3----|
E|---------------0-------|-----0---0-----------------0----|-----0---0----0--0-----0--------|


G|--------------------------------|---------5--------------|-----------------|-------------|
D|--------------------------------|------------------------|-----------------|-------------|
A|-----3---3----3--3-----3---3----|-----3--------3---------|------------4----|-------3-----|
E|--------------------------------|-------------------1----|------3----------|-------------|


G|-------------|--------------------------|-------------|--------------------|------------------------------|
D|-------------|------------4---------2---|-2-----2-----|----------------2---|-----5---5---2------------2---|
A|-------3-----|-3----3---------2---------|-------------|--------------------|------------------------------|
E|-------------|--------------------------|-------------|-------5------------|-----------------5------------|


G|------------------------------|------------------------------|-----11----11-12-14---------------|
D|-----5---5---2------------2---|-----5---5---2----------------|------------------------------2---|
A|------------------------------|------------------------------|----------------------------------|
E|-----------------5------------|-----------------5--------0---|---------------------5------------|


G|------------------------------|------------------------------|------------------------------|
D|-----5---5---2------------2---|-----5---5---2------------2---|-----5---5---2------------2---|
A|------------------------------|------------------------------|------------------------------|
E|-----------------5------------|-----------------5------------|-----------------5------------|


G|------------------------------|------------------------------|------------------------------|
D|-----5---5---2------------2---|-----5---5---2------------2---|-----5---5---2------------2---|
A|------------------------------|------------------------------|------------------------------|
E|-----------------5------------|-----------------5------------|-----------------5------------|


G|-----------------------|------------------------------|------------------------------|
D|-----5---5---2---------|----------0-------3---3---0---|----------0-------3---3---0---|
A|-----------------------|------------------------------|------------------------------|
E|-----------------5-----|-3----------------------------|-3----------------------------|


G|--------------------|--------------------|------------------------------|------------------------------|
D|--------------------|--------------------|----------2-------5---5---2---|------------------5---5-------|
A|--------------------|--------------------|------------------------------|-0--------7---------------7---|
E|-2--------2---2-----|-2--------2---2-----|-5----------------------------|------------------------------|


G|------------------------------|--------------------|------------------------------|
D|------------------5---5-------|----------------0---|-----3---3---0------------0---|
A|-0--------7---------------7---|--------------------|------------------------------|
E|------------------------------|-5-----3------------|-----------------3------------|


G|------------------------------|--------------------|-------------|-------------|
D|-----3---3---0----------------|--------------------|-------------|-------------|
A|------------------------------|--------------------|-------------|-------------|
E|-----------------2--------2---|-2-----2--------2---|-2-----3-----|-------3-----|


G|-------------|------------------------|-----------------|--------------------|--------|
D|-------------|------------------------|-----------------|--------------------|--------|
A|-------3-----|-3---3---3----3-----3---|-3---------3-----|-3---3---3----3-----|--------|
E|-------------|------------------------|-------3---------|--------------------|-0------|


G|--------|---------------------|---------------------|-------------|-------------|
D|--------|-4-----5---5---------|----------------4----|--------4----|-------------|
A|--------|-----------------0---|-0-------------------|-------------|-------------|
E|-0------|-2-----3---3---------|-------3---3---------|-------------|------1------|


G|-----------------|---------------------------|------------------------------|--------------------------0---|
D|-----------------|-----------------------5---|-5------------------------5---|-5----------------2-----------|
A|-----------------|------0--------7-----------|-----7---0--------7-----------|-----7---0--------------------|
E|------1-----3----|---------------------------|------------------------------|------------------------------|


G|-0------------------------11----|-11-12-14-----------------------|------------------------------|
D|-----2--------------------------|----------------------------5---|-5----------------2-------5---|
A|---------0----------------------|-----------0--------7-----------|-----7------------------------|
E|------------------0-------------|--------------------------------|---------5--------------------|


G|------------------------------|--------------------|------------------------------|
D|-5---2------------2-------5---|-5---2--------------|-----0-------3---3---0--------|
A|------------------------------|--------------------|------------------------------|
E|---------5--------------------|---------5-----3----|-------------------------3----|


G|------------------------------|--------------------|--------------------|-------------0---0------------|
D|-----0-------3---3---0--------|--------------------|--------------------|-----2---------------2--------|
A|------------------------------|--------------------|---------------0----|-------------------------0----|
E|-------------------------2----|-----2---2-----2----|-----2---2----------|------------------------------|


G|-------------0---0------------|-------------0---0------------|---------------------------|
D|-----2---------------2--------|-----2---------------2--------|---------------0-------3---|
A|-------------------------0----|-------------------------0----|---------------------------|
E|------------------------------|------------------------------|------3--------------------|


G|------------------------------|---------------------------|------------------------|
D|-3---0------------0-------3---|-3---0---------------------|------------------------|
A|------------------------------|---------------------------|------------------------|
E|---------3--------------------|---------2--------2---2----|------2--------2---2----|


G|-------------|-------------|--------------------|---------------------|-----0---5-----5---5---|
D|-------------|-------------|--------------------|---------------------|-----------------------|
A|-------------|-------------|------3-----3---3---|-3----3-----3---3----|-----------------------|
E|------3------|------3------|--------------------|---------------------|-----------------------|


G|-5---------------|-------------|-------------|------------------------|--------------------|
D|-----------------|-------------|-------------|------------------------|--------------4-----|
A|------3----------|-------------|-------------|---------------0---0----|--------------------|
E|------------0----|--------0----|--------2----|-----3---3--------------|-----3---3----------|


G|-------------|--------|--------|--------|-------------|-----------------|-------------4---------|
D|-------4-----|-3------|-3------|-3------|-5-----3-----|-----------------|-----------------------|
A|-------------|--------|--------|--------|-------------|-3-----3---------|-3-----------2---2-----|
E|-------------|-1------|-1------|-1------|-3-----1-----|-----------------|-----------------------|


G|-----4-------4-------4--------|----------4-------4--------|----------4-------4--------|
D|------------------------------|---------------------------|---------------------------|
A|-----2-------2-------2--------|----------2-------2--------|----------2-------2--------|
E|------------------------------|---------------------------|---------------------------|


G|----------4---------|-----4-------4-------4--------|----------4-------4--------|
D|--------------------|------------------------------|---------------------------|
A|----------2---2-----|-----2-------2-------2--------|----------2-------2--------|
E|--------------------|------------------------------|---------------------------|


G|----------4-------4--------|----------5-------------|-----------------|-------------|
D|---------------------------|------------------------|-------4---4-----|-------3-----|
A|----------2-------2--------|----------3---3-----4---|-4---------------|-------------|
E|---------------------------|------------------------|-----------------|-------------|


G|-------------|-----------------------|-------------|-------------|-------------|
D|-2-----1-----|-0-----1---------------|-------------|-------------|-------------|
A|-------------|-----------------------|-------------|-------------|-------3-----|
E|-------------|-------------------2---|-2-----2-----|-------3-----|-1-----------|


G|-----------5-----------4---|-----------4-------4---|-----4-----------------4---|
D|---------------------------|-----------------------|---------------------------|
A|-3---------3-----------2---|-2---------2-------2---|-----2-----------------2---|
E|---------------------------|-----------------------|---------------------------|


G|-----4-----------------4---|-----4-----------------4---|-----------------------|
D|---------------------------|---------------------------|-----------------------|
A|-----2-----------------2---|-----2-----------------2---|-2---------2-------2---|
E|---------------------------|---------------------------|-----------------------|


G|-----4-----------------4---|-----4-----------------4---|-----4-----------------5---|
D|---------------------------|---------------------------|---------------------------|
A|-----2-----------------2---|-----2-----------------2---|-----2-----------------3---|
E|---------------------------|---------------------------|---------------------------|


G|-------6-------------|--------|-------------|-------------|-----------------------|
D|-----------------4---|-4------|-3-----2-----|-1-----0-----|-1---------------------|
A|-3-----4---4---------|--------|-------------|-------------|-----------------------|
E|---------------------|--------|-------------|-------------|-------------2---2-----|


G|--------|-------------|-------------|---------------------|-------------|--------------------|
D|--------|-------------|-------------|------------4--------|-------------|-----------4--------|
A|--------|-4------3----|--------3----|------3---------2----|--------2----|---------------2----|
E|-2------|-------------|-------------|---------------------|-------------|--------------------|


G|-------------|-----------------|-------------|--------------------|-------------|
D|-------------|-----------------|-------------|-----------4--------|-------------|
A|--------2----|------------2----|--------2----|---------------2----|--------2----|
E|-------------|-------2---------|-------------|--------------------|-------------|


G|-----------------------------|---------------------------|---------4-----------------|
D|-----------------------------|-----4---4-----------------|-----4--------4------------|
A|------2-----------------2----|------------------2---2----|------------------2---2----|
E|------------2-------2--------|--------------2------------|---------------------------|


G|---------4--------------|---------------------|-------------|-----4---4--------------|
D|-----4-------------4----|------2--------------|-------------|------------------------|
A|--------------2---------|----------------2----|--------2----|--------------2----3----|
E|------------------------|-----------0---------|-------------|------------------------|


G|-------------|-----0---0--------------|-------------|-----7---7----------------9---|
D|-------------|-------------------0----|--------0----|--------------0---------------|
A|--------3----|--------------3---------|-------------|------------------6-----------|
E|-------------|------------------------|-------------|----------------------0-------|


G|-7-------7---7--9------9--------|-----------------------------|-----------------------------|
D|--------------------------------|-----------------------------|-----------------------------|
A|--------------------------------|-----------------------------|-----------------------------|
E|-----0---0-----------------0----|-----0---0----0-----2---3----|-----3---3---0-----3----3----|


G|----------------------|---------------8--------|------------------------------|------------------------------|
D|-----------5-----4----|------------------------|------------------------------|------------------------------|
A|----------------------|-----6---6---------6----|-----6---6--------------------|------------------------------|
E|----3--3--------------|------------------------|--------------0--2---3---4----|-----4---4--------4-------4---|


G|-------------------9---|-7-------7---7--9------9--------|--------------------------------|
D|---------6-------------|--------------------------------|--------------------------------|
A|-----6-----------------|--------------------------------|---------------------------3----|
E|---------------0-------|-----0---0-----------------0----|-----0---0----0--0-----0--------|


G|--------------------------------|---------5--------------|-----------------|-------------|
D|--------------------------------|------------------------|-----------------|-------------|
A|-----3---3----3--3-----3---3----|-----3--------3---------|------------4----|-------------|
E|--------------------------------|-------------------1----|------3----------|-------8-----|


G|-------------|----------------------|------------------------------|---------------------------|
D|-------------|----------------------|------------------------------|---------------------------|
A|-------------|----------------------|------------------------------|---------------------------|
E|-------8-----|-8----8-----7---7-----|-----7-------7-------7--------|----------7-------7--------|


G|---------------------------|--------------------|------------------------------|
D|---------------------------|--------------------|------------------------------|
A|---------------------------|--------------------|------------------------------|
E|----------7-------7--------|----------7---7-----|-----7-------7-------7--------|


G|---------------------------|---------------------------|--------------------|------------------------------|
D|---------------------------|---------------------------|--------------------|------------------------------|
A|---------------------------|---------------------------|--------------------|------------------------------|
E|----------7-------7--------|----------7-------7--------|----------7---7-----|-----7-------7-------7--------|


G|---------------------------|---------------------------|--------------------|------------------------------|
D|---------------------------|---------------------------|--------------------|------------------------------|
A|---------------------------|---------------------------|--------------------|------------------------------|
E|----------7-------7--------|----------7-------7--------|----------7---7-----|-----7-------7-------7--------|


G|---------------------------|---------------------------|--------------------|
D|---------------------------|---------------------------|--------------------|
A|---------------------------|---------------------------|--------------------|
E|----------7-------7--------|----------7-------7--------|----------7---------|