Site menu:

    

Browse: 0-9 A B C D E F G H I J K L N O P Q R S T U V W X Y Z

steelheart - cant stop me lovin you:



Title: Can't Stop Me Lovin' You
Artist: 
Album: Steelheart
Author: Michael Matijevic


Track 1: Guitar 1 - Frank DiConstanza

D#|------------------|------------------------|------------------------------|----------5-------7-----------|
A#|------------------|------------------------|------------------6---8---5---|-5--------6-------8---8---8---|
F#|------------------|--------------------5---|-----7---7--------5---7---5---|-5--------5-------7---7---7---|
C#|------------------|--------------------5---|-----7---7--------------------|------------------------------|
G#|------------------|-2---------0----0-------|-0------------0---------------|------0-------0---------------|
D#|------------------|-----22-----------------|------------------------------|------------------------------|


D#|------------------------------|------------------------------|---------------------------|
A#|------------------------------|------------------6---8---5---|-5--------5-------3---3----|
F#|--------------------------5---|-----7---7--------5---7---5---|-5--------5-------4---4----|
C#|-----0--------------------5---|-----7---7--------------------|---------------------------|
G#|---------3-------0----0-------|-0------------0---------------|------0-------0------------|
D#|-3-----------4----------------|------------------------------|---------------------------|


D#|------------------------------|------------------------------|----------5-------7-----------|
A#|------------------------------|------------------6---8---5---|-5--------6-------8---8---8---|
F#|-----7--------------------5---|-----7---7--------5---7---5---|-5--------5-------7---7---7---|
C#|-----7--------------------5---|-----7---7--------------------|------------------------------|
G#|-0---5----3------0----0-------|-0------------0---------------|------0-------0---------------|
D#|-------------3----------------|------------------------------|------------------------------|


D#|------------------------------|------------------------------|---------------------------|
A#|------------------------------|------------------6---8---5---|-5--------5-------3---3----|
F#|--------------------------5---|-----7---7--------5---7---5---|-5--------5-------4---4----|
C#|-----0--------------------5---|-----7---7--------------------|---------------------------|
G#|---------3-------0----0-------|-0------------0---------------|------0-------0------------|
D#|-3-----------4----------------|------------------------------|---------------------------|


D#|------------------------------|------------------------------|----------5-------------------|
A#|------------------------------|------------------6---8---5---|-5--------6-------8---8---8---|
F#|-----7---7----------------5---|-----7---7--------5---7---5---|-5--------5-------7---7---7---|
C#|-----0--------------------5---|-----7---7--------------------|------------------------------|
G#|-0---------------0----0-------|-0------------0---------------|------0-------0---------------|
D#|-------------4----------------|------------------------------|------------------------------|


D#|------------------------------|------------------------------|---------------------------|
A#|------------------------------|------------------6---8---5---|-5--------5-------3---3----|
F#|--------------------------5---|-----7---7--------5---7---5---|-5--------5-------4---4----|
C#|-----0--------------------5---|-----7---7--------------------|---------------------------|
G#|---------3-------0----0-------|-0------------0---------------|------0-------0------------|
D#|-3-----------4----------------|------------------------------|---------------------------|


D#|-----------------------|--------|-------------|--------------------|--------|--------|
A#|-----1---0-------------|--------|-------------|-0---0----2---2-----|--------|-2------|
F#|-0---2-------0---2-----|--------|-2------2----|-2---0----2---2-----|--------|-2------|
C#|-------------0---2-----|--------|-2------2----|-0---0----2---2-----|--------|-2------|
G#|-----------------0-----|--------|-0------0----|-2---2----0---0-----|--------|-0------|
D#|-----------------------|--------|-------------|-3---3--------------|--------|--------|


D#|-----------------------|-----------------------|--------|-----------------------|
A#|-----------------0-----|-----------0---0-------|--------|-----0-----------------|
F#|---------2---2---0-----|-------------------0---|-2------|---------2-------2-----|
C#|-----1-----------0-----|-----------------------|-3------|-------------3---2-----|
G#|-----------------------|-----------------------|--------|-----------------0-----|
D#|-----------------------|-----------------------|--------|-----------------------|


D#|--------|--------|-------------|--------|--------|--------|--------|--------|--------|
A#|--------|--------|-------------|--------|--------|--------|--------|--------|--------|
F#|--------|-2------|-2-----------|--------|--------|--------|--------|--------|--------|
C#|--------|-2------|-2-----------|--------|--------|--------|--------|--------|--------|
G#|--------|-0------|-0-----------|--------|--------|--------|--------|--------|--------|
D#|--------|--------|-------------|--------|--------|--------|--------|--------|--------|


D#|--------|--------|--------------------|------------------------------|----------5-------7-----------|
A#|--------|--------|--------------------|------------------6---8---5---|-5--------6-------8---8---8---|
F#|--------|--------|----------------5---|-----7---7--------5---7---5---|-5--------5-------7---7---7---|
C#|--------|--------|----------------5---|-----7---7--------------------|------------------------------|
G#|--------|--------|-------0----0-------|-0------------0---------------|------0-------0---------------|
D#|--------|--------|--------------------|------------------------------|------------------------------|


D#|------------------------------|------------------------------|---------------------------|
A#|------------------------------|------------------6---8---5---|-5--------5-------3---3----|
F#|--------------------------5---|-----7---7--------5---7---5---|-5--------5-------4---4----|
C#|-----0--------------------5---|-----7---7--------------------|---------------------------|
G#|---------3-------0----0-------|-0------------0---------------|------0-------0------------|
D#|-3-----------4----------------|------------------------------|---------------------------|


D#|------------------------------|------------------------------|----------5-------------------|
A#|------------------------------|------------------6---8---5---|-5--------6-------8---8---8---|
F#|-----7---7----------------5---|-----7---7--------5---7---5---|-5--------5-------7---7---7---|
C#|-----0--------------------5---|-----7---7--------------------|------------------------------|
G#|-0---------------0----0-------|-0------------0---------------|------0-------0---------------|
D#|-------------4----------------|------------------------------|------------------------------|


D#|------------------------------|------------------------------|---------------------------|
A#|------------------------------|------------------6---8---5---|-5--------5-------3---3----|
F#|--------------------------5---|-----7---7--------5---7---5---|-5--------5-------4---4----|
C#|-----0--------------------5---|-----7---7--------------------|---------------------------|
G#|---------3-------0----0-------|-0------------0---------------|------0-------0------------|
D#|-3-----------4----------------|------------------------------|---------------------------|


D#|-----------------------|--------|-------------|--------------------|--------|--------|
A#|-----------------------|--------|-------------|-0---0----2---2-----|--------|-2------|
F#|-----7-----------2-----|--------|-2------2----|-2---0----2---2-----|--------|-2------|
C#|-----7-----------2-----|--------|-2------2----|-0---0----2---2-----|--------|-2------|
G#|-0---5----3------0-----|--------|-0------0----|-2---2----0---0-----|--------|-0------|
D#|-------------3---------|--------|-------------|-3---3--------------|--------|--------|


D#|-----------------------|-----------------------|--------|-----------------------|
A#|-----------------0-----|-----------0---0-------|--------|-----0-----------------|
F#|---------2---2---0-----|-------------------0---|-2------|---------2-------2-----|
C#|-----2-----------0-----|-----------------------|-3------|-------------3---2-----|
G#|-----------------------|-----------------------|--------|-----------------0-----|
D#|-----------------------|-----------------------|--------|-----------------------|


D#|--------|--------|-------------|-----------------------|---------------------|---------------------------|
A#|--------|--------|-------0-----|-----------0---0-------|---------------------|-----------------3---------|
F#|--------|-2------|-2-----0-----|-------------------0---|-----1---------------|-----------------2---------|
C#|--------|-2------|-2-----0-----|-----------------------|-----2---------------|-----------------0---------|
G#|--------|-0------|-0-----2-----|-----------------------|-----3---------------|-0---3---3---0---------5---|
D#|--------|--------|-------3-----|-----------------------|---------------------|---------------------------|


D#|---------------------------------|---------------------------|---------------------------|
A#|---------------------------------|---------------------------|---------------------------|
F#|---------7-----------7-----------|-7-----------------7-------|-----7-----------2---------|
C#|---------7-----------7-----------|-7-----------------7-------|-----7---7---0---3---------|
G#|-5---5---5---5---5---5---5---5---|-5-----5---5---5---5---5---|-5---5---5---0---3-----3---|
D#|---------------------------------|---------------------------|-----------------1-----1---|


D#|---------------------------------|------------------------|------------------------------|
A#|---------------------------------|------------------------|------------------------------|
F#|---------2---2---2---2---2---2---|-4----------------------|--------------------------5---|
C#|---------3---3---3---3---3---3---|-5----------------------|--------------------------5---|
G#|-3---3---3---3---3---3---3---3---|-5---------3---2---5----|-----3---2-------0----0-------|
D#|-1---1---1---1---1---1---1---1---|-3-----3----------------|-3-----------3----------------|


D#|------------------------------|----------5-------7-----------|------------------------------|
A#|------------------6---8---5---|-5--------6-------8---8---8---|------------------------------|
F#|-----7---7--------5---7---5---|-5--------5-------7---7---7---|--------------------------5---|
C#|-----7---7--------------------|------------------------------|-----0--------------------5---|
G#|-0------------0---------------|------0-------0---------------|---------3-------0----0-------|
D#|------------------------------|------------------------------|-3-----------4----------------|


D#|------------------------------|---------------------------|------------------------------|
A#|------------------6---8---5---|-5--------5-------3---3----|------------------------------|
F#|-----7---7--------5---7---5---|-5--------5-------4---4----|-----7---7----------------5---|
C#|-----7---7--------------------|---------------------------|-----0--------------------5---|
G#|-0------------0---------------|------0-------0------------|-0---------------0----0-------|
D#|------------------------------|---------------------------|-------------4----------------|


D#|------------------------------|----------5-------------------|------------------------------|
A#|------------------6---8---5---|-5--------6-------8---8---8---|------------------------------|
F#|-----7---7--------5---7---5---|-5--------5-------7---7---7---|--------------------------5---|
C#|-----7---7--------------------|------------------------------|-----0--------------------5---|
G#|-0------------0---------------|------0-------0---------------|---------3-------0----0-------|
D#|------------------------------|------------------------------|-3-----------4----------------|


D#|------------------------------|---------------------------|---------------------------|
A#|------------------6---8---5---|-5--------5-------3---3----|---------------------------|
F#|-----7---7--------5---7---5---|-5--------5-------4---4----|-----7-----------2---------|
C#|-----7---7--------------------|---------------------------|-----7-----------2---------|
G#|-0------------0---------------|------0-------0------------|-0---5----3------0-----0---|
D#|------------------------------|---------------------------|-------------3-------------|


D#|---------------------------------|---------------------------|---------------------------|
A#|---------------------------------|---------------------------|-----------------6---------|
F#|---------2-----------2-----------|-2-----------------2-------|-----2-----------7---------|
C#|---------2-----------2-----------|-2-----------------2-------|-----2-----------5---------|
G#|-0---0---0---0---0---0---0---0---|-0-----0---0---0---0---0---|-0---0---0---0-------------|
D#|---------------------------------|---------------------------|-----------------7-----7---|


D#|---------------------------------|---------------------------|---------------------------|
A#|---------6-----------0-----------|---------------------------|---------------------------|
F#|---------7-----------0-----------|-5-----------------5-------|-----5-----------7---------|
C#|---------5-----------------------|-5-----------------5-------|-----5-----------7---------|
G#|---------------------------------|-3-----3---3---3---3---3---|-3---3---3---3---5-----5---|
D#|-7---7---7---7---7---7---7---7---|---------------------------|---------------------------|


D#|---------------------------------|---------------------------|---------------------------|
A#|---------------------------------|---------------------------|-----------------3---------|
F#|---------7-----------7---5---4---|-2-----------------2-------|-----2-----------4---------|
C#|---------7-----------7---5---4---|-2-----------------2-------|-----2-----------4---------|
G#|-5---5---5---5---5---5---3---2---|-0-----0---0---0---0---0---|-0---0---0---0---2-----2---|
D#|---------------------------------|---------------------------|---------------------------|


D#|---------------------------|---------------------------|------------------------|
A#|-----3---------------------|---------------------------|------------------------|
F#|---------4-----------------|-5-----------------5-------|-----5--------7---------|
C#|-------------4-------------|-5-----------------5-------|--------------7---------|
G#|-2---------------5---5-----|-3-----3---3---3---3---3---|-7--------7---5-----5---|
D#|---------------------------|---------------------------|------------------------|


D#|------------------------|---------------------------|---------------------------|
A#|------------------------|---------------------------|---------------------------|
F#|------------------------|-7-----------------7-------|-----7-----------7-----7---|
C#|------------------------|-7-----------------7-------|-----7-----------7-----7---|
G#|-5---5---5---5----5-----|-5-----5---5---5---5---5---|-5---5---5---5---5-----5---|
D#|------------------------|---------------------------|---------------------------|


D#|------------------------|---------------------------|---------------------------|
A#|------------------------|---------------------------|---------------------------|
F#|-7---7---7-----7----7---|---------------------------|---------------------------|
C#|-7---7---7-----7----7---|-3---------------------3---|-3---3---3---3---5-----5---|
G#|-5---5---5-----5----5---|-3-----3---3---3---3---3---|-3---3---3---3---5-----5---|
D#|------------------------|-1-----1---1---1---1---1---|-1---1---1---1---3-----3---|


D#|------------------------|---------------------------|---------------------------|
A#|------------------------|-------------------5-------|-----3-----------2---------|
F#|------------------------|-2-----------------2-------|-----2-----------2---------|
C#|------5-----------------|-2-----------------2-------|-----2-----------2---------|
G#|------5-----3---2---0---|-0-----0---0---0---0---0---|-0---0---0---0---0-----0---|
D#|------3-----------------|---------------------------|---------------------------|


D#|---------------------------------|---------------------------|---------------------------|
A#|---------5-----------2---2---2---|-3-----------------3-------|-----3---------------------|
F#|---------2-----------2---2---2---|-4-----------------4-------|-----4-----------5---------|
C#|---------2-----------2---2---2---|-4-----------------4-------|-----4-----------5---------|
G#|-0---0---0---0---0---0---0---0---|-2-----2---2---2---2---2---|-2---2---2---2---3-----3---|
D#|---------------------------------|---------------------------|---------------------------|


D#|------------------------|---------------------------|---------------------------|
A#|------------------------|---------------------------|---------------------------|
F#|---------5-----5--------|-7-----------------7-------|-----7-----------7---------|
C#|---------5-----5--------|-7-----------------7-------|-----7-----------7---------|
G#|-3---3---3-----3--------|-5-----5---5---5---5---5---|-5---5---5---5---5-----5---|
D#|------------------------|---------------------------|---------------------------|


D#|---------------------------------|---------------------------|---------------------------|
A#|---------------------------------|---------------------------|---------------------------|
F#|---------7-----------7-----------|---------------------------|---------------------------|
C#|---------7-----------7-----------|-3-------------------------|-----------------5---------|
G#|-5---5---5---5---5---5---5---5---|-3-------------------------|-----------------5---------|
D#|---------------------------------|-1-----1---1---1---1---1---|-1---1---1---1---3-----3---|


D#|------------------------------|---------------------------|--------------------------5---|
A#|------------------------------|---------------------------|-----6---8---5---5--------6---|
F#|------------------------------|----------5-------7---7----|-----5---7---5---5--------5---|
C#|------------------------------|----------5-------7---7----|------------------------------|
G#|-3---2---5--------3---2-------|-0----0-------0------------|-0--------------------0-------|
D#|--------------3-----------4---|---------------------------|------------------------------|


D#|-----7---------------------------|---------------------------|------------------------------|
A#|-----8---8---8-------------------|---------------------------|-----6---8---5---5--------5---|
F#|-----7---7---7-------------------|----------5-------7---7----|-----5---7---5---5--------5---|
C#|---------------------0-----------|----------5-------7---7----|------------------------------|
G#|-0-----------------------3-------|-0----0-------0------------|-0--------------------0-------|
D#|-----------------3-----------4---|---------------------------|------------------------------|


D#|------------------------------|---------------------------|--------------------------5---|
A#|-----3---3--------------------|---------------------------|-----6---8---5---5--------6---|
F#|-----4---4--------7---7-------|----------5-------7---7----|-----5---7---5---5--------5---|
C#|------------------0-----------|----------5-------7---7----|------------------------------|
G#|-0------------0---------------|-0----0-------0------------|-0--------------------0-------|
D#|--------------------------4---|---------------------------|------------------------------|


D#|---------------------------------|---------------------------|------------------------------|
A#|-----8---8---8-------------------|---------------------------|-----6---8---5---5--------5---|
F#|-----7---7---7-------------------|----------5-------7---7----|-----5---7---5---5--------5---|
C#|---------------------0-----------|----------5-------7---7----|------------------------------|
G#|-0-----------------------3-------|-0----0-------0------------|-0--------------------0-------|
D#|-----------------3-----------4---|---------------------------|------------------------------|


D#|------------------------------|---------------------------|--------------------------5---|
A#|-----3---3--------1---0-------|---------------------------|-----6---8---5---5--------6---|
F#|-----4---4----0---2-------0---|----------5-------7---7----|-----5---7---5---5--------5---|
C#|--------------------------0---|----------5-------7---7----|------------------------------|
G#|-0----------------------------|-0----0-------0------------|-0--------------------0-------|
D#|------------------------------|---------------------------|------------------------------|


D#|-----7---------------------------|---------------------------|------------------------------|
A#|-----8---8---8-------------------|---------------------------|-----6---8---5---5--------5---|
F#|-----7---7---7-------------------|----------5-------7---7----|-----5---7---5---5--------5---|
C#|---------------------0-----------|----------5-------7---7----|------------------------------|
G#|-0-----------------------3-------|-0----0-------0------------|-0--------------------0-------|
D#|-----------------3-----------4---|---------------------------|------------------------------|


D#|------------------------------|---------------------------|--------------------------5---|
A#|-----3---3--------------------|---------------------------|-----6---8---5---5--------6---|
F#|-----4---4--------7---7-------|----------5-------7---7----|-----5---7---5---5--------5---|
C#|------------------0-----------|----------5-------7---7----|------------------------------|
G#|-0------------0---------------|-0----0-------0------------|-0--------------------0-------|
D#|--------------------------4---|---------------------------|------------------------------|


D#|---------------------------------|--------|-------------|------------------------|
A#|-----8---8---8-------------------|--------|-------------|-----------0---0----2---|
F#|-----7---7---7-------------------|-2------|-------2-----|------2----2---0----2---|
C#|---------------------0-----------|-2------|-------2-----|------2----0---0----2---|
G#|-0-----------------------3-------|-0------|-------0-----|------0----2---2----0---|
D#|-----------------3-----------4---|--------|-------------|-----------3---3--------|


D#|---------------------------|---------------------------|---------------------------------|
A#|-------------------5-------|-----3-----------2---------|---------5-----------2---2---2---|
F#|-2-----------------2-------|-----2-----------2---------|---------2-----------2---2---2---|
C#|-2-----------------2-------|-----2-----------2---------|---------2-----------2---2---2---|
G#|-0-----0---0---0---0---0---|-0---0---0---0---0-----0---|-0---0---0---0---0---0---0---0---|
D#|---------------------------|---------------------------|---------------------------------|


D#|---------------------------|---------------------------|------------------------|
A#|-3-----------------3-------|-----3---------------------|------------------------|
F#|-4-----------------4-------|-----4-----------5---------|---------5-----5--------|
C#|-4-----------------4-------|-----4-----------5---------|---------5-----5--------|
G#|-2-----2---2---2---2---2---|-2---2---2---2---3-----3---|-3---3---3-----3--------|
D#|---------------------------|---------------------------|------------------------|


D#|---------------------------|---------------------------|---------------------------------|
A#|---------------------------|---------------------------|---------------------------------|
F#|-7-----------------7-------|-----7-----------7---------|---------7-----------7-----------|
C#|-7-----------------7-------|-----7-----------7---------|---------7-----------7-----------|
G#|-5-----5---5---5---5---5---|-5---5---5---5---5-----5---|-5---5---5---5---5---5---5---5---|
D#|---------------------------|---------------------------|---------------------------------|


D#|---------------------------|---------------------------|--------------------------3---|
A#|---------------------------|---------------------------|--------------------------3---|
F#|---------------------------|---------------------------|--------------------------4---|
C#|-3-------------------------|-----------------5---------|--------------------------5---|
G#|-3-------------------------|-----------------5---------|-3---2---5--------3---2---5---|
D#|-1-----1---1---1---1---1---|-1---1---1---1---3-----3---|--------------3-----------3---|


D#|-3------|-------3-----|--------|-3------|--------------------|-------------|
A#|-3------|-------3-----|--------|-3------|--------------------|-------------|
F#|-4------|-------4-----|--------|-4------|--------------------|-------------|
C#|-5------|-------5-----|--------|-5------|-------7---7--------|-------------|
G#|-5------|-------5-----|--------|-5------|-------7---7--------|-------------|
D#|-3------|-------3-----|--------|-3------|-------5---5--------|-------------|





Track 2: Guitar III - Chris Risola

D#|--------|--------|--------|--------|--------|--------|--------|--------|--------|
A#|--------|--------|--------|--------|--------|--------|--------|--------|--------|
F#|--------|--------|--------|--------|--------|--------|--------|--------|--------|
C#|--------|--------|--------|--------|--------|--------|--------|--------|--------|
G#|--------|--------|--------|--------|--------|--------|--------|--------|--------|
D#|--------|--------|--------|--------|--------|--------|--------|--------|--------|


D#|--------|--------|--------|--------|-------------15--|--------------------------|
A#|--------|--------|--------|--------|-------15--------|-----15--15----15---15-13-|
F#|--------|--------|--------|--------|-----------------|--------------------------|
C#|--------|--------|--------|--------|-----------------|--------------------------|
G#|--------|--------|--------|--------|-----------------|--------------------------|
D#|--------|--------|--------|--------|-----------------|--------------------------|


D#|---------------------|-----------------------15--|------------------------|------------------------|
A#|-15----15---15--15---|-----13--12------12--------|-----12--12-------------|------------------------|
F#|---------------------|-------------14------------|------------------12----|-12----12---12--12--12--|
C#|---------------------|---------------------------|------------------------|------------------------|
G#|---------------------|---------------------------|------------------------|------------------------|
D#|---------------------|---------------------------|------------------------|------------------------|


D#|-----------------|---------------------|-20------------------|--------|--------|
A#|-----------------|---------------------|-20------------------|--------|--------|
F#|-----------------|---------------------|---------------------|--------|--------|
C#|-----------------|---------------------|---------------------|--------|--------|
G#|-----------------|-----------------24--|---------------------|--------|--------|
D#|-----------------|-----------------25--|---------------------|--------|--------|


D#|--------|--------|--------|--------|--------|--------|--------|--------|--------|
A#|--------|--------|--------|--------|--------|--------|--------|--------|--------|
F#|--------|--------|--------|--------|--------|--------|--------|--------|--------|
C#|--------|--------|--------|--------|--------|--------|--------|--------|--------|
G#|--------|--------|--------|--------|--------|--------|--------|--------|--------|
D#|--------|--------|--------|--------|--------|--------|--------|--------|--------|


D#|--------|--------|--------|--------|--------|--------|--------|--------|--------|
A#|--------|--------|--------|--------|--------|--------|--------|--------|--------|
F#|--------|--------|--------|--------|--------|--------|--------|--------|--------|
C#|--------|--------|--------|--------|--------|--------|--------|--------|--------|
G#|--------|--------|--------|--------|--------|--------|--------|--------|--------|
D#|--------|--------|--------|--------|--------|--------|--------|--------|--------|


D#|--------|--------|--------|--------|--------|--------|--------|-------------|--------|
A#|--------|--------|--------|--------|--------|--------|--------|-------------|--------|
F#|--------|--------|--------|--------|--------|--------|--------|-------------|--------|
C#|--------|--------|--------|--------|--------|--------|--------|-------------|--------|
G#|--------|--------|--------|--------|--------|--------|--------|-------------|--------|
D#|--------|--------|--------|--------|--------|--------|--------|-------------|--------|


D#|--------|-------------|------------------|-------------|--------|--------|--------|
A#|--------|-------------|------------------|-------------|--------|--------|--------|
F#|--------|-------------|------------2-----|-2------2----|--------|--------|--------|
C#|--------|-------------|------------------|-------------|--------|--------|--------|
G#|--------|-------------|------------------|-------------|--------|--------|--------|
D#|--------|-------------|------------------|-------------|--------|--------|--------|


D#|--------|--------|--------|--------|--------|--------|--------|--------|--------|
A#|--------|--------|--------|--------|--------|--------|--------|--------|--------|
F#|--------|--------|--------|--------|--------|--------|--------|--------|--------|
C#|--------|--------|--------|--------|--------|--------|--------|--------|--------|
G#|--------|--------|--------|--------|--------|--------|--------|--------|--------|
D#|--------|--------|--------|--------|--------|--------|--------|--------|--------|


D#|--------|--------|--------|--------|--------|--------|--------|--------|--------|
A#|--------|--------|--------|--------|--------|--------|--------|--------|--------|
F#|--------|--------|--------|--------|--------|--------|--------|--------|--------|
C#|--------|--------|--------|--------|--------|--------|--------|--------|--------|
G#|--------|--------|--------|--------|--------|--------|--------|--------|--------|
D#|--------|--------|--------|--------|--------|--------|--------|--------|--------|


D#|--------|--------|--------|--------|--------|--------|--------|--------|--------|
A#|--------|--------|--------|--------|--------|--------|--------|--------|--------|
F#|--------|--------|--------|--------|--------|--------|--------|--------|--------|
C#|--------|--------|--------|--------|--------|--------|--------|--------|--------|
G#|--------|--------|--------|--------|--------|--------|--------|--------|--------|
D#|--------|--------|--------|--------|--------|--------|--------|--------|--------|


D#|--------|--------|--------|--------|--------|--------|--------|--------|--------|
A#|--------|--------|--------|--------|--------|--------|--------|--------|--------|
F#|--------|--------|--------|--------|--------|--------|--------|--------|--------|
C#|--------|--------|--------|--------|--------|--------|--------|--------|--------|
G#|--------|--------|--------|--------|--------|--------|--------|--------|--------|
D#|--------|--------|--------|--------|--------|--------|--------|--------|--------|


D#|--------|--------|--------|--------|--------|-20----20---20--20---|-20-19-20--19--17------------------|
A#|--------|--------|--------|--------|--------|---------------------|-------------------20--20--18--20--|
F#|--------|--------|--------|--------|--------|---------------------|-----------------------------------|
C#|--------|--------|--------|--------|--------|---------------------|-----------------------------------|
G#|--------|--------|--------|--------|--------|---------------------|-----------------------------------|
D#|--------|--------|--------|--------|--------|---------------------|-----------------------------------|


D#|-----------------------13-15-|-171513151715131213-15-13-12-10-13-108-7-8-1210--8---5---8---7---5---|
A#|-----20----------------------|---------------------------------------------------------------------|
F#|---------19----19------------|---------------------------------------------------------------------|
C#|-----------------------------|---------------------------------------------------------------------|
G#|-------------------15--------|---------------------------------------------------------------------|
D#|-----------------------------|---------------------------------------------------------------------|


D#|-10--12------------------15-12----------------------|----------------------------|
A#|---------15--13--12--10--------15-13-12-------------|----------------------------|
F#|----------------------------------------14-12-------|----------------------------|
C#|----------------------------------------------15-14-|-12-------------------------|
G#|----------------------------------------------------|----15-14-12-10----10-------|
D#|----------------------------------------------------|----------------------------|


D#|-19----19--19--17---------------|-------------17-------20-17-20-17--------------------|
A#|------------------20-17-20--20--|-----20--20-----20-17-------------20-20-20-17--------|
F#|--------------------------------|----------------------------------------------19-19--|
C#|--------------------------------|-----------------------------------------------------|
G#|--------------------------------|-----------------------------------------------------|
D#|--------------------------------|-----------------------------------------------------|


D#|----------------------------|-8---10--8--10-8--7----------------|--------|--------|
A#|----------------------------|----------------------8------------|--------|--------|
F#|----19-17-19-17----17-------|--------------------------7---7----|--------|--------|
C#|----------------------------|-----------------------------------|--------|--------|
G#|----------------------------|-----------------------------------|--------|--------|
D#|----------------------------|-----------------------------------|--------|--------|


D#|--------|--------|--------|-22----22--22--20-------|-------------24--22--19----------|
A#|--------|--------|--------|-------------------22---|---------22--------------20--15--|
F#|--------|--------|--------|------------------------|-----22--------------------------|
C#|--------|--------|--------|------------------------|---------------------------------|
G#|--------|--------|--------|------------------------|---------------------------------|
D#|--------|--------|--------|------------------------|---------------------------------|


D#|---------22---22--22----|--------|--------|--------|--------|--------|--------|
A#|-15---------------------|--------|--------|--------|--------|--------|--------|
F#|-----16-----------------|--------|--------|--------|--------|--------|--------|
C#|------------------------|--------|--------|--------|--------|--------|--------|
G#|------------------------|--------|--------|--------|--------|--------|--------|
D#|------------------------|--------|--------|--------|--------|--------|--------|


D#|--------|--------|--------|--------|--------|--------|--------|--------|--------|
A#|--------|--------|--------|--------|--------|--------|--------|--------|--------|
F#|--------|--------|--------|--------|--------|--------|--------|--------|--------|
C#|--------|--------|--------|--------|--------|--------|--------|--------|--------|
G#|--------|--------|--------|--------|--------|--------|--------|--------|--------|
D#|--------|--------|--------|--------|--------|--------|--------|--------|--------|


D#|--------|--------|--------|--------|--------|--------|--------|--------|--------|
A#|--------|--------|--------|--------|--------|--------|--------|--------|--------|
F#|--------|--------|--------|--------|--------|--------|--------|--------|--------|
C#|--------|--------|--------|--------|--------|--------|--------|--------|--------|
G#|--------|--------|--------|--------|--------|--------|--------|--------|--------|
D#|--------|--------|--------|--------|--------|--------|--------|--------|--------|


D#|-----------------------------------|---------------------17--------------------|
A#|-----17--17--17--20--17------17-20-|-17------17-20-17--------20-17----20-17----|
F#|-19----------------------19--------|-----19-----------19-----------19-------19-|
C#|-----------------------------------|-------------------------------------------|
G#|-----------------------------------|-------------------------------------------|
D#|-----------------------------------|-------------------------------------------|


D#|-----------------------------------------------------------|----------------------------------------------------------------|
A#|-17-20-17----1720171515-17-20-17----172017-----17-20-17----|-172017-----17-20-17----172017-----17-20-17----172017-----17-20-|
F#|----------19---------------------19-------1919----------19-|-------1919----------19-------1919----------19-------1919-------|
C#|-----------------------------------------------------------|----------------------------------------------------------------|
G#|-----------------------------------------------------------|----------------------------------------------------------------|
D#|-----------------------------------------------------------|----------------------------------------------------------------|


D#|------------------------------20-17-20-17-20-17--------------|-----------------------|
A#|-17----172017-----17-20-17----------------------20-17--------|-----------------------|
F#|----19-------1919----------19-------------------------19-19--|-19--17-19-17----17----|
C#|-------------------------------------------------------------|-----------------------|
G#|-------------------------------------------------------------|-----------------------|
D#|-------------------------------------------------------------|-----------------------|


D#|-------24---22--22---|-----22---------------------------------|--------------------------|
A#|-24------------------|---------24--24-22-24-------------------|--------------------------|
F#|---------------------|-----------------------24--24--22-24-24-|-24-22-24-----------------|
C#|---------------------|----------------------------------------|-----------24----24-------|
G#|---------------------|----------------------------------------|--------------------------|
D#|---------------------|----------------------------------------|--------------------------|


D#|-22----22--22--20-------|-------------24--22----|------22----------------|--------|
A#|-------------------22---|---------22------------|------------------------|--------|
F#|------------------------|-----22----------------|------------------------|--------|
C#|------------------------|-----------------------|--------------------5---|--------|
G#|------------------------|-----------------------|--------------------5---|--------|
D#|------------------------|-----------------------|--------------------3---|--------|


D#|--------|--------|--------|--------|--------|
A#|--------|--------|--------|--------|--------|
F#|--------|--------|--------|--------|--------|
C#|--------|--------|--------|--------|--------|
G#|--------|--------|--------|--------|--------|
D#|--------|--------|--------|--------|--------|





Track 3: Guitar II - Chris Risola

D#|--------|--------|--------|--------|--------|--------|--------|--------|--------|
A#|--------|--------|--------|--------|--------|--------|--------|--------|--------|
F#|--------|--------|--------|--------|--------|--------|--------|--------|--------|
C#|--------|--------|--------|--------|--------|--------|--------|--------|--------|
G#|--------|--------|--------|--------|--------|--------|--------|--------|--------|
D#|--------|--------|--------|--------|--------|--------|--------|--------|--------|


D#|--------|--------|--------|--------|--------|--------|--------|--------|--------|
A#|--------|--------|--------|--------|--------|--------|--------|--------|--------|
F#|--------|--------|--------|--------|--------|--------|--------|--------|--------|
C#|--------|--------|--------|--------|--------|--------|--------|--------|--------|
G#|--------|--------|--------|--------|--------|--------|--------|--------|--------|
D#|--------|--------|--------|--------|--------|--------|--------|--------|--------|


D#|--------|--------|--------|--------|--------|--------|--------|--------|--------|
A#|--------|--------|--------|--------|--------|--------|--------|--------|--------|
F#|--------|--------|--------|--------|--------|--------|--------|--------|--------|
C#|--------|--------|--------|--------|--------|--------|--------|--------|--------|
G#|--------|--------|--------|--------|--------|--------|--------|--------|--------|
D#|--------|--------|--------|--------|--------|--------|--------|--------|--------|


D#|--------|-------------|------------------|------------------|-----------------------|
A#|--------|-------------|------------------|------------------|-----------------3-----|
F#|--------|-------2-----|------2-----2-----|-2-----2-----2----|---------2-------0-----|
C#|--------|-------2-----|------2-----2-----|-2-----2-----2----|-----2---2---2---0-----|
G#|--------|-------0-----|------0-----0-----|-0-----0-----0----|-----------------2-----|
D#|--------|-------------|------------------|------------------|-----------------3-----|


D#|-----------------------|------------------|---------------------|---------------------------------|
A#|-----------0---0-------|-1-----1-----1----|-----------3---------|---------------------------------|
F#|-------------------0---|-2-----2-----2----|-----------2---------|---------7-----------7-----------|
C#|-----------------------|-3-----3-----3----|-----------0---------|---------7-----------7-----------|
G#|-----------------------|-3-----3-----3----|-----------------5---|-5---5---5---5---5---5---5---5---|
D#|-----------------------|------------------|-----17--------------|---------------------------------|


D#|---------------------------|---------------------------|---------------------------------|
A#|---------------------------|---------------------------|---------------------------------|
F#|-7-----------------7-------|-----7-----------2---------|---------2---2---2---2---2---2---|
C#|-7-----------------7-------|-----7---7---0---3---------|---------3---3---3---3---3---3---|
G#|-5-----5---5---5---5---5---|-5---5---5---0---3-----3---|-3---3---3---3---3---3---3---3---|
D#|---------------------------|-----------------1-----1---|-1---1---1---1---1---1---1---1---|


D#|------------------------|-----------------------|--------|--------|--------|--------|
A#|------------------------|-----------------------|--------|--------|--------|--------|
F#|-4----------------------|-----------------------|--------|--------|--------|--------|
C#|-5----------------------|-----------------------|--------|--------|--------|--------|
G#|-5---------3---2---5----|-----3---2-------------|--------|--------|--------|--------|
D#|-3-----3----------------|-3-----------3---------|--------|--------|--------|--------|


D#|--------|--------|--------|--------|--------|--------|--------|--------|--------|
A#|--------|--------|--------|--------|--------|--------|--------|--------|--------|
F#|--------|--------|--------|--------|--------|--------|--------|--------|--------|
C#|--------|--------|--------|--------|--------|--------|--------|--------|--------|
G#|--------|--------|--------|--------|--------|--------|--------|--------|--------|
D#|--------|--------|--------|--------|--------|--------|--------|--------|--------|


D#|--------|--------|--------|--------|--------|--------|--------|--------|--------|
A#|--------|--------|--------|--------|--------|--------|--------|--------|--------|
F#|--------|--------|--------|--------|--------|--------|--------|--------|--------|
C#|--------|--------|--------|--------|--------|--------|--------|--------|--------|
G#|--------|--------|--------|--------|--------|--------|--------|--------|--------|
D#|--------|--------|--------|--------|--------|--------|--------|--------|--------|


D#|--------|--------|--------|--------|--------|--------|--------|--------|--------|
A#|--------|--------|--------|--------|--------|--------|--------|--------|--------|
F#|--------|--------|--------|--------|--------|--------|--------|--------|--------|
C#|--------|--------|--------|--------|--------|--------|--------|--------|--------|
G#|--------|--------|--------|--------|--------|--------|--------|--------|--------|
D#|--------|--------|--------|--------|--------|--------|--------|--------|--------|


D#|--------|--------|--------|--------|--------|--------|--------|--------|--------|
A#|--------|--------|--------|--------|--------|--------|--------|--------|--------|
F#|--------|--------|--------|--------|--------|--------|--------|--------|--------|
C#|--------|--------|--------|--------|--------|--------|--------|--------|--------|
G#|--------|--------|--------|--------|--------|--------|--------|--------|--------|
D#|--------|--------|--------|--------|--------|--------|--------|--------|--------|


D#|--------|--------|--------|--------|--------|--------|--------|--------|--------|
A#|--------|--------|--------|--------|--------|--------|--------|--------|--------|
F#|--------|--------|--------|--------|--------|--------|--------|--------|--------|
C#|--------|--------|--------|--------|--------|--------|--------|--------|--------|
G#|--------|--------|--------|--------|--------|--------|--------|--------|--------|
D#|--------|--------|--------|--------|--------|--------|--------|--------|--------|


D#|--------|--------|--------|--------|-----------------|---------------------------------|
A#|--------|--------|--------|--------|-------3---------|---------3-----------------------|
F#|--------|--------|--------|--------|-------4---------|---------4-----------4-----------|
C#|--------|--------|--------|--------|-------4---------|---------4-----------4-----------|
G#|--------|--------|--------|--------|-------2-----2---|-2---2---2---2---2---2---2---2---|
D#|--------|--------|--------|--------|-----------------|---------------------------------|


D#|---------------------------|---------------------------|------------------------|
A#|-5-----------------5-------|-----5---------------------|------------------------|
F#|-5-----------------5-------|-----5-----------7---------|---------7-----7--------|
C#|-5-----------------5-------|-----5-----------7---------|---------7-----7--------|
G#|-3-----3---3---3---3---3---|-3---3---3---3---5-----5---|-5---5---5-----5--------|
D#|---------------------------|---------------------------|------------------------|


D#|--------|--------|--------|--------|--------|--------|--------|-------------|--------|
A#|--------|--------|--------|--------|--------|--------|--------|-------------|--------|
F#|--------|--------|--------|--------|--------|--------|--------|-------------|--------|
C#|--------|--------|--------|--------|--------|--------|--------|-------------|--------|
G#|--------|--------|--------|--------|--------|--------|--------|-------------|--------|
D#|--------|--------|--------|--------|--------|--------|--------|-------------|--------|


D#|-----------------------------------|--------|--------|--------|--------|--------|
A#|-10--12--10-12-10-8----------------|--------|--------|--------|--------|--------|
F#|----------------------7------------|--------|--------|--------|--------|--------|
C#|--------------------------9---9----|--------|--------|--------|--------|--------|
G#|-----------------------------------|--------|--------|--------|--------|--------|
D#|-----------------------------------|--------|--------|--------|--------|--------|


D#|-19----19--19--17-------|-------------20--19--------------|---------19---19--19----|
A#|-------------------18---|---------18----------20----------|------------------------|
F#|------------------------|-----17------------------19--19--|-19---------------------|
C#|------------------------|---------------------------------|-----17-----------------|
G#|------------------------|---------------------------------|------------------------|
D#|------------------------|---------------------------------|------------------------|


D#|--------|--------|--------|--------|--------|--------|--------|--------|--------|
A#|--------|--------|--------|--------|--------|--------|--------|--------|--------|
F#|--------|--------|--------|--------|--------|--------|--------|--------|--------|
C#|--------|--------|--------|--------|--------|--------|--------|--------|--------|
G#|--------|--------|--------|--------|--------|--------|--------|--------|--------|
D#|--------|--------|--------|--------|--------|--------|--------|--------|--------|


D#|--------|--------|--------|--------|--------|--------|--------|--------|--------|
A#|--------|--------|--------|--------|--------|--------|--------|--------|--------|
F#|--------|--------|--------|--------|--------|--------|--------|--------|--------|
C#|--------|--------|--------|--------|--------|--------|--------|--------|--------|
G#|--------|--------|--------|--------|--------|--------|--------|--------|--------|
D#|--------|--------|--------|--------|--------|--------|--------|--------|--------|


D#|--------|--------|--------|--------|--------|--------|--------|--------|--------|
A#|--------|--------|--------|--------|--------|--------|--------|--------|--------|
F#|--------|--------|--------|--------|--------|--------|--------|--------|--------|
C#|--------|--------|--------|--------|--------|--------|--------|--------|--------|
G#|--------|--------|--------|--------|--------|--------|--------|--------|--------|
D#|--------|--------|--------|--------|--------|--------|--------|--------|--------|


D#|--------|--------|--------|--------|-------------|--------|-19----19--19--17-------|
A#|--------|--------|--------|--------|-------------|--------|-------------------18---|
F#|--------|--------|--------|--------|-------------|--------|------------------------|
C#|--------|--------|--------|--------|-------------|--------|------------------------|
G#|--------|--------|--------|--------|-------------|--------|------------------------|
D#|--------|--------|--------|--------|-------------|--------|------------------------|


D#|-------------20--19----|------19----------------|--------|-------------|--------|
A#|---------18------------|------------------------|--------|-------------|--------|
F#|-----17----------------|------------------------|--------|-------------|--------|
C#|-----------------------|--------------------5---|-5------|-------5-----|--------|
G#|-----------------------|--------------------5---|-5------|-------5-----|--------|
D#|-----------------------|--------------------3---|-3------|-------3-----|--------|


D#|-------------|-------------|--------|
A#|-------------|-------------|--------|
F#|-------------|-------------|--------|
C#|-5------5----|-------------|--------|
G#|-5------5----|-------------|--------|
D#|-3------3----|-------------|--------|





Track 4: Guitar 1 - Frank DiConstanza

D#|--------|--------|--------|--------|--------|--------|--------|--------|--------|
A#|--------|--------|--------|--------|--------|--------|--------|--------|--------|
F#|--------|--------|--------|--------|--------|--------|--------|--------|--------|
C#|--------|--------|--------|--------|--------|--------|--------|--------|--------|
G#|--------|--------|--------|--------|--------|--------|--------|--------|--------|
D#|--------|--------|--------|--------|--------|--------|--------|--------|--------|


D#|--------|--------|--------|--------|--------|--------|--------|--------|--------|
A#|--------|--------|--------|--------|--------|--------|--------|--------|--------|
F#|--------|--------|--------|--------|--------|--------|--------|--------|--------|
C#|--------|--------|--------|--------|--------|--------|--------|--------|--------|
G#|--------|--------|--------|--------|--------|--------|--------|--------|--------|
D#|--------|--------|--------|--------|--------|--------|--------|--------|--------|


D#|--------|--------|--------|--------|--------|--------|--------|--------|--------|
A#|--------|--------|--------|--------|--------|--------|--------|--------|--------|
F#|--------|--------|--------|--------|--------|--------|--------|--------|--------|
C#|--------|--------|--------|--------|--------|--------|--------|--------|--------|
G#|--------|--------|--------|--------|--------|--------|--------|--------|--------|
D#|--------|--------|--------|--------|--------|--------|--------|--------|--------|


D#|--------|--------|--------|--------|--------|--------|--------|--------|--------|
A#|--------|--------|--------|--------|--------|--------|--------|--------|--------|
F#|--------|--------|--------|--------|--------|--------|--------|--------|--------|
C#|--------|--------|--------|--------|--------|--------|--------|--------|--------|
G#|--------|--------|--------|--------|--------|--------|--------|--------|--------|
D#|--------|--------|--------|--------|--------|--------|--------|--------|--------|


D#|--------|--------|--------|--------|--------|--------|--------|--------|--------|
A#|--------|--------|--------|--------|--------|--------|--------|--------|--------|
F#|--------|--------|--------|--------|--------|--------|--------|--------|--------|
C#|--------|--------|--------|--------|--------|--------|--------|--------|--------|
G#|--------|--------|--------|--------|--------|--------|--------|--------|--------|
D#|--------|--------|--------|--------|--------|--------|--------|--------|--------|


D#|--------|--------|--------|--------|--------|--------|--------|--------|--------|
A#|--------|--------|--------|--------|--------|--------|--------|--------|--------|
F#|--------|--------|--------|--------|--------|--------|--------|--------|--------|
C#|--------|--------|--------|--------|--------|--------|--------|--------|--------|
G#|--------|--------|--------|--------|--------|--------|--------|--------|--------|
D#|--------|--------|--------|--------|--------|--------|--------|--------|--------|


D#|--------|--------|--------|--------|--------|--------|--------|--------|--------|
A#|--------|--------|--------|--------|--------|--------|--------|--------|--------|
F#|--------|--------|--------|--------|--------|--------|--------|--------|--------|
C#|--------|--------|--------|--------|--------|--------|--------|--------|--------|
G#|--------|--------|--------|--------|--------|--------|--------|--------|--------|
D#|--------|--------|--------|--------|--------|--------|--------|--------|--------|


D#|--------|--------|--------|--------|--------|--------|--------|--------|--------|
A#|--------|--------|--------|--------|--------|--------|--------|--------|--------|
F#|--------|--------|--------|--------|--------|--------|--------|--------|--------|
C#|--------|--------|--------|--------|--------|--------|--------|--------|--------|
G#|--------|--------|--------|--------|--------|--------|--------|--------|--------|
D#|--------|--------|--------|--------|--------|--------|--------|--------|--------|


D#|--------|--------|--------|--------|--------|--------|--------|--------|--------|
A#|--------|--------|--------|--------|--------|--------|--------|--------|--------|
F#|--------|--------|--------|--------|--------|--------|--------|--------|--------|
C#|--------|--------|--------|--------|--------|--------|--------|--------|--------|
G#|--------|--------|--------|--------|--------|--------|--------|--------|--------|
D#|--------|--------|--------|--------|--------|--------|--------|--------|--------|


D#|--------|--------|--------|--------|--------|--------|--------|--------|--------|
A#|--------|--------|--------|--------|--------|--------|--------|--------|--------|
F#|--------|--------|--------|--------|--------|--------|--------|--------|--------|
C#|--------|--------|--------|--------|--------|--------|--------|--------|--------|
G#|--------|--------|--------|--------|--------|--------|--------|--------|--------|
D#|--------|--------|--------|--------|--------|--------|--------|--------|--------|


D#|--------|--------|--------|--------|--------|--------|--------|--------|--------|
A#|--------|--------|--------|--------|--------|--------|--------|--------|--------|
F#|--------|--------|--------|--------|--------|--------|--------|--------|--------|
C#|--------|--------|--------|--------|--------|--------|--------|--------|--------|
G#|--------|--------|--------|--------|--------|--------|--------|--------|--------|
D#|--------|--------|--------|--------|--------|--------|--------|--------|--------|


D#|--------|--------|--------|--------|--------|--------|--------|--------|--------|
A#|--------|--------|--------|--------|--------|--------|--------|--------|--------|
F#|--------|--------|--------|--------|--------|--------|--------|--------|--------|
C#|--------|--------|--------|--------|--------|--------|--------|--------|--------|
G#|--------|--------|--------|--------|--------|--------|--------|--------|--------|
D#|--------|--------|--------|--------|--------|--------|--------|--------|--------|


D#|--------|----------------------------------------12|---13-15-17-20--20----20------1720|
A#|--------|-------------------------------12-13-15---|----------------------------------|
F#|--------|----------------------12-13-14------------|----------------------------------|
C#|--------|-------------12-13-14---------------------|----------------------------------|
G#|--------|-------12-15------------------------------|----------------------------------|
D#|--------|------------------------------------------|----------------------------------|


D#|-20172017201716171917-16-------12-13-15-17-15-13-15-13--15--13-|---12--13151312----------------------------------------|
A#|-------------------------18-15---------------------------------|---------------15-13-12----121315-13-12----------------|
F#|---------------------------------------------------------------|------------------------14--------------14-13-11-10-12-|
C#|---------------------------------------------------------------|-------------------------------------------------------|
G#|---------------------------------------------------------------|-------------------------------------------------------|
D#|---------------------------------------------------------------|-------------------------------------------------------|


D#|--------------------|--------|--------|--------|--------|--------|--------|--------|
A#|--------------------|--------|--------|--------|--------|--------|--------|--------|
F#|-12--12--101210-----|--------|--------|--------|--------|--------|--------|--------|
C#|--------------------|--------|--------|--------|--------|--------|--------|--------|
G#|--------------------|--------|--------|--------|--------|--------|--------|--------|
D#|--------------------|--------|--------|--------|--------|--------|--------|--------|


D#|--------|--------|--------|--------|--------|--------|--------|--------|--------|
A#|--------|--------|--------|--------|--------|--------|--------|--------|--------|
F#|--------|--------|--------|--------|--------|--------|--------|--------|--------|
C#|--------|--------|--------|--------|--------|--------|--------|--------|--------|
G#|--------|--------|--------|--------|--------|--------|--------|--------|--------|
D#|--------|--------|--------|--------|--------|--------|--------|--------|--------|


D#|--------|--------|--------|--------|--------|--------|--------|--------|--------|
A#|--------|--------|--------|--------|--------|--------|--------|--------|--------|
F#|--------|--------|--------|--------|--------|--------|--------|--------|--------|
C#|--------|--------|--------|--------|--------|--------|--------|--------|--------|
G#|--------|--------|--------|--------|--------|--------|--------|--------|--------|
D#|--------|--------|--------|--------|--------|--------|--------|--------|--------|


D#|--------|--------|--------|--------|--------|--------|--------|--------|--------|
A#|--------|--------|--------|--------|--------|--------|--------|--------|--------|
F#|--------|--------|--------|--------|--------|--------|--------|--------|--------|
C#|--------|--------|--------|--------|--------|--------|--------|--------|--------|
G#|--------|--------|--------|--------|--------|--------|--------|--------|--------|
D#|--------|--------|--------|--------|--------|--------|--------|--------|--------|


D#|--------|--------|--------|--------|--------|--------|--------|--------|--------|
A#|--------|--------|--------|--------|--------|--------|--------|--------|--------|
F#|--------|--------|--------|--------|--------|--------|--------|--------|--------|
C#|--------|--------|--------|--------|--------|--------|--------|--------|--------|
G#|--------|--------|--------|--------|--------|--------|--------|--------|--------|
D#|--------|--------|--------|--------|--------|--------|--------|--------|--------|


D#|--------|--------|
A#|--------|--------|
F#|--------|--------|
C#|--------|--------|
G#|--------|--------|
D#|--------|--------|





Track 5: Untitled

G|--------|--------|--------|--------|--------|--------|--------|--------|--------|
D|--------|--------|--------|--------|--------|--------|--------|--------|--------|
A|--------|--------|--------|--------|--------|--------|--------|--------|--------|
E|--------|--------|--------|--------|--------|--------|--------|--------|--------|


G|--------|--------|--------|--------|--------|--------|--------|--------|--------|
D|--------|--------|--------|--------|--------|--------|--------|--------|--------|
A|--------|--------|--------|--------|--------|--------|--------|--------|--------|
E|--------|--------|--------|--------|--------|--------|--------|--------|--------|


G|--------|--------|--------|--------|--------|--------|--------|--------|--------|
D|--------|--------|--------|--------|--------|--------|--------|--------|--------|
A|--------|--------|--------|--------|--------|--------|--------|--------|--------|
E|--------|--------|--------|--------|--------|--------|--------|--------|--------|


G|--------|--------|--------|--------|--------|--------|--------|--------|--------|
D|--------|--------|--------|--------|--------|--------|--------|--------|--------|
A|--------|--------|--------|--------|--------|--------|--------|--------|--------|
E|--------|--------|--------|--------|--------|--------|--------|--------|--------|


G|--------|--------|--------|--------|--------|--------|--------|--------|--------|
D|--------|--------|--------|--------|--------|--------|--------|--------|--------|
A|--------|--------|--------|--------|--------|--------|--------|--------|--------|
E|--------|--------|--------|--------|--------|--------|--------|--------|--------|


G|--------|--------|--------|--------|--------|--------|--------|--------|--------|
D|--------|--------|--------|--------|--------|--------|--------|--------|--------|
A|--------|--------|--------|--------|--------|--------|--------|--------|--------|
E|--------|--------|--------|--------|--------|--------|--------|--------|--------|


G|--------|--------|--------|--------|--------|--------|--------|--------|--------|
D|--------|--------|--------|--------|--------|--------|--------|--------|--------|
A|--------|--------|--------|--------|--------|--------|--------|--------|--------|
E|--------|--------|--------|--------|--------|--------|--------|--------|--------|


G|--------|--------|--------|--------|--------|--------|--------|--------|--------|
D|--------|--------|--------|--------|--------|--------|--------|--------|--------|
A|--------|--------|--------|--------|--------|--------|--------|--------|--------|
E|--------|--------|--------|--------|--------|--------|--------|--------|--------|


G|--------|--------|--------|--------|--------|--------|--------|--------|--------|
D|--------|--------|--------|--------|--------|--------|--------|--------|--------|
A|--------|--------|--------|--------|--------|--------|--------|--------|--------|
E|--------|--------|--------|--------|--------|--------|--------|--------|--------|


G|--------|--------|--------|--------|--------|--------|--------|--------|--------|
D|--------|--------|--------|--------|--------|--------|--------|--------|--------|
A|--------|--------|--------|--------|--------|--------|--------|--------|--------|
E|--------|--------|--------|--------|--------|--------|--------|--------|--------|


G|--------|--------|--------|--------|--------|--------|--------|--------|--------|
D|--------|--------|--------|--------|--------|--------|--------|--------|--------|
A|--------|--------|--------|--------|--------|--------|--------|--------|--------|
E|--------|--------|--------|--------|--------|--------|--------|--------|--------|


G|--------|--------|--------|--------|--------|--------|--------|--------|--------|
D|--------|--------|--------|--------|--------|--------|--------|--------|--------|
A|--------|--------|--------|--------|--------|--------|--------|--------|--------|
E|--------|--------|--------|--------|--------|--------|--------|--------|--------|


G|--------|--------|--------|--------|--------|--------|--------|--------|--------|
D|--------|--------|--------|--------|--------|--------|--------|--------|--------|
A|--------|--------|--------|--------|--------|--------|--------|--------|--------|
E|--------|--------|--------|--------|--------|--------|--------|--------|--------|


G|--------|--------|--------|--------|--------|--------|--------|--------|--------|
D|--------|--------|--------|--------|--------|--------|--------|--------|--------|
A|--------|--------|--------|--------|--------|--------|--------|--------|--------|
E|--------|--------|--------|--------|--------|--------|--------|--------|--------|


G|--------|--------|--------|--------|--------|--------|--------|--------|--------|
D|--------|--------|--------|--------|--------|--------|--------|--------|--------|
A|--------|--------|--------|--------|--------|--------|--------|--------|--------|
E|--------|--------|--------|--------|--------|--------|--------|--------|--------|


G|--------|--------|--------|--------|--------|--------|--------|--------|--------|
D|--------|--------|--------|--------|--------|--------|--------|--------|--------|
A|--------|--------|--------|--------|--------|--------|--------|--------|--------|
E|--------|--------|--------|--------|--------|--------|--------|--------|--------|


G|--------|--------|--------|--------|--------|--------|--------|--------|--------|
D|--------|--------|--------|--------|--------|--------|--------|--------|--------|
A|--------|--------|--------|--------|--------|--------|--------|--------|--------|
E|--------|--------|--------|--------|--------|--------|--------|--------|--------|


G|--------|--------|--------|--------|--------|--------|
D|--------|--------|--------|--------|--------|--------|
A|--------|--------|--------|--------|--------|--------|
E|--------|--------|--------|--------|--------|--------|