Site menu:

    

Browse: 0-9 A B C D E F G H I J K L N O P Q R S T U V W X Y Z

sort sol - let your fingers do the walking:



Title: Let your fingers do the walking
Artist: 
Album: Glamourpuss
Author: S. Jørgensen


Track 1: 1st guitar

E|---------------------------------|-----------------5-----------5---|---------5-----------------------|
B|-7-----------7-----------8-------|-----7-----------5-------5-------|-5-------8-----------8-----------|
G|-----7-----------7-----------7---|---------7-----------6-----------|-----6-----------7-------7-------|
D|---------7-----------7-----------|-7-----------7-------------------|-------------9---------------9---|
A|---------------------------------|---------------------------------|---------------------------------|
E|---------------------------------|---------------------------------|---------------------------------|


E|---------------------------------|-----------------5-----------5---|---------5-----------7-----------|
B|-7-----------7-----------8-------|-----7-----------5-------5-------|-5-------8-----------8-----------|
G|-----7-----------7-----------7---|---------7-----------6-----------|-----6-----------7-------7-------|
D|---------7-----------7-----------|-7-----------7-------------------|-------------9---------------9---|
A|---------------------------------|---------------------------------|---------------------------------|
E|---------------------------------|---------------------------------|---------------------------------|


E|-------------|-----------------|-------------|-------------|-------------|-------------|
B|-7------5----|-------7-----7---|------7------|-7------5----|-------------|-------------|
G|-------------|-----------------|-------------|-------------|-------7-----|-7----7------|
D|-------------|-----------------|-------------|-------------|-------------|-------------|
A|-------------|-----------------|-------------|-------------|-------------|-------------|
E|-------------|-----------------|-------------|-------------|-------------|-------------|


E|-------------|-------------|------------------|-------------|-------------|-------------|
B|--------5----|-------7-----|------8-----7-----|-------------|-------------|-------------|
G|-7-----------|-------------|------------------|-7------7----|-------7-----|-------------|
D|-------------|-------------|------------------|-------------|-------------|-------------|
A|-------------|-------------|------------------|-------------|-------------|-------------|
E|-------------|-------------|------------------|-------------|-------------|-------------|


E|-------------|-------------|------------------|-------------|-------------|-------------|
B|-7------5----|-------7-----|------7-----7-----|-7------5----|-------------|-------------|
G|-------------|-------------|------------------|-------------|-------------|------7------|
D|-------------|-------------|------------------|-------------|-------------|-------------|
A|-------------|-------------|------------------|-------------|-------------|-------------|
E|-------------|-------------|------------------|-------------|-------------|-------------|


E|-------------|-------------|------------------|-------------|-------------|-------------|
B|--------5----|-------7-----|------8-----7-----|-7------5----|-------------|-------------|
G|-7-----------|-------------|------------------|-------------|-------7-----|-------------|
D|-------------|-------------|------------------|-------------|-------------|-------------|
A|-------------|-------------|------------------|-------------|-------------|-------------|
E|-------------|-------------|------------------|-------------|-------------|-------------|


E|---------------------------------|-----------------------|---------------5-------|
B|-7---5-------7---5-------7---5---|-------7---5-------7---|-5-----------------8---|
G|---------7-----------7-----------|-7-------------7-------|-----7---6-------------|
D|---------------------------------|-----------------------|-----------------------|
A|---------------------------------|-----------------------|-----------------------|
E|---------------------------------|-----------------------|-----------------------|


E|---------------------------------|-------------|--------------------|---------------------------------|
B|-7---5-------7---5-------7---5---|-------5-----|------5-----7---5---|-7---5-------7---5-------7---5---|
G|---------7-----------7-----------|-7-----------|--------------------|---------7-----------7-----------|
D|---------------------------------|-------------|--------------------|---------------------------------|
A|---------------------------------|-------------|--------------------|---------------------------------|
E|---------------------------------|-------------|--------------------|---------------------------------|


E|-----------------------|-----------------------|--------------------|-------5-----|
B|-----------5---7-------|-5---7-------------5---|-----------5---7----|-------------|
G|-7-----7-----------7---|---------6-----7-------|-7-----7------------|-------------|
D|-----------------------|-----------------------|--------------------|-------------|
A|-----------------------|-----------------------|--------------------|-------------|
E|-----------------------|-----------------------|--------------------|-------------|


E|------5----------|-------------|-------------|-------------|-------------|-----------------|
B|-----------------|-7------5----|-------7-----|------7------|-7------5----|-----5-----------|
G|-----------------|-------------|-------------|-------------|-------------|-----------7-----|
D|-----------------|-------------|-------------|-------------|-------------|-----------------|
A|-----------------|-------------|-------------|-------------|-------------|-----------------|
E|-----------------|-------------|-------------|-------------|-------------|-----------------|


E|-------------|-------------|-----------------|------------------|-------------|-------------|
B|-------------|--------5----|-------7-----7---|------8-----7-----|-------------|-------------|
G|------7------|-7-----------|-----------------|------------------|-7------7----|-------7-----|
D|-------------|-------------|-----------------|------------------|-------------|-------------|
A|-------------|-------------|-----------------|------------------|-------------|-------------|
E|-------------|-------------|-----------------|------------------|-------------|-------------|


E|-------------|---------------------------------|-----------------5-----------5---|
B|-------------|-7-----------7-----------8-------|-----7-----------5-------5-------|
G|-------------|-----7-----------7-----------7---|---------7-----------6-----------|
D|-------------|---------7-----------7-----------|-7-----------7-------------------|
A|-------------|---------------------------------|---------------------------------|
E|-------------|---------------------------------|---------------------------------|


E|---------5-----------------------|---------------------------------|-----------------5-----------5---|
B|-5-------8-----------8-----------|-7-----------7-----------8-------|-----7-----------5-------5-------|
G|-----6-----------7-------7-------|-----7-----------7-----------7---|---------7-----------6-----------|
D|-------------9---------------9---|---------7-----------7-----------|-7-----------7-------------------|
A|---------------------------------|---------------------------------|---------------------------------|
E|---------------------------------|---------------------------------|---------------------------------|


E|---------5-----------7-----------|-----------------|-------------|-------------|
B|-5-------8-----------8-----------|-7-----7----5----|-------7-----|-7----7------|
G|-----6-----------7-------7-------|-----------------|-------------|-------------|
D|-------------9---------------9---|-----------------|-------------|-------------|
A|---------------------------------|-----------------|-------------|-------------|
E|---------------------------------|-----------------|-------------|-------------|


E|-------------|-----------------|-------------|-------------|-------------|---------------------|
B|-7------5----|-------7----7----|------7------|--------5----|-------7-----|------8-----7----5---|
G|-------------|-----------------|-------------|-7-----------|-------------|---------------------|
D|-------------|-----------------|-------------|-------------|-------------|---------------------|
A|-------------|-----------------|-------------|-------------|-------------|---------------------|
E|-------------|-----------------|-------------|-------------|-------------|---------------------|


E|-------------|-------------|-------------|---------------------------------|--------------------------|
B|-------------|-------------|-------------|-7---5-------7---5-------7---5---|----------7---5-------7---|
G|-7------7----|-------7-----|-------------|---------7-----------7-----------|-7----------------7-------|
D|-------------|-------------|-------------|---------------------------------|--------------------------|
A|-------------|-------------|-------------|---------------------------------|--------------------------|
E|-------------|-------------|-------------|---------------------------------|--------------------------|


E|-------------------5-------|---------------------------------|-------------|-------------|
B|-5---------------------8---|-7---5-------7---5-------7---5---|-------5-----|------5------|
G|-----7---6-----6-----------|---------7-----------7-----------|-7-----------|-------------|
D|---------------------------|---------------------------------|-------------|-------------|
A|---------------------------|---------------------------------|-------------|-------------|
E|---------------------------|---------------------------------|-------------|-------------|


E|---------------------------------|--------------------------|-------------------5-------|
B|-7---5-------7---5-------7---5---|----------7---5-------7---|-5---------------------8---|
G|---------7-----------7-----------|-7----------------7-------|-----7---6-----6-----------|
D|---------------------------------|--------------------------|---------------------------|
A|---------------------------------|--------------------------|---------------------------|
E|---------------------------------|--------------------------|---------------------------|


E|---------------------------------|-------------|-------------|-------------|-------------|
B|-7---5-------7---5-------7---5---|-------15----|------15-----|-15-----15---|-------15----|
G|---------7-----------7-----------|-7-----------|-------------|-------------|-------------|
D|---------------------------------|-------------|-------------|-------------|-------------|
A|---------------------------------|-------------|-------------|-------------|-------------|
E|---------------------------------|-------------|-------------|-------------|-------------|


E|-------------|-14-----14---|-------12----|------12-----|-14-----14---|-------14----|
B|------14-----|-15-----15---|-------14----|------14-----|-15-----15---|-------15----|
G|------14-----|-------------|-------------|-------------|-------------|-------------|
D|-------------|-------------|-------------|-------------|-------------|-------------|
A|-------------|-------------|-------------|-------------|-------------|-------------|
E|-------------|-------------|-------------|-------------|-------------|-------------|


E|------12-----|-14-----14---|-------12----|------12-----|-14-----14---|-------14----|
B|------14-----|-15-----15---|-------14----|------14-----|-------------|-------------|
G|-------------|-------------|-------------|-------------|-------------|-------------|
D|-------------|-------------|-------------|-------------|-------------|-------------|
A|-------------|-------------|-------------|-------------|-------------|-------------|
E|-------------|-------------|-------------|-------------|-------------|-------------|





Track 2: 2nd guitar

E|---------------------|---------------------|-------------7---7----7---7---|---------------------|
B|------10----10--10---|-10----10--10---10---|-----10--10--10--10---10--10--|-10---10----10--10---|
G|---------------------|---------------------|------------------------------|---------------------|
D|---------------------|---------------------|------------------------------|---------------------|
A|---------------------|---------------------|------------------------------|---------------------|
E|---------------------|---------------------|------------------------------|---------------------|


E|---------------------|-------------7---7----7---7---|-------------2-------------------|
B|-10----10--10---10---|-----10--10--10--10---10--10--|---------3-------3---------------|
G|---------------------|------------------------------|-----4---------------4-------2---|
D|---------------------|------------------------------|---------------------------------|
A|---------------------|------------------------------|-2-----------------------0-------|
E|---------------------|------------------------------|---------------------------------|


E|-----0-----------------------2---|---------------------2-----------|-------------2-------------------|
B|-2-------2---------------3-------|-3---------------3-------3-------|---------3-------3---------------|
G|-------------0-------2-----------|-----2-------2---------------0---|-----4---------------4-------2---|
D|-----------------0---------------|---------0-----------------------|-4-----------------------2-------|
A|---------------------------------|---------------------------------|---------------------------------|
E|---------------------------------|---------------------------------|---------------------------------|


E|-----0-----------------------2---|---------------------2-----------|-------------3-------------------|
B|-2-------2---------------3-------|-3---------------3-------3-------|---------3-------3---------------|
G|-------------0-------2-----------|-----2-------2---------------0---|-----0---------------0-------2---|
D|-----------------0---------------|---------0-----------------------|-0-----------------------2-------|
A|---------------------------------|---------------------------------|---------------------------------|
E|---------------------------------|---------------------------------|---------------------------------|


E|-----0-----------------------2---|---------3-----------2-----------|-------------2-------------------|
B|-2-------2---------------3-------|-3-----------3-----------3-------|---------3-------3---------------|
G|-------------0-------2-----------|-----2-----------2-----------0---|-----4---------------4-------2---|
D|-----------------0---------------|---------------------------------|-4-----------------------2-------|
A|---------------------------------|---------------------------------|---------------------------------|
E|---------------------------------|---------------------------------|---------------------------------|


E|-----0-----------------------2---|---------------------2-----------|-------------2-------------------|
B|-2-------2---------------3-------|-3---------------3-------3-------|---------3-------3---------------|
G|-------------0-------2-----------|-----2-------2---------------0---|-----4---------------4-------2---|
D|-----------------0---------------|---------0-----------------------|-4-----------------------2-------|
A|---------------------------------|---------------------------------|---------------------------------|
E|---------------------------------|---------------------------------|---------------------------------|


E|-----0-----------------------2---|---------------------2-----------|-------------2-------------------|
B|-2-------2---------------3-------|-3---------------3-------3-------|---------3-------3---------------|
G|-------------0-------2-----------|-----2-------2---------------0---|-----4---------------4-------2---|
D|-----------------0---------------|---------0-----------------------|-4-----------------------2-------|
A|---------------------------------|---------------------------------|---------------------------------|
E|---------------------------------|---------------------------------|---------------------------------|


E|-----0-----------------------2---|---------------------2-----------|-------------3-------------------|
B|-2-------2---------------3-------|-3---------------3-------3-------|---------3-------3---------------|
G|-------------0-------2-----------|-----2-------2---------------0---|-----0---------------0-------2---|
D|-----------------0---------------|---------0-----------------------|-0-----------------------2-------|
A|---------------------------------|---------------------------------|---------------------------------|
E|---------------------------------|---------------------------------|---------------------------------|


E|-----0-----------------------2---|---------3-----------2-----------|-------------2-------------------|
B|-2-------2---------------3-------|-3-----------3-----------3-------|---------3-------3---------------|
G|-------------0-------2-----------|-----2-----------2-----------0---|-----4---------------4-------2---|
D|-----------------0---------------|---------------------------------|-4-----------------------2-------|
A|---------------------------------|---------------------------------|---------------------------------|
E|---------------------------------|---------------------------------|---------------------------------|


E|-----0-----------------------2---|---------------------2-----------|-------------2-------------------|
B|-2-------2---------------3-------|-3---------------3-------3-------|---------3-------3---------------|
G|-------------0-------2-----------|-----2-------2---------------2---|-----4---------------4-------0---|
D|-----------------0---------------|---------0-----------------------|-4-----------------------0-------|
A|---------------------------------|---------------------------------|---------------------------------|
E|---------------------------------|---------------------------------|---------------------------------|


E|-----3-----------------------2---|---------------------0-----------|-------------2-------------------|
B|-3-----------3-----------3-------|-3---------------2-------3---2---|---------3-------3---------------|
G|---------0-----------4-----------|-----4-------2-------------------|-----4---------------4-------0---|
D|-----------------4---------------|---------2-----------------------|-4-----------------------0-------|
A|---------------------------------|---------------------------------|---------------------------------|
E|---------------------------------|---------------------------------|---------------------------------|


E|-----3-----------------------0---|---------------------0-----------|-------------2-------------------|
B|-3-------3---------------2-------|-2---------------2-------3---2---|---------3-------3---------------|
G|-------------0-------2-----------|-----2-------2-------------------|-----4---------------4-------0---|
D|-----------------2---------------|---------2-----------------------|-4-----------------------0-------|
A|---------------------------------|---------------------------------|---------------------------------|
E|---------------------------------|---------------------------------|---------------------------------|


E|-----3-----------------------2---|---------------------0-----------|-------------2-------------------|
B|-3-----------3-----------3-------|-3---------------2-------3---2---|---------3-------3---------------|
G|---------0-----------4-----------|-----4-------2-------------------|-----4---------------4-------0---|
D|-----------------4---------------|---------2-----------------------|-4-----------------------0-------|
A|---------------------------------|---------------------------------|---------------------------------|
E|---------------------------------|---------------------------------|---------------------------------|


E|-----3-----------------------0---|---------------------0-----------|-------------2-------------------|
B|-3-------3---------------2-------|-2---------------2-------2-------|---------3-------3---------------|
G|-------------0-------2-----------|-----2-------2---------------0---|-----4---------------4-------2---|
D|-----------------2---------------|---------2-----------------------|-4-----------------------2-------|
A|---------------------------------|---------------------------------|---------------------------------|
E|---------------------------------|---------------------------------|---------------------------------|


E|-----0-----------------------2---|---------------------2-----------|-------------2-------------------|
B|-2-------2---------------3-------|-3---------------3-------3-------|---------3-------3---------------|
G|-------------0-------2-----------|-----2-------2---------------0---|-----4---------------4-------2---|
D|-----------------0---------------|---------0-----------------------|-4-----------------------2-------|
A|---------------------------------|---------------------------------|---------------------------------|
E|---------------------------------|---------------------------------|---------------------------------|


E|-----0-----------------------2---|---------------------2-----------|-------------3-------------------|
B|-2-------2---------------3-------|-3---------------3-------3-------|---------3-------3---------------|
G|-------------0-------2-----------|-----2-------2---------------0---|-----0---------------0-------2---|
D|-----------------0---------------|---------0-----------------------|-0-----------------------2-------|
A|---------------------------------|---------------------------------|---------------------------------|
E|---------------------------------|---------------------------------|---------------------------------|


E|-----0-----------------------2---|---------3-----------2-----------|-------------2-------------------|
B|-2-------2---------------3-------|-3-----------3-----------3-------|---------3-------3---------------|
G|-------------0-------2-----------|-----2-----------2-----------0---|-----4---------------4-------2---|
D|-----------------0---------------|---------------------------------|-4-----------------------2-------|
A|---------------------------------|---------------------------------|---------------------------------|
E|---------------------------------|---------------------------------|---------------------------------|


E|-----0-----------------------2---|---------------------2-----------|---------------------|
B|-2-------2---------------3-------|-3---------------3-------3-------|------10----10--10---|
G|-------------0-------2-----------|-----2-------2---------------2---|-11---11----11--11---|
D|-----------------0---------------|---------0-----------------------|-12---12----12--12---|
A|---------------------------------|---------------------------------|-12---12----12--12---|
E|---------------------------------|---------------------------------|-10---10----10--10---|


E|---------------------|-------------7---7----7---7---|---------------------|---------------------|
B|-10----10--10---10---|-----10--10--10--10---10--10--|-10---10----10--10---|-10----10--10---10---|
G|-11----11------------|------------------------------|---------------------|---------------------|
D|-12----12------------|------------------------------|---------------------|---------------------|
A|-12----12------------|------------------------------|---------------------|---------------------|
E|-10----10------------|------------------------------|---------------------|---------------------|


E|-------------7---7----7---7---|-------------2-------------------|-----0-----------------------2---|
B|-----10--10--10--10---10--10--|---------3-------3---------------|-2-------2---------------3-------|
G|------------------------------|-----4---------------4-------2---|-------------2-------2-----------|
D|------------------------------|-4-----------------------2-------|-----------------0---------------|
A|------------------------------|---------------------------------|---------------------------------|
E|------------------------------|---------------------------------|---------------------------------|


E|---------------------2-----------|-------------2-------------------|-----0-----------------------2---|
B|-3---------------3-------3-------|---------3-------3---------------|-2-------2---------------3-------|
G|-----2-------2---------------0---|-----4---------------4-------2---|-------------2-------2-----------|
D|---------0-----------------------|-4-----------------------2-------|-----------------0---------------|
A|---------------------------------|---------------------------------|---------------------------------|
E|---------------------------------|---------------------------------|---------------------------------|


E|---------------------2-----------|-------------3-------------------|-----0-----------------------2---|
B|-3---------------3-------3-------|---------3-------3---------------|-2-------2---------------3-------|
G|-----2-------2---------------0---|-----0---------------0-------2---|-------------0-------2-----------|
D|---------0-----------------------|-0-----------------------2-------|-----------------0---------------|
A|---------------------------------|---------------------------------|---------------------------------|
E|---------------------------------|---------------------------------|---------------------------------|


E|---------3-----------2-----------|-------------2-------------------|-----0-----------------------2---|
B|-3-----------3-----------3-------|---------3-------3---------------|-2-------2---------------3-------|
G|-----2-----------2-----------0---|-----4---------------4-------2---|-------------0-------2-----------|
D|---------------------------------|-4-----------------------2-------|-----------------0---------------|
A|---------------------------------|---------------------------------|---------------------------------|
E|---------------------------------|---------------------------------|---------------------------------|


E|---------------------2-----------|-------------2-------------------|-----3-----------------------2---|
B|-3---------------3-------3-------|---------3-------3---------------|-3-----------3-----------3-------|
G|-----2-------2---------------2---|-----4---------------4-------0---|---------0-----------4-----------|
D|---------0-----------------------|-4-----------------------0-------|-----------------4---------------|
A|---------------------------------|---------------------------------|---------------------------------|
E|---------------------------------|---------------------------------|---------------------------------|


E|---------------------0-----------|-------------2-------------------|-----3-----------------------0---|
B|-3---------------2-------3---2---|---------3-------3---------------|-3-------3---------------2-------|
G|-----4-------2-------------------|-----4---------------4-------0---|-------------0-------2-----------|
D|---------2-----------------------|-4-----------------------0-------|-----------------2---------------|
A|---------------------------------|---------------------------------|---------------------------------|
E|---------------------------------|---------------------------------|---------------------------------|


E|---------------------0-----------|-------------2-------------------|-----3-----------------------2---|
B|-2---------------2-------2-------|---------3-------3---------------|-3-------3---------------3-------|
G|-----2-------2---------------2---|-----4---------------4-------0---|-------------0-------4-----------|
D|---------2-----------------------|-4-----------------------0-------|-----------------4---------------|
A|---------------------------------|---------------------------------|---------------------------------|
E|---------------------------------|---------------------------------|---------------------------------|


E|---------------------0-----------|-------------2-------------------|-----3-----------------------0---|
B|-3---------------2-------3---2---|---------3-------3---------------|-3-------3---------------2-------|
G|-----4-------2-------------------|-----4---------------4-------0---|-------------0-------2-----------|
D|---------2-----------------------|-4-----------------------0-------|-----------------2---------------|
A|---------------------------------|---------------------------------|---------------------------------|
E|---------------------------------|---------------------------------|---------------------------------|


E|---------------------0-----------|-------------2-------------------|-----3-----------------------2---|
B|-2---------------2-------2-------|---------3-------3---------------|-3-------3---------------3-------|
G|-----2-------2---------------2---|-----4---------------4-------0---|-------------0-------4-----------|
D|---------2-----------------------|-4-----------------------0-------|-----------------4---------------|
A|---------------------------------|---------------------------------|---------------------------------|
E|---------------------------------|---------------------------------|---------------------------------|


E|---------------------0-----------|-------------2-------------------|-----3-----------------------0---|
B|-3---------------2-------2-------|---------3-------3---------------|-3-------3---------------2-------|
G|-----4-------2---------------2---|-----4---------------4-------0---|-------------0-------2-----------|
D|---------2-----------------------|-4-----------------------0-------|-----------------2---------------|
A|---------------------------------|---------------------------------|---------------------------------|
E|---------------------------------|---------------------------------|---------------------------------|


E|---------------------0-----------|-------------2-------------------|-----3-----------------------2---|
B|-2---------------2-------2-------|---------3-------3---------------|-3-------3---------------3-------|
G|-----2-------2---------------2---|-----4---------------4-------0---|-------------0-------4-----------|
D|---------2-----------------------|-4-----------------------0-------|-----------------4---------------|
A|---------------------------------|---------------------------------|---------------------------------|
E|---------------------------------|---------------------------------|---------------------------------|


E|---------------------0-----------|-------------2-------------------|-----3-----------------------0---|
B|-3---------------2-------2-------|---------3-------3---------------|-3-------3---------------2-------|
G|-----4-------2---------------2---|-----4---------------4-------0---|-------------0-------2-----------|
D|---------2-----------------------|-4-----------------------0-------|-----------------2---------------|
A|---------------------------------|---------------------------------|---------------------------------|
E|---------------------------------|---------------------------------|---------------------------------|


E|---------------------0-----------|------------------------|-------------|
B|-2---------------2-------2-------|-------------3-----3----|-------3-----|
G|-----2-------2---------------0---|---------4--------------|-------------|
D|---------2-----------------------|-----4------------------|-------------|
A|---------------------------------|-2----------------------|-------------|
E|---------------------------------|------------------------|-------------|





Track 3: Strings / synthesizer

E|-------------|-------------|-------------|-------------|-------------|-------------|
B|-15-----15---|-------14----|------15-----|-15-----15---|-------14----|------15-----|
G|-14-----14---|-------14----|------12-----|-14-----14---|-------14----|------12-----|
D|-------------|-------------|-------------|-------------|-------------|-------------|
A|-------------|-------------|-------------|-------------|-------------|-------------|
E|-------------|-------------|-------------|-------------|-------------|-------------|


E|--------|--------|--------|--------|--------|--------|--------|--------|--------|
B|--------|--------|--------|--------|--------|--------|--------|--------|--------|
G|--------|--------|--------|--------|--------|--------|--------|--------|--------|
D|--------|--------|--------|--------|--------|--------|--------|--------|--------|
A|--------|--------|--------|--------|--------|--------|--------|--------|--------|
E|--------|--------|--------|--------|--------|--------|--------|--------|--------|


E|--------|--------|--------|--------|--------|--------|--------|--------|--------|
B|--------|--------|--------|--------|--------|--------|--------|--------|--------|
G|--------|--------|--------|--------|--------|--------|--------|--------|--------|
D|--------|--------|--------|--------|--------|--------|--------|--------|--------|
A|--------|--------|--------|--------|--------|--------|--------|--------|--------|
E|--------|--------|--------|--------|--------|--------|--------|--------|--------|


E|--------|--------|--------|--------|--------|--------|--------|--------|--------|
B|--------|--------|--------|--------|--------|--------|--------|--------|--------|
G|--------|--------|--------|--------|--------|--------|--------|--------|--------|
D|--------|--------|--------|--------|--------|--------|--------|--------|--------|
A|--------|--------|--------|--------|--------|--------|--------|--------|--------|
E|--------|--------|--------|--------|--------|--------|--------|--------|--------|


E|--------|--------|--------|--------|--------|--------|--------|--------|--------|
B|--------|--------|--------|--------|--------|--------|--------|--------|--------|
G|--------|--------|--------|--------|--------|--------|--------|--------|--------|
D|--------|--------|--------|--------|--------|--------|--------|--------|--------|
A|--------|--------|--------|--------|--------|--------|--------|--------|--------|
E|--------|--------|--------|--------|--------|--------|--------|--------|--------|


E|--------|--------|--------|--------|--------|--------|--------|--------|--------|
B|--------|--------|--------|--------|--------|--------|--------|--------|--------|
G|--------|--------|--------|--------|--------|--------|--------|--------|--------|
D|--------|--------|--------|--------|--------|--------|--------|--------|--------|
A|--------|--------|--------|--------|--------|--------|--------|--------|--------|
E|--------|--------|--------|--------|--------|--------|--------|--------|--------|


E|--------|--------|--------|-------------|-------------|-------------|-------------|
B|--------|--------|--------|-15-----15---|-------14----|------15-----|-15-----15---|
G|--------|--------|--------|-14-----14---|-------14----|------12-----|-14-----14---|
D|--------|--------|--------|-------------|-------------|-------------|-------------|
A|--------|--------|--------|-------------|-------------|-------------|-------------|
E|--------|--------|--------|-------------|-------------|-------------|-------------|


E|-------------|-------------|--------|--------|--------|--------|--------|--------|
B|-------14----|------15-----|--------|--------|--------|--------|--------|--------|
G|-------14----|------12-----|--------|--------|--------|--------|--------|--------|
D|-------------|-------------|--------|--------|--------|--------|--------|--------|
A|-------------|-------------|--------|--------|--------|--------|--------|--------|
E|-------------|-------------|--------|--------|--------|--------|--------|--------|


E|--------|--------|--------|--------|--------|--------|-14-----15---|-------14----|
B|--------|--------|--------|--------|--------|--------|-------------|-------------|
G|--------|--------|--------|--------|--------|--------|-------------|-------------|
D|--------|--------|--------|--------|--------|--------|-------------|-------------|
A|--------|--------|--------|--------|--------|--------|-------------|-------------|
E|--------|--------|--------|--------|--------|--------|-------------|-------------|


E|------17-----|-19-----19---|-------21----|------21-----|-14-----15---|-------14----|
B|-------------|-19-----19---|-------22----|------22-----|-------------|-------------|
G|-------------|-------------|-------------|-------------|-------------|-------------|
D|-------------|-------------|-------------|-------------|-------------|-------------|
A|-------------|-------------|-------------|-------------|-------------|-------------|
E|-------------|-------------|-------------|-------------|-------------|-------------|


E|------17-----|-19-----19---|-------22----|------22-----|---------10--15--14--10----------|
B|-------------|-19-----19---|-------22----|------22-----|-12--14----------------------10--|
G|-------------|-------------|-------------|-------------|-------------------------12------|
D|-------------|-------------|-------------|-------------|---------------------------------|
A|-------------|-------------|-------------|-------------|---------------------------------|
E|-------------|-------------|-------------|-------------|---------------------------------|


E|---------------10--15--|-14--10---------|---------10--15--14--10----------|-------12----|
B|-12----12--14----------|---------10-----|-12--14----------------------10--|-12----------|
G|-----------------------|----------------|-------------------------12------|-------------|
D|-----------------------|----------------|---------------------------------|-------------|
A|-----------------------|----------------|---------------------------------|-------------|
E|-----------------------|----------------|---------------------------------|-------------|


E|------12----14--12--|-22-----22---|-------------|-------------|-------------|-------------|
B|--------------------|-19-----19---|-------19----|------17-----|-19-----15---|-------17----|
G|--------------------|-------------|-------------|-------------|-------------|-------------|
D|--------------------|-------------|-------------|-------------|-------------|-------------|
A|--------------------|-------------|-------------|-------------|-------------|-------------|
E|--------------------|-------------|-------------|-------------|-------------|-------------|


E|-------------|-------------|-------------|
B|------17-----|-19-----19---|-------------|
G|-------------|-------------|-------------|
D|-------------|-------------|-------------|
A|-------------|-------------|-------------|
E|-------------|-------------|-------------|





Track 4: Electric bass

G|--------|--------|--------|--------|--------|--------|--------|--------|--------|
D|--------|--------|--------|--------|--------|--------|--------|--------|--------|
A|--------|--------|--------|--------|--------|--------|--------|--------|--------|
E|--------|--------|--------|--------|--------|--------|--------|--------|--------|


G|--------|--------|--------|--------|--------|--------|--------|--------|--------|
D|--------|--------|--------|--------|--------|--------|--------|--------|--------|
A|--------|--------|--------|--------|--------|--------|--------|--------|--------|
E|--------|--------|--------|--------|--------|--------|--------|--------|--------|


G|--------|--------|--------|--------|--------|--------|--------|--------|--------|
D|--------|--------|--------|--------|--------|--------|--------|--------|--------|
A|--------|--------|--------|--------|--------|--------|--------|--------|--------|
E|--------|--------|--------|--------|--------|--------|--------|--------|--------|


G|--------|--------|--------|-------------|--------------------|--------------------|
D|--------|--------|--------|-------------|--------------------|--------------------|
A|--------|--------|--------|-2-----------|------0---1---2-----|------0---------0---|
E|--------|--------|--------|--------3----|--------------------|------------3-------|


G|-------------|-------------|------2-------------|--------------------|-------------|
D|-------------|-------------|--------------------|--------------------|-------------|
A|-2-----------|-------0-----|------------7---7---|-2-----2---0--------|-------2-----|
E|--------3----|-------------|--------------------|---------------3----|-------------|


G|-----------------------|-------------|-------------|------2------|-------------|
D|-----------------------|-------------|-------------|-------------|-------------|
A|-----2---0-----0---1---|-2-----------|-------0-----|-------------|-2------0----|
E|-2---------------------|--------3----|-------------|-------------|-------------|


G|--------------------|------7-------------|-------------|--------------------|------------------------|
D|----------2---0-----|------------0-------|-------------|--------------0-----|------0-----------------|
A|------0-------------|----------------0---|-2------0----|------2---4---------|------------------------|
E|--------------------|--------------------|-------------|--------------------|------------0---1---2---|


G|-------------|--------------------|--------------------|-------------|--------------------|
D|-------------|----------2---0-----|------0-----0-------|-------------|--------------0-----|
A|--------0----|------0-------------|----------------0---|-2------0----|------2---4---------|
E|-3-----------|--------------------|--------------------|-------------|--------------------|


G|--------------------|--------7----|------2-------------|--------------------|--------7----|
D|------0-----0-------|-0-----------|----------0---------|--------------------|-0-----------|
A|----------------0---|-------------|--------------------|------------0---2---|-------------|
E|--------------------|-------------|--------------5-----|-5----3-------------|-------------|


G|--------------------|--------------------|-------------|--------------------|------7-------------|
D|------0-------------|--------------------|-------------|----------2---0-----|------------0-------|
A|----------2---------|------------0---1---|-2------0----|------0-------------|----------------0---|
E|--------------5-----|-5----3-------------|-------------|--------------------|--------------------|


G|-------------|--------------------|------------------------|-------------|--------------------|
D|-------------|--------------0-----|------0---------0-------|-------------|----------2---0-----|
A|-2------0----|------0---2---------|------------0-------0---|--------0----|------0-------------|
E|-------------|--------------------|------------------------|-3-----------|--------------------|


G|------7--------------|-------------|--------------------|--------------------|-------------|
D|-----------0---------|-------------|--------------0-----|------0-----0-------|-------------|
A|----------------0----|-2------0----|------2---4---------|----------------0---|-2-----------|
E|---------------------|-------------|--------------------|--------------------|--------3----|


G|--------------------|--------------------|-------------|--------------------|------2-----2-------|
D|--------------------|--------------------|-------------|--------------------|--------------------|
A|------0---1---2-----|------0-----0---1---|-2-----------|------0---2---0-----|----------------0---|
E|--------------------|--------------------|--------3----|--------------------|--------------------|


G|-------------|--------------------|-------------|--------------------|--------------------|
D|-------------|--------------------|-------------|--------------------|--------------------|
A|-2-----------|------0---1---2-----|------0------|-2-----2---0--------|----------2---0-----|
E|--------3----|--------------------|-------------|---------------3----|------3-------------|


G|------2----2------------|-------------|-------------|-----------------------|--------------------|
D|------------------------|-------------|-------------|-----------------------|--------------------|
A|----------------0---0---|-2-----------|-------2-----|-----2---0-----0---1---|-2-----2---0--------|
E|------------------------|--------3----|-------------|-2---------------------|---------------3----|


G|--------------------|------------------------|--------------------|--------------------|
D|--------------------|------7---7----7----7---|--------------------|--------------------|
A|------0---2---0-----|------------------------|-2-----2---0--------|------0---1---2-----|
E|--------------------|------------------------|---------------3----|--------------------|


G|--------------------|--------------------|--------------------|-------------|-------------|
D|--------------------|--------------------|--------------------|-------------|-------------|
A|------0-----0---1---|-2-----2---0--------|------0---2---0-----|------0------|-2------2----|
E|--------------------|---------------3----|--------------------|-------------|-------------|


G|-------------|
D|-------------|
A|-------2-----|
E|-------------|