Site menu:

    

Browse: 0-9 A B C D E F G H I J K L N O P Q R S T U V W X Y Z

soilwork - the chainheart machine:



Title: The Chainheart Machine
Artist: 
Album: The Chainheart Machine
Author: Wichers, Strid & Frenning


Track 1: Left Guitar - P. Wichers

 B|--------|--------|--------|--------|--------|--------|--------|--------|-----------------------------------|
F#|--------|--------|--------|--------|--------|--------|--------|--------|-----------------------------------|
 D|--------|--------|--------|--------|--------|--------|--------|--------|-----------------------------------|
 A|--------|--------|--------|--------|--------|--------|--------|--------|-----------------------------------|
 E|--------|--------|--------|--------|--------|--------|--------|--------|---------------5-------4-----------|
 B|--------|--------|--------|--------|--------|--------|--------|--------|-2---2--2--2-------2-------0---0---|


 B|---------------------------------|-----------------------------------|------------------------------|
F#|---------------------------------|-----------------------------------|------------------------------|
 D|---------------------------------|-----------------------------------|------------------------------|
 A|---------------------------------|-----------------------------------|------------------------------|
 E|---------------------------------|---------------5-------4-----------|-1---2---1-------1------------|
 B|-2---3---2---0---2---3---2---0---|-2---2--2--2-------2-------0---0---|-------------3-------2---3----|


 B|-----------------------------------|---------------------------------|-----------------------------------|
F#|-----------------------------------|---------------------------------|-----------------------------------|
 D|-----------------------------------|---------------------------------|-----------------------------------|
 A|-----------------------------------|---------------------------------|-----------------------------------|
 E|---------------5-------4-----------|---------------------------------|---------------5-------4-----------|
 B|-2---2--2--2-------2-------0---0---|-2---3---2---0---2---3---2---0---|-2---2--2--2-------2-------0---0---|


 B|--------------------------|-----------------------------------|---------------------------------|
F#|--------------------------|-----------------------------------|---------------------------------|
 D|--------------------------|-----------------------------------|---------------------------------|
 A|----------------4---------|-----------------------------------|---------------------------------|
 E|-----------0--------------|---------------5-------4-----------|---------------------------------|
 B|-2----3--------------14---|-2---2--2--2-------2-------0---0---|-2---3---2---0---2---3---2---0---|


 B|-----------------------------------|------------------------------|-----------------------------------|
F#|-----------------------------------|------------------------------|-----------------------------------|
 D|-----------------------------------|------------------------------|-----------------------------------|
 A|-----------------------------------|------------------------------|-----------------------------------|
 E|---------------5-------4-----------|-1---2---1-------1------------|---------------5-------4-----------|
 B|-2---2--2--2-------2-------0---0---|-------------3-------2---3----|-2---2--2--2-------2-------0---0---|


 B|---------------------------------|-----------------------------------|--------|
F#|---------------------------------|-----------------------------------|--------|
 D|---------------------------------|-----------------------------------|--------|
 A|---------------------------------|-----------------------------------|--------|
 E|---------------------------------|---------------5-------4-----------|--------|
 B|-2---3---2---0---2---3---2---0---|-2---2--2--2-------2-------0---0---|--------|


 B|--------|-----------------------------------|---------------------------------|
F#|--------|-----------------------------------|---------------------------------|
 D|--------|-----------------------------------|---------------------------------|
 A|--------|-----------------------------------|---------------------------------|
 E|--------|---------------5-------4-----------|---------------------------------|
 B|--------|-2---2--2--2-------2-------0---0---|-2---3---2---0---2---3---2---0---|


 B|-----------------------------------|------------------------------|-----------------------------------|
F#|-----------------------------------|------------------------------|-----------------------------------|
 D|-----------------------------------|------------------------------|-----------------------------------|
 A|-----------------------------------|------------------------------|-----------------------------------|
 E|---------------5-------4-----------|-1---2---1-------1------------|---------------5-------4-----------|
 B|-2---2--2--2-------2-------0---0---|-------------3-------2---3----|-2---2--2--2-------2-------0---0---|


 B|---------------------------------|-----------------------------------|--------------------------|
F#|---------------------------------|-----------------------------------|--------------------------|
 D|---------------------------------|-----------------------------------|--------------------------|
 A|---------------------------------|-----------------------------------|----------------4---------|
 E|---------------------------------|---------------5-------4-----------|-----------0--------------|
 B|-2---3---2---0---2---3---2---0---|-2---2--2--2-------2-------0---0---|-2----3--------------14---|


 B|-----------------|--------------------|-----------------|-------------|-----------------|
F#|-----------------|--------------------|-----------------|-------------|-----------------|
 D|-------4---------|------------7-------|-----------------|-------------|-------4---------|
 A|-2---------2-----|-4-----5--------5---|-------5---------|-------4-----|-2---------2-----|
 E|-----------------|--------------------|-3---------3-----|-5-----------|-----------------|
 B|-----------------|--------------------|-----------------|-------------|-----------------|


 B|--------------------|-----------------|-------------|---------------------------|
F#|--------------------|-----------------|-------------|---------------------------|
 D|------------7-------|-----------------|-------------|------7----5---7-----------|
 A|-4-----5--------5---|-------5---------|-------4-----|---------------------------|
 E|--------------------|-3---------3-----|-5-----------|-3-----------------3---3---|
 B|--------------------|-----------------|-------------|---------------------------|


 B|------------------------------|---------------------------|---------------------------|
F#|------------------------------|---------------------------|---------------------------|
 D|---------7----5---7-----------|------9----7---9-----------|------9----7---9-----------|
 A|------------------------------|---------------------------|---------------------------|
 E|-3---3----------------5---5---|-5-----------------5---5---|-5-----------------7---7---|
 B|------------------------------|---------------------------|---------------------------|


 B|------------------------------|---------------------------------|---------------------------------|
F#|------------------------------|---------------------------------|---------------------------------|
 D|------12------11------9-------|-11------12------11--12----------|---------12------11------9-------|
 A|------------------------------|---------------------------------|---------------------------------|
 E|-7--------7-------7-------7---|-----7-------7-----------7---7---|-7---7-------7-------7-------7---|
 B|------------------------------|---------------------------------|---------------------------------|


 B|---------------------------------|---------------------------|---------------------------|
F#|---------------------------------|---------------------------|---------------------------|
 D|-11------12------11--12--12------|------7----5---7-----------|------7----5---7-----------|
 A|---------------------------------|---------------------------|---------------------------|
 E|-----7-------7---------------3---|-3-----------------3---3---|-3-----------------3---2---|
 B|---------------------------------|---------------------------|---------------------------|


 B|------------|-----------------------------------|---------------------------------|
F#|------------|-----------------------------------|---------------------------------|
 D|------------|-----------------------------------|---------------------------------|
 A|------------|-----------------------------------|---------------------------------|
 E|-2----------|---------------5-------4-----------|---------------------------------|
 B|------------|-2---2--2--2-------2-------0---0---|-2---3---2---0---2---3---2---0---|


 B|-----------------------------------|------------------------------|-----------------------------------|
F#|-----------------------------------|------------------------------|-----------------------------------|
 D|-----------------------------------|------------------------------|-----------------------------------|
 A|-----------------------------------|------------------------------|-----------------------------------|
 E|---------------5-------4-----------|-1---2---1-------1------------|---------------5-------4-----------|
 B|-2---2--2--2-------2-------0---0---|-------------3-------2---3----|-2---2--2--2-------2-------0---0---|


 B|---------------------------------|-----------------------------------|--------------------------|
F#|---------------------------------|-----------------------------------|--------------------------|
 D|---------------------------------|-----------------------------------|--------------------------|
 A|---------------------------------|-----------------------------------|----------------4---------|
 E|---------------------------------|---------------5-------4-----------|-----------0--------------|
 B|-2---3---2---0---2---3---2---0---|-2---2--2--2-------2-------0---0---|-2----3--------------14---|


 B|-----------------------------------|---------------------------------|-----------------------------------|
F#|-----------------------------------|---------------------------------|-----------------------------------|
 D|-----------------------------------|---------------------------------|-----------------------------------|
 A|-----------------------------------|---------------------------------|-----------------------------------|
 E|---------------5-------4-----------|---------------------------------|---------------5-------4-----------|
 B|-2---2--2--2-------2-------0---0---|-2---3---2---0---2---3---2---0---|-2---2--2--2-------2-------0---0---|


 B|------------------------------|-----------------------------------|---------------------------------|
F#|------------------------------|-----------------------------------|---------------------------------|
 D|------------------------------|-----------------------------------|---------------------------------|
 A|------------------------------|-----------------------------------|---------------------------------|
 E|-1---2---1-------1------------|---------------5-------4-----------|---------------------------------|
 B|-------------3-------2---3----|-2---2--2--2-------2-------0---0---|-2---3---2---0---2---3---2---0---|


 B|-----------------------------------|--------------------------|-----------------|
F#|-----------------------------------|--------------------------|-----------------|
 D|-----------------------------------|--------------------------|-------4---------|
 A|-----------------------------------|----------------4---------|-2---------2-----|
 E|---------------5-------4-----------|-----------0--------------|-----------------|
 B|-2---2--2--2-------2-------0---0---|-2----3--------------14---|-----------------|


 B|--------------------|-----------------|-------------|-----------------|--------------------|
F#|--------------------|-----------------|-------------|-----------------|--------------------|
 D|------------7-------|-----------------|-------------|-------4---------|------------7-------|
 A|-4-----5--------5---|-------5---------|-------4-----|-2---------2-----|-4-----5--------5---|
 E|--------------------|-3---------3-----|-5-----------|-----------------|--------------------|
 B|--------------------|-----------------|-------------|-----------------|--------------------|


 B|-----------------|-------------|---------------------------|------------------------------|
F#|-----------------|-------------|---------------------------|------------------------------|
 D|-----------------|-------------|------7----5---7-----------|---------7----5---7-----------|
 A|-------5---------|-------4-----|---------------------------|------------------------------|
 E|-3---------3-----|-5-----------|-3-----------------3---3---|-3---3----------------5---5---|
 B|-----------------|-------------|---------------------------|------------------------------|


 B|---------------------------|---------------------------|------------------------------|
F#|---------------------------|---------------------------|------------------------------|
 D|------9----7---9-----------|------9----7---9-----------|------12------11------9-------|
 A|---------------------------|---------------------------|------------------------------|
 E|-5-----------------5---5---|-5-----------------7---7---|-7--------7-------7-------7---|
 B|---------------------------|---------------------------|------------------------------|


 B|---------------------------------|---------------------------------|---------------------------------|
F#|---------------------------------|---------------------------------|---------------------------------|
 D|-11------12------11--12----------|---------12------11------9-------|-11------12------11--12--12------|
 A|---------------------------------|---------------------------------|---------------------------------|
 E|-----7-------7-----------7---7---|-7---7-------7-------7-------7---|-----7-------7---------------3---|
 B|---------------------------------|---------------------------------|---------------------------------|


 B|---------------------------|---------------------------|------------|----------------|
F#|---------------------------|---------------------------|------------|----------------|
 D|------7----5---7-----------|------7----5---7-----------|------------|----------------|
 A|---------------------------|---------------------------|------------|----------------|
 E|-3-----------------3---3---|-3-----------------3---2---|-2----------|----------------|
 B|---------------------------|---------------------------|------------|--------3---0---|


 B|------------------------------|------------------------------|------------------------------|
F#|------------------------------|------------------------------|------------------------------|
 D|------------------------------|------------------------------|------------------------------|
 A|------------------------------|------------------------------|------------------------------|
 E|------5-----------------------|------5-----------------------|------5-----------------------|
 B|-0--------0---3---0---1---0---|-0--------0---3---0---1---0---|-0--------0---3---0---1---0---|


 B|------------------------------|------------------------------|------------------------------|
F#|------------------------------|------------------------------|------------------------------|
 D|------------------------------|------------------------------|------------------------------|
 A|------------------------------|------------------------------|------------------------------|
 E|------5-----------------------|------5-----------------------|------5-----------------------|
 B|-0--------0---3---0---1---0---|-0--------0---3---0---1---0---|-0--------0---3---0---1---0---|


 B|------------------------------|------------------------------|-3---3---3---3---3---3---3---3---3---3---3---3---|
F#|------------------------------|------------------------------|-3---3---3---3---3---3---3---3---3---3---3---3---|
 D|------------------------------|------------------------------|-5---5---5---5---5---5---5---5---5---5---5---5---|
 A|------------------------------|------------------------------|-5---5---5---5---5---5---5---5---5---5---5---5---|
 E|------5-----------------------|------5-----------------------|-3---3---3---3---3---3---3---3---3---3---3---3---|
 B|-0--------0---3---0---1---0---|-0--------0---3---0---1---0---|-------------------------------------------------|


 B|-3---3---3---3---3---3---3---3---3---3---3---3---|-3---3---3---3---3---3---3---3---3---3---3---3---|
F#|-3---3---3---3---3---3---3---3---3---3---3---3---|-3---3---3---3---3---3---3---3---3---3---3---3---|
 D|-5---5---5---5---5---5---5---5---5---5---5---5---|-5---5---5---5---5---5---5---5---5---5---5---5---|
 A|-5---5---5---5---5---5---5---5---5---5---5---5---|-5---5---5---5---5---5---5---5---5---5---5---5---|
 E|-3---3---3---3---3---3---3---3---3---3---3---3---|-3---3---3---3---3---3---3---3---3---3---3---3---|
 B|-------------------------------------------------|-------------------------------------------------|


 B|-3---3---3---3---3---3---3---3---3---3---3---3---|------------------------------|
F#|-3---3---3---3---3---3---3---3---3---3---3---3---|------------------------------|
 D|-5---5---5---5---5---5---5---5---5---5---5---5---|------------------------------|
 A|-5---5---5---5---5---5---5---5---5---5---5---5---|------------------------------|
 E|-3---3---3---3---3---3---3---3---3---3---3---3---|------5-----------------------|
 B|-------------------------------------------------|-0--------0---3---0---1---0---|


 B|------------------------------|------------------------------|------------------------------|
F#|------------------------------|------------------------------|------------------------------|
 D|------------------------------|------------------------------|------------------------------|
 A|------------------------------|------------------------------|------------------------------|
 E|------5-----------------------|------5-----------------------|------5-----------------------|
 B|-0--------0---3---0---1---0---|-0--------0---3---0---1---0---|-0--------0---3---0---1---0---|


 B|-3---3---3---3---3---3---3---3---3---3---3---3---|-3---3---3---3---3---3---3---3---3---3---3---3---|
F#|-3---3---3---3---3---3---3---3---3---3---3---3---|-3---3---3---3---3---3---3---3---3---3---3---3---|
 D|-5---5---5---5---5---5---5---5---5---5---5---5---|-5---5---5---5---5---5---5---5---5---5---5---5---|
 A|-5---5---5---5---5---5---5---5---5---5---5---5---|-5---5---5---5---5---5---5---5---5---5---5---5---|
 E|-3---3---3---3---3---3---3---3---3---3---3---3---|-3---3---3---3---3---3---3---3---3---3---3---3---|
 B|-------------------------------------------------|-------------------------------------------------|


 B|-5---5---5---5---5---5---5---5---5---5---5---5---|-5---5---5---5---5---5---5---5---5---5---5---5---|
F#|-5---5---5---5---5---5---5---5---5---5---5---5---|-5---5---5---5---5---5---5---5---5---5---5---5---|
 D|-7---7---7---7---7---7---7---7---7---7---7---7---|-7---7---7---7---7---7---7---7---7---7---7---7---|
 A|-7---7---7---7---7---7---7---7---7---7---7---7---|-7---7---7---7---7---7---7---7---7---7---7---7---|
 E|-5---5---5---5---5---5---5---5---5---5---5---5---|-5---5---5---5---5---5---5---5---5---5---5---5---|
 B|-------------------------------------------------|-------------------------------------------------|


 B|------------------------------|------------------------------|------------------------------|
F#|------------------------------|------------------------------|------------------------------|
 D|------------------------------|------------------------------|------------------------------|
 A|------------------------------|------------------------------|------------------------------|
 E|------5-----------------------|------5-----------------------|------5-----------------------|
 B|-0--------0---3---0---1---0---|-0--------0---3---0---1---0---|-0--------0---3---0---1---0---|


 B|------------------------------|-3---3---3---3---3---3---3---3---3---3---3---3---|
F#|------------------------------|-3---3---3---3---3---3---3---3---3---3---3---3---|
 D|------------------------------|-5---5---5---5---5---5---5---5---5---5---5---5---|
 A|------------------------------|-5---5---5---5---5---5---5---5---5---5---5---5---|
 E|------5-----------------------|-3---3---3---3---3---3---3---3---3---3---3---3---|
 B|-0--------0---3---0---1---0---|-------------------------------------------------|


 B|-3---3---3---3---3---3---3---3---3---3---3---3---|-3---3---3---3---3---3---3---3---3---3---3---3---|
F#|-3---3---3---3---3---3---3---3---3---3---3---3---|-3---3---3---3---3---3---3---3---3---3---3---3---|
 D|-5---5---5---5---5---5---5---5---5---5---5---5---|-5---5---5---5---5---5---5---5---5---5---5---5---|
 A|-5---5---5---5---5---5---5---5---5---5---5---5---|-5---5---5---5---5---5---5---5---5---5---5---5---|
 E|-3---3---3---3---3---3---3---3---3---3---3---3---|-3---3---3---3---3---3---3---3---3---3---3---3---|
 B|-------------------------------------------------|-------------------------------------------------|


 B|-3---3---3---3---3---3---3---3---3---3---3---3---|------------------------------|
F#|-3---3---3---3---3---3---3---3---3---3---3---3---|------------------------------|
 D|-5---5---5---5---5---5---5---5---5---5---5---5---|------------------------------|
 A|-5---5---5---5---5---5---5---5---5---5---5---5---|------------------------------|
 E|-3---3---3---3---3---3---3---3---3---3---3---3---|------5-----------------------|
 B|-------------------------------------------------|-0--------0---3---0---1---0---|


 B|------------------------------|------------------------------|------------------------------|
F#|------------------------------|------------------------------|------------------------------|
 D|------------------------------|------------------------------|------------------------------|
 A|------------------------------|------------------------------|------------------------------|
 E|------5-----------------------|------5-----------------------|------5-----------------------|
 B|-0--------0---3---0---1---0---|-0--------0---3---0---1---0---|-0--------0---3---0---1---0---|


 B|-3---3---3---3---3---3---3---3---3---3---3---3---|-3---3---3---3---3---3---3---3---3---3---3---3---|
F#|-3---3---3---3---3---3---3---3---3---3---3---3---|-3---3---3---3---3---3---3---3---3---3---3---3---|
 D|-5---5---5---5---5---5---5---5---5---5---5---5---|-5---5---5---5---5---5---5---5---5---5---5---5---|
 A|-5---5---5---5---5---5---5---5---5---5---5---5---|-5---5---5---5---5---5---5---5---5---5---5---5---|
 E|-3---3---3---3---3---3---3---3---3---3---3---3---|-3---3---3---3---3---3---3---3---3---3---3---3---|
 B|-------------------------------------------------|-------------------------------------------------|


 B|-5---5---5---5---5---5---5---5---5---5---5---5---|-5---5---5---5---5---5---5---5---5---5---5---5---|
F#|-5---5---5---5---5---5---5---5---5---5---5---5---|-5---5---5---5---5---5---5---5---5---5---5---5---|
 D|-7---7---7---7---7---7---7---7---7---7---7---7---|-7---7---7---7---7---7---7---7---7---7---7---7---|
 A|-7---7---7---7---7---7---7---7---7---7---7---7---|-7---7---7---7---7---7---7---7---7---7---7---7---|
 E|-5---5---5---5---5---5---5---5---5---5---5---5---|-5---5---5---5---5---5---5---5---5---5---5---5---|
 B|-------------------------------------------------|-------------------------------------------------|


 B|--------------------------------|-------------------------------------|--------------------------------|
F#|--------------------------------|-------------------------------------|--------------------------------|
 D|--------------------------------|-------------------------------------|--------------------------------|
 A|--------------------------------|-------------------------------------|-4--------4--4--4---4---4-------|
 E|-2--------2--2--2---2---2-------|-----2-------2--2--2---2---2--2--2---|-2--------2--2--2---2---2-------|
 B|-0--------0--0--0---0---0-------|-----0-------0--0--0---0---0--0--0---|--------------------------------|


 B|-------------------------------------|--------------------------------|-------------------------------------|
F#|-------------------------------------|--------------------------------|-------------------------------------|
 D|-------------------------------------|--------------------------------|-------------------------------------|
 A|-----4-------4--4--4---4---4--4--4---|--------------------------------|-------------------------------------|
 E|-----2-------2--2--2---2---2--2--2---|-2--------2--2--2---2---2-------|-----2-------2--2--2---2---2--2--2---|
 B|-------------------------------------|-0--------0--0--0---0---0-------|-----0-------0--0--0---0---0--0--0---|


 B|--------------------------------|-------------------------------------|--------------------------------|
F#|--------------------------------|-------------------------------------|--------------------------------|
 D|--------------------------------|-------------------------------------|--------------------------------|
 A|--------------------------------|-------------------------------------|--------------------------------|
 E|-2--------2--2--2---2---2-------|-----2-------2--2--2---2---2--2--2---|-2--------2--2--2---2---2-------|
 B|-0--------0--0--0---0---0-------|-----0-------0--0--0---0---0--0--0---|-0--------0--0--0---0---0-------|


 B|-------------------------------------|--------------------------------|-------------------------------------|
F#|-------------------------------------|--------------------------------|-------------------------------------|
 D|-------------------------------------|--------------------------------|-------------------------------------|
 A|-------------------------------------|-4--------4--4--4---4---4-------|-----4-------4--4--4---4---4--4--4---|
 E|-----2-------2--2--2---2---2--2--2---|-2--------2--2--2---2---2-------|-----2-------2--2--2---2---2--2--2---|
 B|-----0-------0--0--0---0---0--0--0---|--------------------------------|-------------------------------------|


 B|--------------------------------|-------------------------------------|--------------------------------|
F#|--------------------------------|-------------------------------------|--------------------------------|
 D|--------------------------------|-------------------------------------|--------------------------------|
 A|--------------------------------|-------------------------------------|--------------------------------|
 E|-2--------2--2--2---2---2-------|-----2-------2--2--2---2---2--2--2---|-2--------2--2--2---2---2-------|
 B|-0--------0--0--0---0---0-------|-----0-------0--0--0---0---0--0--0---|-0--------0--0--0---0---0-------|


 B|-------------------------------------|-------------------------------------------------|
F#|-------------------------------------|-------------------------------------------------|
 D|-------------------------------------|-------------------------------------------------|
 A|-------------------------------------|-------------------------------------------------|
 E|-----2-------2--2--2---2---2--2--2---|-------------------------------------------------|
 B|-----0-------0--0--0---0---0--0--0---|-0--2--2--2--2--2--0--2--2--2--2--2--0--2--2--2--|


 B|------------------------------------------|-------------------------------------------------|
F#|------------------------------------------|-------------------------------------------------|
 D|------------------------------------------|-------------------------------------------------|
 A|-------------------------------------4----|-------------------------------------------------|
 E|------------------------------------------|-------------------------------------------------|
 B|-2--2--0--2--2--2--2--2--0--2--2--2-------|-0--2--2--2--2--2--0--2--2--2--2--2--0--2--2--2--|


 B|------------------------------------------|-------------------------------------------------|
F#|------------------------------------------|-------------------------------------------------|
 D|------------------------------------------|-------------------------------------------------|
 A|-------------------------------------4----|-------------------------------------------------|
 E|------------------------------------------|-------------------------------------------------|
 B|-2--2--0--2--2--2--2--2--0--2--2--2-------|-0--2--2--2--2--2--0--2--2--2--2--2--0--2--2--2--|


 B|------------------------------------------|-------------------------------------------------|
F#|------------------------------------------|-------------------------------------------------|
 D|------------------------------------------|-------------------------------------------------|
 A|-------------------------------------4----|-------------------------------------------------|
 E|------------------------------------------|-------------------------------------------------|
 B|-2--2--0--2--2--2--2--2--0--2--2--2-------|-0--2--2--2--2--2--0--2--2--2--2--2--0--2--2--2--|


 B|------------------------------------------|--------|--------|--------|--------|
F#|------------------------------------------|--------|--------|--------|--------|
 D|------------------------------------------|--------|--------|-0------|-0------|
 A|-------------------------------------4----|-2------|-2------|-2------|-2------|
 E|------------------------------------------|-2------|-2------|-3------|-3------|
 B|-2--2--0--2--2--2--2--2--0--2--2--2-------|-0------|-0------|--------|--------|


 B|--------|--------|--------|--------|--------|--------|-----------------------------------|
F#|--------|--------|--------|--------|--------|--------|-----------------------------------|
 D|-2------|-2------|-4------|-4------|-4------|-4------|-----------------------------------|
 A|-4------|-4------|-4------|-4------|-4------|-4------|-----------------------------------|
 E|-5------|-5------|-2------|-2------|-2------|-2------|---------------5-------4-----------|
 B|--------|--------|--------|--------|--------|--------|-2---2--2--2-------2-------0---0---|


 B|---------------------------------|-----------------------------------|------------------------------|
F#|---------------------------------|-----------------------------------|------------------------------|
 D|---------------------------------|-----------------------------------|------------------------------|
 A|---------------------------------|-----------------------------------|------------------------------|
 E|---------------------------------|---------------5-------4-----------|-1---2---1-------1------------|
 B|-2---3---2---0---2---3---2---0---|-2---2--2--2-------2-------0---0---|-------------3-------2---3----|


 B|-----------------------------------|---------------------------------|-----------------------------------|
F#|-----------------------------------|---------------------------------|-----------------------------------|
 D|-----------------------------------|---------------------------------|-----------------------------------|
 A|-----------------------------------|---------------------------------|-----------------------------------|
 E|---------------5-------4-----------|---------------------------------|---------------5-------4-----------|
 B|-2---2--2--2-------2-------0---0---|-2---3---2---0---2---3---2---0---|-2---2--2--2-------2-------0---0---|


 B|--------------------------|-----------------------------------|---------------------------------|
F#|--------------------------|-----------------------------------|---------------------------------|
 D|--------------------------|-----------------------------------|---------------------------------|
 A|----------------4---------|-----------------------------------|---------------------------------|
 E|-----------0--------------|---------------5-------4-----------|---------------------------------|
 B|-2----3--------------5----|-2---2--2--2-------2-------0---0---|-2---3---2---0---2---3---2---0---|


 B|-----------------------------------|------------------------------|-----------------------------------|
F#|-----------------------------------|------------------------------|-----------------------------------|
 D|-----------------------------------|------------------------------|-----------------------------------|
 A|-----------------------------------|------------------------------|-----------------------------------|
 E|---------------5-------4-----------|-1---2---1-------1------------|---------------5-------4-----------|
 B|-2---2--2--2-------2-------0---0---|-------------3-------2---3----|-2---2--2--2-------2-------0---0---|


 B|---------------------------------|-----------------------------------|--------------------------|
F#|---------------------------------|-----------------------------------|--------------------------|
 D|---------------------------------|-----------------------------------|--------------------------|
 A|---------------------------------|-----------------------------------|----------------4---------|
 E|---------------------------------|---------------5-------4-----------|-----------0--------------|
 B|-2---3---2---0---2---3---2---0---|-2---2--2--2-------2-------0---0---|-2----3--------------5----|


 B|-------------------------------|-----------------------------------|---------------------------------|
F#|-------------------------------|-----------------------------------|---------------------------------|
 D|-------------------------------|-----------------------------------|---------------------------------|
 A|-------------------------------|-----------------------------------|---------------------------------|
 E|-2----2----2----2----2----2----|---------------5-------4-----------|---------------------------------|
 B|-0----0----0----0----0----0----|-2---2--2--2-------2-------0---0---|-2---3---2---0---2---3---2---0---|


 B|-----------------------------------|------------------------------|-----------------------------------|
F#|-----------------------------------|------------------------------|-----------------------------------|
 D|-----------------------------------|------------------------------|-----------------------------------|
 A|-----------------------------------|------------------------------|-----------------------------------|
 E|---------------5-------4-----------|-1---2---1-------1------------|---------------5-------4-----------|
 B|-2---2--2--2-------2-------0---0---|-------------3-------2---3----|-2---2--2--2-------2-------0---0---|


 B|---------------------------------|-----------------------------------|--------------------------|
F#|---------------------------------|-----------------------------------|--------------------------|
 D|---------------------------------|-----------------------------------|--------------------------|
 A|---------------------------------|-----------------------------------|----------------4---------|
 E|---------------------------------|---------------5-------4-----------|-----------0--------------|
 B|-2---3---2---0---2---3---2---0---|-2---2--2--2-------2-------0---0---|-2----3--------------5----|


 B|-----------------|--------------------|-----------------|-------------|-----------------|
F#|-----------------|--------------------|-----------------|-------------|-----------------|
 D|-------4---------|------------7-------|-----------------|-------------|-------4---------|
 A|-2---------2-----|-4-----5--------5---|-------5---------|-------4-----|-2---------2-----|
 E|-----------------|--------------------|-3---------3-----|-5-----------|-----------------|
 B|-----------------|--------------------|-----------------|-------------|-----------------|


 B|--------------------|-----------------|-------------|---------------------------|
F#|--------------------|-----------------|-------------|---------------------------|
 D|------------7-------|-----------------|-------------|------7----5---7-----------|
 A|-4-----5--------5---|-------5---------|-------4-----|---------------------------|
 E|--------------------|-3---------3-----|-5-----------|-3-----------------3---3---|
 B|--------------------|-----------------|-------------|---------------------------|


 B|------------------------------|---------------------------|---------------------------|
F#|------------------------------|---------------------------|---------------------------|
 D|---------7----5---7-----------|------9----7---9-----------|------9----7---9-----------|
 A|------------------------------|---------------------------|---------------------------|
 E|-3---3----------------5---5---|-5-----------------5---5---|-5-----------------7---7---|
 B|------------------------------|---------------------------|---------------------------|


 B|------------------------------|---------------------------------|---------------------------------|
F#|------------------------------|---------------------------------|---------------------------------|
 D|------12------11------9-------|-11------12------11--12----------|---------12------11------9-------|
 A|------------------------------|---------------------------------|---------------------------------|
 E|-7--------7-------7-------7---|-----7-------7-----------7---7---|-7---7-------7-------7-------7---|
 B|------------------------------|---------------------------------|---------------------------------|


 B|---------------------------------|---------------------------|------------------------------|
F#|---------------------------------|---------------------------|------------------------------|
 D|-11------12------11--12--12------|------7----5---7-----------|---------7----5---7-----------|
 A|---------------------------------|---------------------------|------------------------------|
 E|-----7-------7---------------3---|-3-----------------3---3---|-3---3----------------5---5---|
 B|---------------------------------|---------------------------|------------------------------|


 B|---------------------------|---------------------------|------------------------------|
F#|---------------------------|---------------------------|------------------------------|
 D|------9----7---9-----------|------9----7---9-----------|------12------11------9-------|
 A|---------------------------|---------------------------|------------------------------|
 E|-5-----------------5---5---|-5-----------------7---7---|-7--------7-------7-------7---|
 B|---------------------------|---------------------------|------------------------------|


 B|---------------------------------|---------------------------------|---------------------------------|
F#|---------------------------------|---------------------------------|---------------------------------|
 D|-11------12------11--12----------|---------12------11------9-------|-11------12------11--12--12------|
 A|---------------------------------|---------------------------------|---------------------------------|
 E|-----7-------7-----------7---7---|-7---7-------7-------7-------7---|-----7-------7---------------3---|
 B|---------------------------------|---------------------------------|---------------------------------|


 B|---------------------------|------------------------------|--------|-----------------------|
F#|---------------------------|------------------------------|--------|-----------------------|
 D|------7----5---7-----------|---------7--------------------|--------|-----------------------|
 A|---------------------------|------------------------------|--------|-----------------------|
 E|-3-----------------3---3---|-3---3--------8---7---8---5---|--------|-5---4---5---2---------|
 B|---------------------------|--------------6---5---6---3---|--------|-3---2---3---0---------|





Track 2: Right Guitar - O. Frenning

 B|--------|--------|--------|--------|--------|--------|--------|--------|--------|
F#|--------|--------|--------|--------|--------|--------|--------|--------|--------|
 D|--------|--------|--------|--------|--------|--------|--------|--------|--------|
 A|--------|--------|--------|--------|--------|--------|--------|--------|--------|
 E|--------|--------|--------|--------|--------|--------|--------|--------|--------|
 B|--------|--------|--------|--------|--------|--------|--------|--------|--------|


 B|--------|--------|--------|--------|---------------------------------|-----------------------------------|
F#|--------|--------|--------|--------|---------------------------------|-----------------------------------|
 D|--------|--------|--------|--------|---------------------------------|-----------------------------------|
 A|--------|--------|--------|--------|---------------------------------|-----------------------------------|
 E|--------|--------|--------|--------|---------------------------------|---------------5-------4-----------|
 B|--------|--------|--------|--------|-2---3---2---0---2---3---2---0---|-2---2--2--2-------2-------0---0---|


 B|--------------------------|-----------------------------------|---------------------------------|
F#|--------------------------|-----------------------------------|---------------------------------|
 D|--------------------------|-----------------------------------|---------------------------------|
 A|----------------4---------|---------------4-------2-----------|---------------------------------|
 E|-----------0--------------|-----------------------------------|---------------------------------|
 B|-2----3--------------14---|-2---2--2--2-------2-------0---0---|-2---3---2---0---2---3---2---0---|


 B|-----------------------------------|------------------------------|-----------------------------------|
F#|-----------------------------------|------------------------------|-----------------------------------|
 D|---------------4-------3-----------|------------------------------|-----------------------------------|
 A|-----------------------------------|------------------------------|---------------4-------2-----------|
 E|-----------------------------------|-1---2---1-------1------------|-----------------------------------|
 B|-2---2--2--2-------2-------0---0---|-------------3-------2---3----|-2---2--2--2-------2-------0---0---|


 B|---------------------------------|-----------------------------------|--------|
F#|---------------------------------|-----------------------------------|--------|
 D|---------------------------------|---------------4-------3-----------|--------|
 A|---------------------------------|-----------------------------------|--------|
 E|---------------------------------|-----------------------------------|--------|
 B|-2---3---2---0---2---3---2---0---|-2---2--2--2-------2-------0---0---|--------|


 B|--------|--------|--------|--------|--------|--------|--------|--------|--------|
F#|--------|--------|--------|--------|--------|--------|--------|--------|--------|
 D|--------|--------|--------|--------|--------|--------|--------|--------|--------|
 A|--------|--------|--------|--------|--------|--------|--------|--------|--------|
 E|--------|--------|--------|--------|--------|--------|--------|--------|--------|
 B|--------|--------|--------|--------|--------|--------|--------|--------|--------|


 B|-----------------|--------------------|-----------------|------------------------|
F#|-----------------|--------------------|-----------------|------------------------|
 D|-------7---------|------------11------|-----------------|------------------------|
 A|-5---------5-----|-7-----9--------9---|-------9---------|----------------7-------|
 E|-----------------|--------------------|-7---------7-----|-3---5-----5--------5---|
 B|-----------------|--------------------|-----------------|------------------------|


 B|-----------------|--------------------|-----------------|------------------------|
F#|-----------------|--------------------|-----------------|------------------------|
 D|-------7---------|------------11------|-----------------|------------------------|
 A|-5---------5-----|-7-----9--------9---|-------9---------|----------------7-------|
 E|-----------------|--------------------|-7---------7-----|-3---5-----5--------5---|
 B|-----------------|--------------------|-----------------|------------------------|


 B|--------|--------|--------|--------|--------|--------|--------|--------|--------|
F#|--------|--------|--------|--------|--------|--------|--------|--------|--------|
 D|--------|--------|--------|--------|--------|--------|--------|--------|--------|
 A|--------|--------|--------|--------|--------|--------|--------|--------|--------|
 E|--------|--------|--------|--------|--------|--------|--------|--------|--------|
 B|--------|--------|--------|--------|--------|--------|--------|--------|--------|


 B|--------|--------|--------|--------|--------|--------|--------|--------|--------|
F#|--------|--------|--------|--------|--------|--------|--------|--------|--------|
 D|--------|--------|--------|--------|--------|--------|--------|--------|--------|
 A|--------|--------|--------|--------|--------|--------|--------|--------|--------|
 E|--------|--------|--------|--------|--------|--------|--------|--------|--------|
 B|--------|--------|--------|--------|--------|--------|--------|--------|--------|


 B|--------|-----------------------------------|---------------------------------|
F#|--------|-----------------------------------|---------------------------------|
 D|--------|-----------------------------------|---------------------------------|
 A|--------|---------------4-------2-----------|---------------------------------|
 E|--------|-----------------------------------|---------------------------------|
 B|--------|-2---2--2--2-------2-------0---0---|-2---3---2---0---2---3---2---0---|


 B|-----------------------------------|------------------------------|-----------------------------------|
F#|-----------------------------------|------------------------------|-----------------------------------|
 D|---------------4-------3-----------|------------------------------|-----------------------------------|
 A|-----------------------------------|------------------------------|---------------4-------2-----------|
 E|-----------------------------------|-1---2---1-------1------------|-----------------------------------|
 B|-2---2--2--2-------2-------0---0---|-------------3-------2---3----|-2---2--2--2-------2-------0---0---|


 B|---------------------------------|-----------------------------------|--------------------------|
F#|---------------------------------|-----------------------------------|--------------------------|
 D|---------------------------------|---------------4-------3-----------|--------------------------|
 A|---------------------------------|-----------------------------------|----------------4---------|
 E|---------------------------------|-----------------------------------|-----------0--------------|
 B|-2---3---2---0---2---3---2---0---|-2---2--2--2-------2-------0---0---|-2----3--------------14---|


 B|-----------------|--------------------|-----------------|------------------------|
F#|-----------------|--------------------|-----------------|------------------------|
 D|-------7---------|------------11------|-----------------|------------------------|
 A|-5---------5-----|-7-----9--------9---|-------9---------|----------------7-------|
 E|-----------------|--------------------|-7---------7-----|-3---5-----5--------5---|
 B|-----------------|--------------------|-----------------|------------------------|


 B|-----------------|--------------------|-----------------|------------------------|
F#|-----------------|--------------------|-----------------|------------------------|
 D|-------7---------|------------11------|-----------------|------------------------|
 A|-5---------5-----|-7-----9--------9---|-------9---------|----------------7-------|
 E|-----------------|--------------------|-7---------7-----|-3---5-----5--------5---|
 B|-----------------|--------------------|-----------------|------------------------|


 B|--------|--------|--------|--------|--------|--------|--------|--------|--------|
F#|--------|--------|--------|--------|--------|--------|--------|--------|--------|
 D|--------|--------|--------|--------|--------|--------|--------|--------|--------|
 A|--------|--------|--------|--------|--------|--------|--------|--------|--------|
 E|--------|--------|--------|--------|--------|--------|--------|--------|--------|
 B|--------|--------|--------|--------|--------|--------|--------|--------|--------|


 B|--------|--------|--------|--------|--------|--------|--------|--------|--------|
F#|--------|--------|--------|--------|--------|--------|--------|--------|--------|
 D|--------|--------|--------|--------|--------|--------|--------|--------|--------|
 A|--------|--------|--------|--------|--------|--------|--------|--------|--------|
 E|--------|--------|--------|--------|--------|--------|--------|--------|--------|
 B|--------|--------|--------|--------|--------|--------|--------|--------|--------|


 B|--------|--------|--------|--------|--------|--------|--------|--------|--------|
F#|--------|--------|--------|--------|--------|--------|--------|--------|--------|
 D|--------|--------|--------|--------|--------|--------|--------|--------|--------|
 A|--------|--------|--------|--------|--------|--------|--------|--------|--------|
 E|--------|--------|--------|--------|--------|--------|--------|--------|--------|
 B|--------|--------|--------|--------|--------|--------|--------|--------|--------|


 B|--------|--------|--------|--------|--------|--------|--------|--------|--------|
F#|--------|--------|--------|--------|--------|--------|--------|--------|--------|
 D|--------|--------|--------|--------|--------|--------|--------|--------|--------|
 A|--------|--------|--------|--------|--------|--------|--------|--------|--------|
 E|--------|--------|--------|--------|--------|--------|--------|--------|--------|
 B|--------|--------|--------|--------|--------|--------|--------|--------|--------|


 B|--------|--------|--------|--------|--------|--------|--------|--------|--------|
F#|--------|--------|--------|--------|--------|--------|--------|--------|--------|
 D|--------|--------|--------|--------|--------|--------|--------|--------|--------|
 A|--------|--------|--------|--------|--------|--------|--------|--------|--------|
 E|--------|--------|--------|--------|--------|--------|--------|--------|--------|
 B|--------|--------|--------|--------|--------|--------|--------|--------|--------|


 B|--------|--------|--------|--------|--------|--------|--------|--------|--------|
F#|--------|--------|--------|--------|--------|--------|--------|--------|--------|
 D|--------|--------|--------|--------|--------|--------|--------|--------|--------|
 A|--------|--------|--------|--------|--------|--------|--------|--------|--------|
 E|--------|--------|--------|--------|--------|--------|--------|--------|--------|
 B|--------|--------|--------|--------|--------|--------|--------|--------|--------|


 B|--------|--------|--------|--------|--------|--------|--------|--------|--------|
F#|--------|--------|--------|--------|--------|--------|--------|--------|--------|
 D|--------|--------|--------|--------|--------|--------|--------|--------|--------|
 A|--------|--------|--------|--------|--------|--------|--------|--------|--------|
 E|--------|--------|--------|--------|--------|--------|--------|--------|--------|
 B|--------|--------|--------|--------|--------|--------|--------|--------|--------|


 B|--------|--------|--------|--------|--------|--------|--------|--------|--------|
F#|--------|--------|--------|--------|--------|--------|--------|--------|--------|
 D|--------|--------|--------|--------|--------|--------|--------|--------|--------|
 A|--------|--------|--------|--------|--------|--------|--------|--------|--------|
 E|--------|--------|--------|--------|--------|--------|--------|--------|--------|
 B|--------|--------|--------|--------|--------|--------|--------|--------|--------|


 B|--------|--------|--------|--------|--------|--------|--------|--------|--------|
F#|--------|--------|--------|--------|--------|--------|--------|--------|--------|
 D|--------|--------|--------|--------|--------|--------|--------|--------|--------|
 A|--------|--------|--------|--------|--------|--------|--------|--------|--------|
 E|--------|--------|--------|--------|--------|--------|--------|--------|--------|
 B|--------|--------|--------|--------|--------|--------|--------|--------|--------|


 B|--------|--------|---------------------------------|--------|------------------------------|
F#|--------|--------|---------------------------------|--------|------------------------------|
 D|--------|--------|---------------------------------|--------|------------------------------|
 A|--------|--------|---------------------------------|--------|------------------------------|
 E|--------|--------|---------------------------------|--------|-1---2---1-------1------------|
 B|--------|--------|-2---3---2---0---2---3---2---0---|--------|-------------3-------2---3----|


 B|--------|---------------------------------|--------|--------------------------|
F#|--------|---------------------------------|--------|--------------------------|
 D|--------|---------------------------------|--------|--------------------------|
 A|--------|---------------------------------|--------|----------------4---------|
 E|--------|---------------------------------|--------|-----------0--------------|
 B|--------|-2---3---2---0---2---3---2---0---|--------|-2----3--------------5----|


 B|-----------------------------------|---------------------------------|-----------------------------------|
F#|-----------------------------------|---------------------------------|-----------------------------------|
 D|-----------------------------------|---------------------------------|---------------4-------3-----------|
 A|---------------4-------2-----------|---------------------------------|-----------------------------------|
 E|-----------------------------------|---------------------------------|-----------------------------------|
 B|-2---2--2--2-------2-------0---0---|-2---3---2---0---2---3---2---0---|-2---2--2--2-------2-------0---0---|


 B|------------------------------|-----------------------------------|---------------------------------|
F#|------------------------------|-----------------------------------|---------------------------------|
 D|------------------------------|-----------------------------------|---------------------------------|
 A|------------------------------|---------------4-------2-----------|---------------------------------|
 E|-1---2---1-------1------------|-----------------------------------|---------------------------------|
 B|-------------3-------2---3----|-2---2--2--2-------2-------0---0---|-2---3---2---0---2---3---2---0---|


 B|-----------------------------------|--------|--------|--------|--------|--------|
F#|-----------------------------------|--------|--------|--------|--------|--------|
 D|---------------4-------3-----------|--------|--------|--------|--------|--------|
 A|-----------------------------------|--------|--------|--------|--------|--------|
 E|-----------------------------------|--------|--------|--------|--------|--------|
 B|-2---2--2--2-------2-------0---0---|--------|--------|--------|--------|--------|


 B|--------|-----------------------------------|---------------------------------|
F#|--------|-----------------------------------|---------------------------------|
 D|--------|-----------------------------------|---------------------------------|
 A|--------|---------------4-------2-----------|---------------------------------|
 E|--------|-----------------------------------|---------------------------------|
 B|--------|-2---2--2--2-------2-------0---0---|-2---3---2---0---2---3---2---0---|


 B|-----------------------------------|--------------------------|-----------------|
F#|-----------------------------------|--------------------------|-----------------|
 D|---------------4-------3-----------|--------------------------|-------7---------|
 A|-----------------------------------|----------------4---------|-5---------5-----|
 E|-----------------------------------|-----------0--------------|-----------------|
 B|-2---2--2--2-------2-------0---0---|-2----3--------------5----|-----------------|


 B|--------------------|-----------------|------------------------|-----------------|
F#|--------------------|-----------------|------------------------|-----------------|
 D|------------11------|-----------------|------------------------|-------7---------|
 A|-7-----9--------9---|-------9---------|----------------7-------|-5---------5-----|
 E|--------------------|-7---------7-----|-3---5-----5--------5---|-----------------|
 B|--------------------|-----------------|------------------------|-----------------|


 B|--------------------|-----------------|------------------------|--------|--------|
F#|--------------------|-----------------|------------------------|--------|--------|
 D|------------11------|-----------------|------------------------|--------|--------|
 A|-7-----9--------9---|-------9---------|----------------7-------|--------|--------|
 E|--------------------|-7---------7-----|-3---5-----5--------5---|--------|--------|
 B|--------------------|-----------------|------------------------|--------|--------|


 B|--------|--------|--------|--------|--------|--------|--------|--------|--------|
F#|--------|--------|--------|--------|--------|--------|--------|--------|--------|
 D|--------|--------|--------|--------|--------|--------|--------|--------|--------|
 A|--------|--------|--------|--------|--------|--------|--------|--------|--------|
 E|--------|--------|--------|--------|--------|--------|--------|--------|--------|
 B|--------|--------|--------|--------|--------|--------|--------|--------|--------|


 B|--------|--------|--------|--------|--------|--------|--------|--------|--------|
F#|--------|--------|--------|--------|--------|--------|--------|--------|--------|
 D|--------|--------|--------|--------|--------|--------|--------|--------|--------|
 A|--------|--------|--------|--------|--------|--------|--------|--------|--------|
 E|--------|--------|--------|--------|--------|--------|--------|--------|--------|
 B|--------|--------|--------|--------|--------|--------|--------|--------|--------|





Track 3: Background Keyboard - C. Del Olmo

 B|--------|--------|--------|--------|--------|--------|--------|--------|--------|
F#|--------|--------|--------|--------|--------|--------|--------|--------|--------|
 D|--------|--------|--------|--------|--------|--------|--------|--------|--------|
 A|--------|--------|--------|--------|--------|--------|--------|--------|--------|
 E|--------|--------|--------|--------|--------|--------|--------|--------|--------|
 B|--------|--------|--------|--------|--------|--------|--------|--------|--------|


 B|--------|--------|--------|--------|--------|--------|--------|--------|--------|
F#|--------|--------|--------|--------|--------|--------|--------|--------|--------|
 D|--------|--------|--------|--------|--------|--------|--------|--------|--------|
 A|--------|--------|--------|--------|--------|--------|--------|--------|--------|
 E|--------|--------|--------|--------|--------|--------|--------|--------|--------|
 B|--------|--------|--------|--------|--------|--------|--------|--------|--------|


 B|--------|--------|--------|--------|--------|--------|--------|--------|--------|
F#|--------|--------|--------|--------|--------|--------|--------|--------|--------|
 D|--------|--------|--------|--------|--------|--------|--------|--------|--------|
 A|--------|--------|--------|--------|--------|--------|--------|--------|--------|
 E|--------|--------|--------|--------|--------|--------|--------|--------|--------|
 B|--------|--------|--------|--------|--------|--------|--------|--------|--------|


 B|--------|--------|--------|--------|--------|--------|-7------|-7-----7-----|--------|
F#|--------|--------|--------|--------|--------|--------|-8------|-8-----7-----|-8------|
 D|--------|--------|--------|--------|--------|--------|-9------|-9-----9-----|-9------|
 A|--------|--------|--------|--------|--------|--------|-9------|-9-----9-----|-5------|
 E|--------|--------|--------|--------|--------|--------|--------|-------------|--------|
 B|--------|--------|--------|--------|--------|--------|--------|-------------|--------|


 B|-5------|-7------|-7-----7-----|--------|-5------|--------|--------|--------|--------|
F#|-7------|-8------|-8-----7-----|-8------|-7------|--------|--------|--------|--------|
 D|-7------|-9------|-9-----9-----|-9------|-7------|--------|--------|--------|--------|
 A|-7------|-9------|-9-----9-----|-5------|-7------|--------|--------|--------|--------|
 E|--------|--------|-------------|--------|--------|--------|--------|--------|--------|
 B|--------|--------|-------------|--------|--------|--------|--------|--------|--------|


 B|--------|--------|--------|--------|--------|--------|--------|--------|--------|
F#|--------|--------|--------|--------|--------|--------|--------|--------|--------|
 D|--------|--------|--------|--------|--------|--------|--------|--------|--------|
 A|--------|--------|--------|--------|--------|--------|--------|--------|--------|
 E|--------|--------|--------|--------|--------|--------|--------|--------|--------|
 B|--------|--------|--------|--------|--------|--------|--------|--------|--------|


 B|--------|--------|--------|--------|--------|--------|--------|--------|--------|
F#|--------|--------|--------|--------|--------|--------|--------|--------|--------|
 D|--------|--------|--------|--------|--------|--------|--------|--------|--------|
 A|--------|--------|--------|--------|--------|--------|--------|--------|--------|
 E|--------|--------|--------|--------|--------|--------|--------|--------|--------|
 B|--------|--------|--------|--------|--------|--------|--------|--------|--------|


 B|--------|--------|--------|--------|--------|-7------|-7-----7-----|--------|-5------|
F#|--------|--------|--------|--------|--------|-8------|-8-----7-----|-8------|-7------|
 D|--------|--------|--------|--------|--------|-9------|-9-----9-----|-9------|-7------|
 A|--------|--------|--------|--------|--------|-9------|-9-----9-----|-5------|-7------|
 E|--------|--------|--------|--------|--------|--------|-------------|--------|--------|
 B|--------|--------|--------|--------|--------|--------|-------------|--------|--------|


 B|-7------|-7-----7-----|--------|-5------|--------|--------|--------|--------|--------|
F#|-8------|-8-----7-----|-8------|-7------|--------|--------|--------|--------|--------|
 D|-9------|-9-----9-----|-9------|-7------|--------|--------|--------|--------|--------|
 A|-9------|-9-----9-----|-5------|-7------|--------|--------|--------|--------|--------|
 E|--------|-------------|--------|--------|--------|--------|--------|--------|--------|
 B|--------|-------------|--------|--------|--------|--------|--------|--------|--------|


 B|--------|--------|--------|--------|--------|--------|--------19--|-19-----|-19-----|
F#|--------|--------|--------|--------|--------|--------|--------20--|-20-----|-20-----|
 D|--------|--------|--------|--------|--------|--------|------------|--------|--------|
 A|--------|--------|--------|--------|--------|--------|------------|--------|--------|
 E|--------|--------|--------|--------|--------|--------|--------19--|-19-----|-19-----|
 B|--------|--------|--------|--------|--------|--------|------------|--------|--------|


 B|-19-----|-19-----|-19-----|-19-----|-19----19----19--|-19-----|-17-----|-17-----|
F#|-20-----|-20-----|-20-----|-20-----|-20----20----19--|-19-----|-15-----|-15-----|
 D|--------|--------|--------|--------|-----------------|--------|-17-----|-17-----|
 A|--------|--------|--------|--------|-----------------|--------|--------|--------|
 E|-19-----|-19-----|-19-----|-19-----|-19----19----19--|-19-----|--------|--------|
 B|--------|--------|--------|--------|-----------------|--------|--------|--------|


 B|-17-----|-17-----|-19-----|-19-----|-19----19----19--|-19-----|-17-----|-17-----|
F#|-15-----|-15-----|-20-----|-20-----|-20----20----19--|-19-----|-15-----|-15-----|
 D|-17-----|-17-----|--------|--------|-----------------|--------|-17-----|-17-----|
 A|--------|--------|--------|--------|-----------------|--------|--------|--------|
 E|--------|--------|-19-----|-19-----|-19----19----19--|-19-----|--------|--------|
 B|--------|--------|--------|--------|-----------------|--------|--------|--------|


 B|-19-----|-19-----|-19-----|-19-----|-19----19----19--|-19-----|-17-----|-17-----|
F#|-17-----|-17-----|-20-----|-20-----|-20----20----19--|-19-----|-15-----|-15-----|
 D|-19-----|-19-----|--------|--------|-----------------|--------|-17-----|-17-----|
 A|--------|--------|--------|--------|-----------------|--------|--------|--------|
 E|--------|--------|-19-----|-19-----|-19----19----19--|-19-----|--------|--------|
 B|--------|--------|--------|--------|-----------------|--------|--------|--------|


 B|-17-----|-17-----|-19-----|-19-----|-19----19----19--|-19-----|-17-----|-17-----|
F#|-15-----|-15-----|-20-----|-20-----|-20----20----19--|-19-----|-15-----|-15-----|
 D|-17-----|-17-----|--------|--------|-----------------|--------|-17-----|-17-----|
 A|--------|--------|--------|--------|-----------------|--------|--------|--------|
 E|--------|--------|-19-----|-19-----|-19----19----19--|-19-----|--------|--------|
 B|--------|--------|--------|--------|-----------------|--------|--------|--------|


 B|-19-----|-19-----|-7------|-7------|-7------|-7------|-7------|-7------|-7------|
F#|-17-----|-17-----|-8------|-8------|-7------|-7------|-8------|-8------|-8------|
 D|-19-----|-19-----|-9------|-9------|-7------|-7------|-9------|-9------|-9------|
 A|--------|--------|--------|--------|--------|--------|--------|--------|-10-----|
 E|--------|--------|--------|--------|--------|--------|--------|--------|--------|
 B|--------|--------|--------|--------|--------|--------|--------|--------|--------|


 B|-7------|--------|--------|--------|--------|--------|--------|--------|--------|
F#|-8------|--------|--------|--------|--------|--------|--------|--------|--------|
 D|-9------|--------|--------|--------|--------|--------|--------|--------|--------|
 A|-10-----|--------|--------|--------|--------|--------|--------|--------|--------|
 E|--------|--------|--------|--------|--------|--------|--------|--------|--------|
 B|--------|--------|--------|--------|--------|--------|--------|--------|--------|


 B|-5------|-5------|-5------|-5------|-4------|-4------|--------|--------|--------|
F#|-7------|-7------|-7------|-7------|-5------|-5------|-7------|-5------|--------|
 D|-6------|-6------|-7------|-7------|-6------|-6------|-7------|-6------|--------|
 A|--------|--------|--------|--------|--------|--------|-9------|-7------|--------|
 E|--------|--------|--------|--------|--------|--------|--------|--------|--------|
 B|--------|--------|--------|--------|--------|--------|--------|--------|--------|


 B|--------|--------|--------|--------|--------|--------|--------|--------|--------|
F#|--------|--------|--------|--------|--------|--------|--------|--------|--------|
 D|--------|--------|--------|--------|--------|--------|--------|--------|--------|
 A|--------|--------|--------|--------|--------|--------|--------|--------|--------|
 E|--------|--------|--------|--------|--------|--------|--------|--------|--------|
 B|--------|--------|--------|--------|--------|--------|--------|--------|--------|


 B|--------|--------|--------|--------|--------|--------|--------|--------|--------|
F#|--------|--------|--------|--------|--------|--------|--------|--------|--------|
 D|--------|--------|--------|--------|--------|--------|--------|--------|--------|
 A|--------|--------|--------|--------|--------|--------|--------|--------|--------|
 E|--------|--------|--------|--------|--------|--------|--------|--------|--------|
 B|--------|--------|--------|--------|--------|--------|--------|--------|--------|


 B|--------|--------|--------|--------|--------|--------|--------|--------|--------|
F#|--------|--------|--------|--------|--------|--------|--------|--------|--------|
 D|--------|--------|--------|--------|--------|--------|--------|--------|--------|
 A|--------|--------|--------|--------|--------|--------|--------|--------|--------|
 E|--------|--------|--------|--------|--------|--------|--------|--------|--------|
 B|--------|--------|--------|--------|--------|--------|--------|--------|--------|


 B|--------|--------|--------|--------|--------|--------|--------|-7------|-7-----7-----|
F#|--------|--------|--------|--------|--------|--------|--------|-8------|-8-----7-----|
 D|--------|--------|--------|--------|--------|--------|--------|-9------|-9-----9-----|
 A|--------|--------|--------|--------|--------|--------|--------|-9------|-9-----9-----|
 E|--------|--------|--------|--------|--------|--------|--------|--------|-------------|
 B|--------|--------|--------|--------|--------|--------|--------|--------|-------------|


 B|--------|-5------|-7------|-7-----7-----|--------|-5------|--------|--------|--------|
F#|-8------|-7------|-8------|-8-----7-----|-8------|-7------|--------|--------|--------|
 D|-9------|-7------|-9------|-9-----9-----|-9------|-7------|--------|--------|--------|
 A|-5------|-7------|-9------|-9-----9-----|-5------|-7------|--------|--------|--------|
 E|--------|--------|--------|-------------|--------|--------|--------|--------|--------|
 B|--------|--------|--------|-------------|--------|--------|--------|--------|--------|


 B|--------|--------|--------|--------|--------|--------|--------|--------|--------|
F#|--------|--------|--------|--------|--------|--------|--------|--------|--------|
 D|--------|--------|--------|--------|--------|--------|--------|--------|--------|
 A|--------|--------|--------|--------|--------|--------|--------|--------|--------|
 E|--------|--------|--------|--------|--------|--------|--------|--------|--------|
 B|--------|--------|--------|--------|--------|--------|--------|--------|--------|


 B|--------|--------|--------|--------|--------|--------|--------|--------|
F#|--------|--------|--------|--------|--------|--------|--------|--------|
 D|--------|--------|--------|--------|--------|--------|--------|--------|
 A|--------|--------|--------|--------|--------|--------|--------|--------|
 E|--------|--------|--------|--------|--------|--------|--------|--------|
 B|--------|--------|--------|--------|--------|--------|--------|--------|





Track 4: Center Guitar 1 - P. Wichers

 B|--------|--------|--------|--------|--------|--------|--------|--------|--------|
F#|--------|--------|--------|--------|--------|--------|--------|--------|--------|
 D|--------|--------|--------|--------|--------|--------|--------|--------|--------|
 A|--------|--------|--------|--------|--------|--------|--------|--------|--------|
 E|--------|--------|--------|--------|--------|--------|--------|--------|--------|
 B|--------|--------|--------|--------|--------|--------|--------|--------|--------|


 B|--------|--------|--------|--------|--------|--------|--------|--------|--------|
F#|--------|--------|--------|--------|--------|--------|--------|--------|--------|
 D|--------|--------|--------|--------|--------|--------|--------|--------|--------|
 A|--------|--------|--------|--------|--------|--------|--------|--------|--------|
 E|--------|--------|--------|--------|--------|--------|--------|--------|--------|
 B|--------|--------|--------|--------|--------|--------|--------|--------|--------|


 B|--------|--------|--------|--------|--------|--------|--------|--------|--------|
F#|--------|--------|--------|--------|--------|--------|--------|--------|--------|
 D|--------|--------|--------|--------|--------|--------|--------|--------|--------|
 A|--------|--------|--------|--------|--------|--------|--------|--------|--------|
 E|--------|--------|--------|--------|--------|--------|--------|--------|--------|
 B|--------|--------|--------|--------|--------|--------|--------|--------|--------|


 B|--------|--------|--------|--------|--------|--------|--------|--------|--------|
F#|--------|--------|--------|--------|--------|--------|--------|--------|--------|
 D|--------|--------|--------|--------|--------|--------|--------|--------|--------|
 A|--------|--------|--------|--------|--------|--------|--------|--------|--------|
 E|--------|--------|--------|--------|--------|--------|--------|--------|--------|
 B|--------|--------|--------|--------|--------|--------|--------|--------|--------|


 B|--------|--------|--------|--------|--------|------7----5---7-----------|---------7----5---7-----------|
F#|--------|--------|--------|--------|--------|---------------------------|------------------------------|
 D|--------|--------|--------|--------|--------|---------------------------|------------------------------|
 A|--------|--------|--------|--------|--------|---------------------------|------------------------------|
 E|--------|--------|--------|--------|--------|-3-----------------3---3---|-3---3----------------5---5---|
 B|--------|--------|--------|--------|--------|---------------------------|------------------------------|


 B|------8----7---8-----------|------8----7---8-----------|------12------10------8-------|
F#|---------------------------|---------------------------|------------------------------|
 D|---------------------------|---------------------------|------------------------------|
 A|---------------------------|---------------------------|------------------------------|
 E|-5-----------------5---5---|-5-----------------7---7---|-7--------7-------7-------7---|
 B|---------------------------|---------------------------|------------------------------|


 B|-10------12------10--12----------|---------12------10------8-------|-10------12------10--12--12------|
F#|---------------------------------|---------------------------------|---------------------------------|
 D|---------------------------------|---------------------------------|---------------------------------|
 A|---------------------------------|---------------------------------|---------------------------------|
 E|-----7-------7-----------7---7---|-7---7-------7-------7-------7---|-----7-------7---------------3---|
 B|---------------------------------|---------------------------------|---------------------------------|


 B|------7----5---7-----------|------7----5---7-----------|------------|--------|--------|
F#|---------------------------|---------------------------|------------|--------|--------|
 D|---------------------------|---------------------------|------------|--------|--------|
 A|---------------------------|---------------------------|------------|--------|--------|
 E|-3-----------------3---3---|-3-----------------3---2---|-2----------|--------|--------|
 B|---------------------------|---------------------------|------------|--------|--------|


 B|--------|--------|--------|--------|--------|--------|--------|--------|--------|
F#|--------|--------|--------|--------|--------|--------|--------|--------|--------|
 D|--------|--------|--------|--------|--------|--------|--------|--------|--------|
 A|--------|--------|--------|--------|--------|--------|--------|--------|--------|
 E|--------|--------|--------|--------|--------|--------|--------|--------|--------|
 B|--------|--------|--------|--------|--------|--------|--------|--------|--------|


 B|--------|--------|--------|--------|--------|--------|--------|--------|--------|
F#|--------|--------|--------|--------|--------|--------|--------|--------|--------|
 D|--------|--------|--------|--------|--------|--------|--------|--------|--------|
 A|--------|--------|--------|--------|--------|--------|--------|--------|--------|
 E|--------|--------|--------|--------|--------|--------|--------|--------|--------|
 B|--------|--------|--------|--------|--------|--------|--------|--------|--------|


 B|--------|--------|--------|--------|------7----5---7-----------|---------7----5---7-----------|
F#|--------|--------|--------|--------|---------------------------|------------------------------|
 D|--------|--------|--------|--------|---------------------------|------------------------------|
 A|--------|--------|--------|--------|---------------------------|------------------------------|
 E|--------|--------|--------|--------|-3-----------------3---3---|-3---3----------------5---5---|
 B|--------|--------|--------|--------|---------------------------|------------------------------|


 B|------8----7---8-----------|------8----7---8-----------|------12------10------8-------|
F#|---------------------------|---------------------------|------------------------------|
 D|---------------------------|---------------------------|------------------------------|
 A|---------------------------|---------------------------|------------------------------|
 E|-5-----------------5---5---|-5-----------------7---7---|-7--------7-------7-------7---|
 B|---------------------------|---------------------------|------------------------------|


 B|-10------12------10--12----------|---------12------10------8-------|-10------12------10--12--12------|
F#|---------------------------------|---------------------------------|---------------------------------|
 D|---------------------------------|---------------------------------|---------------------------------|
 A|---------------------------------|---------------------------------|---------------------------------|
 E|-----7-------7-----------7---7---|-7---7-------7-------7-------7---|-----7-------7---------------3---|
 B|---------------------------------|---------------------------------|---------------------------------|


 B|------7----5---7-----------|------7----5---7-----------|------------|--------|--------|
F#|---------------------------|---------------------------|------------|--------|--------|
 D|---------------------------|---------------------------|------------|--------|--------|
 A|---------------------------|---------------------------|------------|--------|--------|
 E|-3-----------------3---3---|-3-----------------3---2---|-2----------|--------|--------|
 B|---------------------------|---------------------------|------------|--------|--------|


 B|--------|--------|--------|--------|--------|--------|--------|--------|--------|
F#|--------|--------|--------|--------|--------|--------|--------|--------|--------|
 D|--------|--------|--------|--------|--------|--------|--------|--------|--------|
 A|--------|--------|--------|--------|--------|--------|--------|--------|--------|
 E|--------|--------|--------|--------|--------|--------|--------|--------|--------|
 B|--------|--------|--------|--------|--------|--------|--------|--------|--------|


 B|--------|--------|--------|--------|--------|--------|--------|--------|--------|
F#|--------|--------|--------|--------|--------|--------|--------|--------|--------|
 D|--------|--------|--------|--------|--------|--------|--------|--------|--------|
 A|--------|--------|--------|--------|--------|--------|--------|--------|--------|
 E|--------|--------|--------|--------|--------|--------|--------|--------|--------|
 B|--------|--------|--------|--------|--------|--------|--------|--------|--------|


 B|--------|--------|--------|--------|--------|--------|--------|--------|--------|
F#|--------|--------|--------|--------|--------|--------|--------|--------|--------|
 D|--------|--------|--------|--------|--------|--------|--------|--------|--------|
 A|--------|--------|--------|--------|--------|--------|--------|--------|--------|
 E|--------|--------|--------|--------|--------|--------|--------|--------|--------|
 B|--------|--------|--------|--------|--------|--------|--------|--------|--------|


 B|--------|--------|--------|--------|--------|--------|--------|--------|----------12-14-15-14-12----------------12-14-15-|
F#|--------|--------|--------|--------|--------|--------|--------|--------|-------12----------------12----------12----------|
 D|--------|--------|--------|--------|--------|--------|--------|--------|-12-14----------------------14-12-14-------------|
 A|--------|--------|--------|--------|--------|--------|--------|--------|-------------------------------------------------|
 E|--------|--------|--------|--------|--------|--------|--------|--------|-------------------------------------------------|
 B|--------|--------|--------|--------|--------|--------|--------|--------|-------------------------------------------------|


 B|-14-12----------------12-14-15-14-12-------------|----------7--9--10-9--7-----------------7--9--10-|
F#|-------12----------12----------------12----------|-------7-----------------7-----------7-----------|
 D|----------14-12-14----------------------14-12-14-|-7--9-----------------------9--7--9--------------|
 A|-------------------------------------------------|-------------------------------------------------|
 E|-------------------------------------------------|-------------------------------------------------|
 B|-------------------------------------------------|-------------------------------------------------|


 B|-9--7-----------------7--9--10-9--7--------------|----------12-14-15-14-12----------------12-14-15-|
F#|-------7-----------7-----------------7-----------|-------12----------------12----------12----------|
 D|----------9--7--9-----------------------9--7--9--|-12-14----------------------14-12-14-------------|
 A|-------------------------------------------------|-------------------------------------------------|
 E|-------------------------------------------------|-------------------------------------------------|
 B|-------------------------------------------------|-------------------------------------------------|


 B|-14-12----------------12-14-15-14-12-------------|----------12-14-15-14-12----------------12-14-15-|
F#|-------12----------12----------------12----------|-------12----------------12----------12----------|
 D|----------14-12-14----------------------14-12-14-|-12-14----------------------14-12-14-------------|
 A|-------------------------------------------------|-------------------------------------------------|
 E|-------------------------------------------------|-------------------------------------------------|
 B|-------------------------------------------------|-------------------------------------------------|


 B|-14-12-------------15--15---15---15---|-------------12--14--15--14--12------------------|
F#|-------12-----------------------------|---------12----------------------12--------------|
 D|----------14-12-11--------------------|-12--14------------------------------14--12--14--|
 A|--------------------------------------|-------------------------------------------------|
 E|--------------------------------------|-------------------------------------------------|
 B|--------------------------------------|-------------------------------------------------|


 B|-----12--14--15--14--12----------------|-------------7---9---10--9---7-------------------|
F#|-12----------------------12------------|---------7-----------------------7---------------|
 D|-----------------------------14--12----|-7---9-------------------------------9---7---9---|
 A|---------------------------------------|-------------------------------------------------|
 E|---------------------------------------|-------------------------------------------------|
 B|---------------------------------------|-------------------------------------------------|


 B|-----7---9---10--9---7-----------------|-------------12--14--15--14--12------------------|
F#|-7-----------------------7-------------|---------12----------------------12--------------|
 D|-----------------------------9---7-----|-12--14------------------------------14--12--14--|
 A|---------------------------------------|-------------------------------------------------|
 E|---------------------------------------|-------------------------------------------------|
 B|---------------------------------------|-------------------------------------------------|


 B|-----12--14--15--14--12----------------|-------------12--14--15--14--12------------------|
F#|-12----------------------12------------|---------12----------------------12--------------|
 D|-----------------------------14--12----|-12--14------------------------------14--12--14--|
 A|---------------------------------------|-------------------------------------------------|
 E|---------------------------------------|-------------------------------------------------|
 B|---------------------------------------|-------------------------------------------------|


 B|-----12--14--15--14--12--------------15--15--15--|-----------------14--17--17----|
F#|-12----------------------12----------------------|-------------14----------------|
 D|-----------------------------14--12--------------|-----11--14--------------------|
 A|-------------------------------------------------|-11----------------------------|
 E|-------------------------------------------------|-------------------------------|
 B|-------------------------------------------------|-------------------------------|


 B|-17----14--16----16-14-|-----------14----14--|--------------------------|--------|
F#|-----------------------|-14----14------------|-12----12-----------------|-14-----|
 D|-----------------------|---------------------|------------14-13-11-13---|--------|
 A|-----------------------|---------------------|--------------------------|-11-----|
 E|-----------------------|---------------------|--------------------------|--------|
 B|-----------------------|---------------------|--------------------------|--------|


 B|-------------------------|------------------------------------------|----------------------------------------------|
F#|-14--14--14---14---14----|-14-15-14-12-14-15-14-12----------12-14---|-22--14--21--14--22--14--24--14--22--14--24---|
 D|-------------------------|-------------------------14-13-11---------|----------------------------------------------|
 A|-----11------------------|------------------------------------------|----------------------------------------------|
 E|-------------------------|------------------------------------------|----------------------------------------------|
 B|-------------------------|------------------------------------------|----------------------------------------------|


 B|-18--18----18---18---|-18----18----|--------|--------|--------|--------|--------|
F#|---------------------|-------------|--------|--------|--------|--------|--------|
 D|---------------------|-------------|--------|--------|--------|--------|--------|
 A|---------------------|-------------|--------|--------|--------|--------|--------|
 E|---------------------|-------------|--------|--------|--------|--------|--------|
 B|---------------------|-------------|--------|--------|--------|--------|--------|


 B|--------|--------|--------|--------|--------|--------|--------|--------|--------|
F#|--------|--------|--------|--------|--------|--------|--------|--------|--------|
 D|--------|--------|--------|--------|--------|--------|--------|--------|--------|
 A|--------|--------|--------|--------|--------|--------|--------|--------|--------|
 E|--------|--------|--------|--------|--------|--------|--------|--------|--------|
 B|--------|--------|--------|--------|--------|--------|--------|--------|--------|


 B|--------|--------|--------|--------|--------|--------|--------|--------|--------|
F#|--------|--------|--------|--------|--------|--------|--------|--------|--------|
 D|--------|--------|--------|--------|--------|--------|--------|--------|--------|
 A|--------|--------|--------|--------|--------|--------|--------|--------|--------|
 E|--------|--------|--------|--------|--------|--------|--------|--------|--------|
 B|--------|--------|--------|--------|--------|--------|--------|--------|--------|


 B|--------|-------------------------------|--------------------|--------|--------|
F#|--------|-------------------------------|--------------------|--------|--------|
 D|--------|-9----9----9----9----9----9----|-9----9-------------|--------|--------|
 A|--------|-------------------------------|--------------------|--------|--------|
 E|--------|-------------------------------|--------------------|--------|--------|
 B|--------|-------------------------------|--------------------|--------|--------|


 B|--------|--------|--------|--------|--------|--------|--------|--------|--------|
F#|--------|--------|--------|--------|--------|--------|--------|--------|--------|
 D|--------|--------|--------|--------|--------|--------|--------|--------|--------|
 A|--------|--------|--------|--------|--------|--------|--------|--------|--------|
 E|--------|--------|--------|--------|--------|--------|--------|--------|--------|
 B|--------|--------|--------|--------|--------|--------|--------|--------|--------|


 B|--------|--------|--------|--------|------7----5---7-----------|---------7----5---7-----------|
F#|--------|--------|--------|--------|---------------------------|------------------------------|
 D|--------|--------|--------|--------|---------------------------|------------------------------|
 A|--------|--------|--------|--------|---------------------------|------------------------------|
 E|--------|--------|--------|--------|-3-----------------3---3---|-3---3----------------5---5---|
 B|--------|--------|--------|--------|---------------------------|------------------------------|


 B|------8----7---8-----------|------8----7---8-----------|------12------10------8-------|
F#|---------------------------|---------------------------|------------------------------|
 D|---------------------------|---------------------------|------------------------------|
 A|---------------------------|---------------------------|------------------------------|
 E|-5-----------------5---5---|-5-----------------7---7---|-7--------7-------7-------7---|
 B|---------------------------|---------------------------|------------------------------|


 B|-10------12------10--12----------|---------12------10------8-------|-10------12------10--12--12------|
F#|---------------------------------|---------------------------------|---------------------------------|
 D|---------------------------------|---------------------------------|---------------------------------|
 A|---------------------------------|---------------------------------|---------------------------------|
 E|-----7-------7-----------7---7---|-7---7-------7-------7-------7---|-----7-------7---------------3---|
 B|---------------------------------|---------------------------------|---------------------------------|


 B|------7----5---7-----------|---------7----5---7-----------|------8----7---8-----------|
F#|---------------------------|------------------------------|---------------------------|
 D|---------------------------|------------------------------|---------------------------|
 A|---------------------------|------------------------------|---------------------------|
 E|-3-----------------3---3---|-3---3----------------5---5---|-5-----------------5---5---|
 B|---------------------------|------------------------------|---------------------------|


 B|------8----7---8-----------|------12------10------8-------|-10------12------10--12----------|
F#|---------------------------|------------------------------|---------------------------------|
 D|---------------------------|------------------------------|---------------------------------|
 A|---------------------------|------------------------------|---------------------------------|
 E|-5-----------------7---7---|-7--------7-------7-------7---|-----7-------7-----------7---7---|
 B|---------------------------|------------------------------|---------------------------------|


 B|---------12------10------8-------|-10------12------10--12--12------|------7----5---7-----------|
F#|---------------------------------|---------------------------------|---------------------------|
 D|---------------------------------|---------------------------------|---------------------------|
 A|---------------------------------|---------------------------------|---------------------------|
 E|-7---7-------7-------7-------7---|-----7-------7---------------3---|-3-----------------3---3---|
 B|---------------------------------|---------------------------------|---------------------------|


 B|---------7----------|--------|--------|
F#|--------------------|--------|--------|
 D|--------------------|--------|--------|
 A|--------------------|--------|--------|
 E|-3---3--------------|--------|--------|
 B|--------------------|--------|--------|





Track 5: Left Guitar - P. Wichers

 B|--------|--------|--------|--------|--------|--------|--------|--------|--------|
F#|--------|--------|--------|--------|--------|--------|--------|--------|--------|
 D|--------|--------|--------|--------|--------|--------|--------|--------|--------|
 A|--------|--------|--------|--------|--------|--------|--------|--------|--------|
 E|--------|--------|--------|--------|--------|--------|--------|--------|--------|
 B|--------|--------|--------|--------|--------|--------|--------|--------|--------|


 B|--------|--------|--------|--------|--------|--------|--------|--------|--------|
F#|--------|--------|--------|--------|--------|--------|--------|--------|--------|
 D|--------|--------|--------|--------|--------|--------|--------|--------|--------|
 A|--------|--------|--------|--------|--------|--------|--------|--------|--------|
 E|--------|--------|--------|--------|--------|--------|--------|--------|--------|
 B|--------|--------|--------|--------|--------|--------|--------|--------|--------|


 B|--------|--------|--------|--------|--------|--------|--------|--------|--------|
F#|--------|--------|--------|--------|--------|--------|--------|--------|--------|
 D|--------|--------|--------|--------|--------|--------|--------|--------|--------|
 A|--------|--------|--------|--------|--------|--------|--------|--------|--------|
 E|--------|--------|--------|--------|--------|--------|--------|--------|--------|
 B|--------|--------|--------|--------|--------|--------|--------|--------|--------|


 B|--------|--------|--------|--------|--------|--------|--------|--------|--------|
F#|--------|--------|--------|--------|--------|--------|--------|--------|--------|
 D|--------|--------|--------|--------|--------|--------|--------|--------|--------|
 A|--------|--------|--------|--------|--------|--------|--------|--------|--------|
 E|--------|--------|--------|--------|--------|--------|--------|--------|--------|
 B|--------|--------|--------|--------|--------|--------|--------|--------|--------|


 B|--------|--------|--------|--------|--------|--------|-------------5---|-5------|
F#|--------|--------|--------|--------|--------|-8------|-8-----8-----7---|-7------|
 D|--------|--------|--------|--------|--------|-9------|-9-----9-----7---|-7------|
 A|--------|--------|--------|--------|--------|-5------|-5-----5-----7---|-7------|
 E|--------|--------|--------|--------|--------|--------|-----------------|--------|
 B|--------|--------|--------|--------|--------|--------|-----------------|--------|


 B|-5-----5-----7---|-7------|-7------|-7-----8-----|-5-----7---------|--------|-----------------|
F#|-7-----7-----8---|-8------|-8------|-8-----10----|-7-----8-----8---|-8------|-8-----8-----7---|
 D|-7-----7-----9---|-9------|-9------|-9-----9-----|-9-----9-----9---|-9------|-9-----9-----8---|
 A|-7-----7-----9---|-9------|-9------|-9-----10----|-7-----9-----5---|-5------|-5-----5-----4---|
 E|-----------------|--------|--------|-------------|-----------------|--------|-----------------|
 B|-----------------|--------|--------|-------------|-----------------|--------|-----------------|


 B|------------|--------|--------|--------|--------|--------|--------|--------|--------|
F#|-7----------|--------|--------|--------|--------|--------|--------|--------|--------|
 D|-8----------|--------|--------|--------|--------|--------|--------|--------|--------|
 A|-4----------|--------|--------|--------|--------|--------|--------|--------|--------|
 E|------------|--------|--------|--------|--------|--------|--------|--------|--------|
 B|------------|--------|--------|--------|--------|--------|--------|--------|--------|


 B|--------|--------|--------|--------|--------|--------|--------|--------|--------|
F#|--------|--------|--------|--------|--------|--------|--------|--------|--------|
 D|--------|--------|--------|--------|--------|--------|--------|--------|--------|
 A|--------|--------|--------|--------|--------|--------|--------|--------|--------|
 E|--------|--------|--------|--------|--------|--------|--------|--------|--------|
 B|--------|--------|--------|--------|--------|--------|--------|--------|--------|


 B|--------|--------|--------|--------|--------|--------|--------|--------|--------|
F#|--------|--------|--------|--------|--------|--------|--------|--------|--------|
 D|--------|--------|--------|--------|--------|--------|--------|--------|--------|
 A|--------|--------|--------|--------|--------|--------|--------|--------|--------|
 E|--------|--------|--------|--------|--------|--------|--------|--------|--------|
 B|--------|--------|--------|--------|--------|--------|--------|--------|--------|


 B|--------|--------|--------|--------|--------|--------|--------|--------|--------|
F#|--------|--------|--------|--------|--------|--------|--------|--------|--------|
 D|--------|--------|--------|--------|--------|--------|--------|--------|--------|
 A|--------|--------|--------|--------|--------|--------|--------|--------|--------|
 E|--------|--------|--------|--------|--------|--------|--------|--------|--------|
 B|--------|--------|--------|--------|--------|--------|--------|--------|--------|


 B|--------|--------|--------|--------|--------|--------|--------|--------|--------|
F#|--------|--------|--------|--------|--------|--------|--------|--------|--------|
 D|--------|--------|--------|--------|--------|--------|--------|--------|--------|
 A|--------|--------|--------|--------|--------|--------|--------|--------|--------|
 E|--------|--------|--------|--------|--------|--------|--------|--------|--------|
 B|--------|--------|--------|--------|--------|--------|--------|--------|--------|


 B|--------|--------|--------|--------|--------|--------|--------|--------|--------|
F#|--------|--------|--------|--------|--------|--------|--------|--------|--------|
 D|--------|--------|--------|--------|--------|--------|--------|--------|--------|
 A|--------|--------|--------|--------|--------|--------|--------|--------|--------|
 E|--------|--------|--------|--------|--------|--------|--------|--------|--------|
 B|--------|--------|--------|--------|--------|--------|--------|--------|--------|


 B|--------|--------|--------|--------|--------|--------|--------|--------|--------|
F#|--------|--------|--------|--------|--------|--------|--------|--------|--------|
 D|--------|--------|--------|--------|--------|--------|--------|--------|--------|
 A|--------|--------|--------|--------|--------|--------|--------|--------|--------|
 E|--------|--------|--------|--------|--------|--------|--------|--------|--------|
 B|--------|--------|--------|--------|--------|--------|--------|--------|--------|


 B|--------|--------|--------|--------|--------|--------|--------|--------|--------|
F#|--------|--------|--------|--------|--------|--------|--------|--------|--------|
 D|--------|--------|--------|--------|--------|--------|--------|--------|--------|
 A|--------|--------|--------|--------|--------|--------|--------|--------|--------|
 E|--------|--------|--------|--------|--------|--------|--------|--------|--------|
 B|--------|--------|--------|--------|--------|--------|--------|--------|--------|


 B|--------|--------|--------|--------|--------|--------|--------|--------|--------|
F#|--------|--------|--------|--------|--------|--------|--------|--------|--------|
 D|--------|--------|--------|--------|--------|--------|--------|--------|--------|
 A|--------|--------|--------|--------|--------|--------|--------|--------|--------|
 E|--------|--------|--------|--------|--------|--------|--------|--------|--------|
 B|--------|--------|--------|--------|--------|--------|--------|--------|--------|


 B|--------|--------|--------|--------|--------|--------|--------|--------|--------|
F#|--------|--------|--------|--------|--------|--------|--------|--------|--------|
 D|--------|--------|--------|--------|--------|--------|--------|--------|--------|
 A|--------|--------|--------|--------|--------|--------|--------|--------|--------|
 E|--------|--------|--------|--------|--------|--------|--------|--------|--------|
 B|--------|--------|--------|--------|--------|--------|--------|--------|--------|


 B|--------|--------|--------|--------|--------|--------|--------|--------|--------|
F#|--------|--------|--------|--------|--------|--------|--------|--------|--------|
 D|--------|--------|--------|--------|--------|--------|--------|--------|--------|
 A|--------|--------|--------|--------|--------|--------|--------|--------|--------|
 E|--------|--------|--------|--------|--------|--------|--------|--------|--------|
 B|--------|--------|--------|--------|--------|--------|--------|--------|--------|


 B|--------|--------|--------|--------|--------|--------|--------|--------|--------|
F#|--------|--------|--------|--------|--------|--------|--------|--------|--------|
 D|--------|--------|--------|--------|--------|--------|--------|--------|--------|
 A|--------|--------|--------|--------|--------|--------|--------|--------|--------|
 E|--------|--------|--------|--------|--------|--------|--------|--------|--------|
 B|--------|--------|--------|--------|--------|--------|--------|--------|--------|


 B|--------|--------|--------|--------|--------|--------|--------|--------|--------|
F#|--------|--------|--------|--------|--------|--------|--------|--------|--------|
 D|--------|--------|--------|--------|--------|--------|--------|--------|--------|
 A|--------|--------|--------|--------|--------|--------|--------|--------|--------|
 E|--------|--------|--------|--------|--------|--------|--------|--------|--------|
 B|--------|--------|--------|--------|--------|--------|--------|--------|--------|


 B|--------|--------|--------|--------|--------|--------|--------|--------|--------|
F#|--------|--------|--------|--------|--------|--------|--------|--------|--------|
 D|--------|--------|--------|--------|--------|--------|--------|--------|--------|
 A|--------|--------|--------|--------|--------|--------|--------|--------|--------|
 E|--------|--------|--------|--------|--------|--------|--------|--------|--------|
 B|--------|--------|--------|--------|--------|--------|--------|--------|--------|


 B|--------|--------|--------|--------|--------|--------|--------|--------|--------|
F#|--------|--------|--------|--------|--------|--------|--------|--------|--------|
 D|--------|--------|--------|--------|--------|--------|--------|--------|--------|
 A|--------|--------|--------|--------|--------|--------|--------|--------|--------|
 E|--------|--------|--------|--------|--------|--------|--------|--------|--------|
 B|--------|--------|--------|--------|--------|--------|--------|--------|--------|


 B|--------|--------|--------|--------|--------|--------|--------|--------|--------|
F#|--------|--------|--------|--------|--------|--------|--------|--------|--------|
 D|--------|--------|--------|--------|--------|--------|--------|--------|--------|
 A|--------|--------|--------|--------|--------|--------|--------|--------|--------|
 E|--------|--------|--------|--------|--------|--------|--------|--------|--------|
 B|--------|--------|--------|--------|--------|--------|--------|--------|--------|


 B|--------|--------|--------|--------|--------|--------|--------|--------|--------|
F#|--------|--------|--------|--------|--------|--------|--------|--------|--------|
 D|--------|--------|--------|--------|--------|--------|--------|--------|--------|
 A|--------|--------|--------|--------|--------|--------|--------|--------|--------|
 E|--------|--------|--------|--------|--------|--------|--------|--------|--------|
 B|--------|--------|--------|--------|--------|--------|--------|--------|--------|


 B|--------|--------|--------|--------|--------|--------|--------|
F#|--------|--------|--------|--------|--------|--------|--------|
 D|--------|--------|--------|--------|--------|--------|--------|
 A|--------|--------|--------|--------|--------|--------|--------|
 E|--------|--------|--------|--------|--------|--------|--------|
 B|--------|--------|--------|--------|--------|--------|--------|





Track 6: Left Guitar - P. Wichers

 B|--------|--------|--------|--------|--------|--------|--------|--------|--------|
F#|--------|--------|--------|--------|--------|--------|--------|--------|--------|
 D|--------|--------|--------|--------|--------|--------|--------|--------|--------|
 A|--------|--------|--------|--------|--------|--------|--------|--------|--------|
 E|--------|--------|--------|--------|--------|--------|--------|--------|--------|
 B|--------|--------|--------|--------|--------|--------|--------|--------|--------|


 B|--------|--------|--------|--------|--------|--------|--------|--------|--------|
F#|--------|--------|--------|--------|--------|--------|--------|--------|--------|
 D|--------|--------|--------|--------|--------|--------|--------|--------|--------|
 A|--------|--------|--------|--------|--------|--------|--------|--------|--------|
 E|--------|--------|--------|--------|--------|--------|--------|--------|--------|
 B|--------|--------|--------|--------|--------|--------|--------|--------|--------|


 B|--------|--------|--------|--------|--------|--------|--------|--------|--------|
F#|--------|--------|--------|--------|--------|--------|--------|--------|--------|
 D|--------|--------|--------|--------|--------|--------|--------|--------|--------|
 A|--------|--------|--------|--------|--------|--------|--------|--------|--------|
 E|--------|--------|--------|--------|--------|--------|--------|--------|--------|
 B|--------|--------|--------|--------|--------|--------|--------|--------|--------|


 B|--------|--------|--------|--------|--------|--------|--------|--------|--------|
F#|--------|--------|--------|--------|--------|--------|--------|--------|--------|
 D|--------|--------|--------|--------|--------|--------|--------|--------|--------|
 A|--------|--------|--------|--------|--------|--------|--------|--------|--------|
 E|--------|--------|--------|--------|--------|--------|--------|--------|--------|
 B|--------|--------|--------|--------|--------|--------|--------|--------|--------|


 B|--------|--------|--------|--------|--------|--------|--------|--------|--------|
F#|--------|--------|--------|--------|--------|--------|--------|--------|--------|
 D|--------|--------|--------|--------|--------|--------|--------|--------|--------|
 A|--------|--------|--------|--------|--------|--------|--------|--------|--------|
 E|--------|--------|--------|--------|--------|--------|--------|--------|--------|
 B|--------|--------|--------|--------|--------|--------|--------|--------|--------|


 B|--------|--------|--------|--------|--------|--------|--------|--------|--------|
F#|--------|--------|--------|--------|--------|--------|--------|--------|--------|
 D|--------|--------|--------|--------|--------|--------|--------|--------|--------|
 A|--------|--------|--------|--------|--------|--------|--------|--------|--------|
 E|--------|--------|--------|--------|--------|--------|--------|--------|--------|
 B|--------|--------|--------|--------|--------|--------|--------|--------|--------|


 B|--------|--------|--------|--------|--------|--------|--------|--------|--------|
F#|--------|--------|--------|--------|--------|--------|--------|--------|--------|
 D|--------|--------|--------|--------|--------|--------|--------|--------|--------|
 A|--------|--------|--------|--------|--------|--------|--------|--------|--------|
 E|--------|--------|--------|--------|--------|--------|--------|--------|--------|
 B|--------|--------|--------|--------|--------|--------|--------|--------|--------|


 B|--------|--------|--------|--------|--------|--------|--------|--------|--------|
F#|--------|--------|--------|--------|--------|--------|--------|--------|--------|
 D|--------|--------|--------|--------|--------|--------|--------|--------|--------|
 A|--------|--------|--------|--------|--------|--------|--------|--------|--------|
 E|--------|--------|--------|--------|--------|--------|--------|--------|--------|
 B|--------|--------|--------|--------|--------|--------|--------|--------|--------|


 B|--------|--------|--------|--------|--------|-------------5---|-5------|-5-----5-----7---|
F#|--------|--------|--------|--------|-8------|-8-----8-----7---|-7------|-7-----7-----8---|
 D|--------|--------|--------|--------|-9------|-9-----9-----7---|-7------|-7-----7-----9---|
 A|--------|--------|--------|--------|-5------|-5-----5-----7---|-7------|-7-----7-----9---|
 E|--------|--------|--------|--------|--------|-----------------|--------|-----------------|
 B|--------|--------|--------|--------|--------|-----------------|--------|-----------------|


 B|-7------|-7------|-7-----8-----|-5-----7---------|--------|-----------------|------------|
F#|-8------|-8------|-8-----10----|-7-----8-----8---|-8------|-8-----8-----7---|-7----------|
 D|-9------|-9------|-9-----9-----|-9-----9-----9---|-9------|-9-----9-----8---|-8----------|
 A|-9------|-9------|-9-----10----|-7-----9-----5---|-5------|-5-----5-----4---|-4----------|
 E|--------|--------|-------------|-----------------|--------|-----------------|------------|
 B|--------|--------|-------------|-----------------|--------|-----------------|------------|


 B|--------|--------|--------|--------|--------|--------|--------|--------|--------|
F#|--------|--------|--------|--------|--------|--------|--------|--------|--------|
 D|--------|--------|--------|--------|--------|--------|--------|--------|--------|
 A|--------|--------|--------|--------|--------|--------|--------|--------|--------|
 E|--------|--------|--------|--------|--------|--------|--------|--------|--------|
 B|--------|--------|--------|--------|--------|--------|--------|--------|--------|


 B|--------|--------|--------|--------|--------|--------|--------|--------|--------|
F#|--------|--------|--------|--------|--------|--------|--------|--------|--------|
 D|--------|--------|--------|--------|--------|--------|--------|--------|--------|
 A|--------|--------|--------|--------|--------|--------|--------|--------|--------|
 E|--------|--------|--------|--------|--------|--------|--------|--------|--------|
 B|--------|--------|--------|--------|--------|--------|--------|--------|--------|


 B|--------|--------|--------|--------|--------|--------|--------|--------|--------|
F#|--------|--------|--------|--------|--------|--------|--------|--------|--------|
 D|--------|--------|--------|--------|--------|--------|--------|--------|--------|
 A|--------|--------|--------|--------|--------|--------|--------|--------|--------|
 E|--------|--------|--------|--------|--------|--------|--------|--------|--------|
 B|--------|--------|--------|--------|--------|--------|--------|--------|--------|


 B|--------|--------|--------|--------|--------|--------|--------|--------|--------|
F#|--------|--------|--------|--------|--------|--------|--------|--------|--------|
 D|--------|--------|--------|--------|--------|--------|--------|--------|--------|
 A|--------|--------|--------|--------|--------|--------|--------|--------|--------|
 E|--------|--------|--------|--------|--------|--------|--------|--------|--------|
 B|--------|--------|--------|--------|--------|--------|--------|--------|--------|


 B|--------|--------|--------|--------|--------|--------|--------|--------|--------|
F#|--------|--------|--------|--------|--------|--------|--------|--------|--------|
 D|--------|--------|--------|--------|--------|--------|--------|--------|--------|
 A|--------|--------|--------|--------|--------|--------|--------|--------|--------|
 E|--------|--------|--------|--------|--------|--------|--------|--------|--------|
 B|--------|--------|--------|--------|--------|--------|--------|--------|--------|


 B|--------|--------|--------|--------|--------|--------|--------|--------|--------|
F#|--------|--------|--------|--------|--------|--------|--------|--------|--------|
 D|--------|--------|--------|--------|--------|--------|--------|--------|--------|
 A|--------|--------|--------|--------|--------|--------|--------|--------|--------|
 E|--------|--------|--------|--------|--------|--------|--------|--------|--------|
 B|--------|--------|--------|--------|--------|--------|--------|--------|--------|


 B|--------|--------|--------|--------|--------|--------|--------|--------|--------|
F#|--------|--------|--------|--------|--------|--------|--------|--------|--------|
 D|--------|--------|--------|--------|--------|--------|--------|--------|--------|
 A|--------|--------|--------|--------|--------|--------|--------|--------|--------|
 E|--------|--------|--------|--------|--------|--------|--------|--------|--------|
 B|--------|--------|--------|--------|--------|--------|--------|--------|--------|


 B|--------|--------|--------|--------|--------|--------|--------|--------|--------|
F#|--------|--------|--------|--------|--------|--------|--------|--------|--------|
 D|--------|--------|--------|--------|--------|--------|--------|--------|--------|
 A|--------|--------|--------|--------|--------|--------|--------|--------|--------|
 E|--------|--------|--------|--------|--------|--------|--------|--------|--------|
 B|--------|--------|--------|--------|--------|--------|--------|--------|--------|


 B|--------|--------|--------|--------|--------|--------|--------|--------|--------|
F#|--------|--------|--------|--------|--------|--------|--------|--------|--------|
 D|--------|--------|--------|--------|--------|--------|--------|--------|--------|
 A|--------|--------|--------|--------|--------|--------|--------|--------|--------|
 E|--------|--------|--------|--------|--------|--------|--------|--------|--------|
 B|--------|--------|--------|--------|--------|--------|--------|--------|--------|


 B|--------|--------|--------|--------|--------|--------|--------|--------|--------|
F#|--------|--------|--------|--------|--------|--------|--------|--------|--------|
 D|--------|--------|--------|--------|--------|--------|--------|--------|--------|
 A|--------|--------|--------|--------|--------|--------|--------|--------|--------|
 E|--------|--------|--------|--------|--------|--------|--------|--------|--------|
 B|--------|--------|--------|--------|--------|--------|--------|--------|--------|


 B|--------|--------|--------|--------|--------|--------|--------|--------|--------|
F#|--------|--------|--------|--------|--------|--------|--------|--------|--------|
 D|--------|--------|--------|--------|--------|--------|--------|--------|--------|
 A|--------|--------|--------|--------|--------|--------|--------|--------|--------|
 E|--------|--------|--------|--------|--------|--------|--------|--------|--------|
 B|--------|--------|--------|--------|--------|--------|--------|--------|--------|


 B|--------|--------|--------|--------|--------|--------|--------|--------|--------|
F#|--------|--------|--------|--------|--------|--------|--------|--------|--------|
 D|--------|--------|--------|--------|--------|--------|--------|--------|--------|
 A|--------|--------|--------|--------|--------|--------|--------|--------|--------|
 E|--------|--------|--------|--------|--------|--------|--------|--------|--------|
 B|--------|--------|--------|--------|--------|--------|--------|--------|--------|


 B|--------|--------|--------|--------|--------|--------|--------|--------|--------|
F#|--------|--------|--------|--------|--------|--------|--------|--------|--------|
 D|--------|--------|--------|--------|--------|--------|--------|--------|--------|
 A|--------|--------|--------|--------|--------|--------|--------|--------|--------|
 E|--------|--------|--------|--------|--------|--------|--------|--------|--------|
 B|--------|--------|--------|--------|--------|--------|--------|--------|--------|


 B|--------|--------|--------|--------|--------|--------|--------|
F#|--------|--------|--------|--------|--------|--------|--------|
 D|--------|--------|--------|--------|--------|--------|--------|
 A|--------|--------|--------|--------|--------|--------|--------|
 E|--------|--------|--------|--------|--------|--------|--------|
 B|--------|--------|--------|--------|--------|--------|--------|





Track 7: Center Guitar 2 - O. Frenning

 B|--------|--------|--------|--------|--------|--------|--------|--------|--------|
F#|--------|--------|--------|--------|--------|--------|--------|--------|--------|
 D|--------|--------|--------|--------|--------|--------|--------|--------|--------|
 A|--------|--------|--------|--------|--------|--------|--------|--------|--------|
 E|--------|--------|--------|--------|--------|--------|--------|--------|--------|
 B|--------|--------|--------|--------|--------|--------|--------|--------|--------|


 B|--------|--------|--------|--------|--------|--------|--------|--------|--------|
F#|--------|--------|--------|--------|--------|--------|--------|--------|--------|
 D|--------|--------|--------|--------|--------|--------|--------|--------|--------|
 A|--------|--------|--------|--------|--------|--------|--------|--------|--------|
 E|--------|--------|--------|--------|--------|--------|--------|--------|--------|
 B|--------|--------|--------|--------|--------|--------|--------|--------|--------|


 B|--------|--------|--------|--------|--------|--------|--------|--------|--------|
F#|--------|--------|--------|--------|--------|--------|--------|--------|--------|
 D|--------|--------|--------|--------|--------|--------|--------|--------|--------|
 A|--------|--------|--------|--------|--------|--------|--------|--------|--------|
 E|--------|--------|--------|--------|--------|--------|--------|--------|--------|
 B|--------|--------|--------|--------|--------|--------|--------|--------|--------|


 B|--------|--------|--------|--------|--------|--------|--------|--------|--------|
F#|--------|--------|--------|--------|--------|--------|--------|--------|--------|
 D|--------|--------|--------|--------|--------|--------|--------|--------|--------|
 A|--------|--------|--------|--------|--------|--------|--------|--------|--------|
 E|--------|--------|--------|--------|--------|--------|--------|--------|--------|
 B|--------|--------|--------|--------|--------|--------|--------|--------|--------|


 B|--------|--------|--------|--------|--------|--------|--------|--------|--------|
F#|--------|--------|--------|--------|--------|--------|--------|--------|--------|
 D|--------|--------|--------|--------|--------|--------|--------|--------|--------|
 A|--------|--------|--------|--------|--------|--------|--------|--------|--------|
 E|--------|--------|--------|--------|--------|--------|--------|--------|--------|
 B|--------|--------|--------|--------|--------|--------|--------|--------|--------|


 B|--------|--------|--------|--------|--------|--------|--------|--------|--------|
F#|--------|--------|--------|--------|--------|--------|--------|--------|--------|
 D|--------|--------|--------|--------|--------|--------|--------|--------|--------|
 A|--------|--------|--------|--------|--------|--------|--------|--------|--------|
 E|--------|--------|--------|--------|--------|--------|--------|--------|--------|
 B|--------|--------|--------|--------|--------|--------|--------|--------|--------|


 B|--------|--------|--------|--------|--------|--------|--------|--------|--------|
F#|--------|--------|--------|--------|--------|--------|--------|--------|--------|
 D|--------|--------|--------|--------|--------|--------|--------|--------|--------|
 A|--------|--------|--------|--------|--------|--------|--------|--------|--------|
 E|--------|--------|--------|--------|--------|--------|--------|--------|--------|
 B|--------|--------|--------|--------|--------|--------|--------|--------|--------|


 B|--------|--------|--------|--------|--------|--------|--------|--------|--------|
F#|--------|--------|--------|--------|--------|--------|--------|--------|--------|
 D|--------|--------|--------|--------|--------|--------|--------|--------|--------|
 A|--------|--------|--------|--------|--------|--------|--------|--------|--------|
 E|--------|--------|--------|--------|--------|--------|--------|--------|--------|
 B|--------|--------|--------|--------|--------|--------|--------|--------|--------|


 B|--------|--------|--------|--------|--------|--------|--------|--------|--------|
F#|--------|--------|--------|--------|--------|--------|--------|--------|--------|
 D|--------|--------|--------|--------|--------|--------|--------|--------|--------|
 A|--------|--------|--------|--------|--------|--------|--------|--------|--------|
 E|--------|--------|--------|--------|--------|--------|--------|--------|--------|
 B|--------|--------|--------|--------|--------|--------|--------|--------|--------|


 B|--------|--------|--------|--------|--------|--------|--------|--------|--------|
F#|--------|--------|--------|--------|--------|--------|--------|--------|--------|
 D|--------|--------|--------|--------|--------|--------|--------|--------|--------|
 A|--------|--------|--------|--------|--------|--------|--------|--------|--------|
 E|--------|--------|--------|--------|--------|--------|--------|--------|--------|
 B|--------|--------|--------|--------|--------|--------|--------|--------|--------|


 B|--------|--------|--------|--------|--------|--------|--------|--------|--------|
F#|--------|--------|--------|--------|--------|--------|--------|--------|--------|
 D|--------|--------|--------|--------|--------|--------|--------|--------|--------|
 A|--------|--------|--------|--------|--------|--------|--------|--------|--------|
 E|--------|--------|--------|--------|--------|--------|--------|--------|--------|
 B|--------|--------|--------|--------|--------|--------|--------|--------|--------|


 B|--------|--------|--------|--------|--------|--------|--------|--------|--------|
F#|--------|--------|--------|--------|--------|--------|--------|--------|--------|
 D|--------|--------|--------|--------|--------|--------|--------|--------|--------|
 A|--------|--------|--------|--------|--------|--------|--------|--------|--------|
 E|--------|--------|--------|--------|--------|--------|--------|--------|--------|
 B|--------|--------|--------|--------|--------|--------|--------|--------|--------|


 B|--------|--------|--------|--------|--------|--------|--------|--------|--------|
F#|--------|--------|--------|--------|--------|--------|--------|--------|--------|
 D|--------|--------|--------|--------|--------|--------|--------|--------|--------|
 A|--------|--------|--------|--------|--------|--------|--------|--------|--------|
 E|--------|--------|--------|--------|--------|--------|--------|--------|--------|
 B|--------|--------|--------|--------|--------|--------|--------|--------|--------|


 B|--------|--------|--------|--------|--------|--------|--------|--------|--------|
F#|--------|--------|--------|--------|--------|--------|--------|--------|--------|
 D|--------|--------|--------|--------|--------|--------|--------|--------|--------|
 A|--------|--------|--------|--------|--------|--------|--------|--------|--------|
 E|--------|--------|--------|--------|--------|--------|--------|--------|--------|
 B|--------|--------|--------|--------|--------|--------|--------|--------|--------|


 B|--------|--------|--------|--------|--------|--------|-------------15--17--19--17--15------------------|
F#|--------|--------|--------|--------|--------|--------|-----17--19----------------------19--17------17--|
 D|--------|--------|--------|--------|--------|--------|-16--------------------------------------16------|
 A|--------|--------|--------|--------|--------|--------|-------------------------------------------------|
 E|--------|--------|--------|--------|--------|--------|-------------------------------------------------|
 B|--------|--------|--------|--------|--------|--------|-------------------------------------------------|


 B|-----15--17--19--17--15----------------|-------------10--12--14--12--10------------------|
F#|-19----------------------19--17--------|-----12--14----------------------14--12------12--|
 D|---------------------------------16----|-11--------------------------------------11------|
 A|---------------------------------------|-------------------------------------------------|
 E|---------------------------------------|-------------------------------------------------|
 B|---------------------------------------|-------------------------------------------------|


 B|-----10--12--14--12--10----------------|-------------15--17--19--17--15------------------|
F#|-14----------------------14--12--------|-----17--19----------------------19--17------17--|
 D|---------------------------------11----|-16--------------------------------------16------|
 A|---------------------------------------|-------------------------------------------------|
 E|---------------------------------------|-------------------------------------------------|
 B|---------------------------------------|-------------------------------------------------|


 B|-----15--17--19--17--15----------------|-------------15--17--19--17--15------------------|
F#|-19----------------------19--17--------|-----17--19----------------------19--17------17--|
 D|---------------------------------16----|-16--------------------------------------16------|
 A|---------------------------------------|-------------------------------------------------|
 E|---------------------------------------|-------------------------------------------------|
 B|---------------------------------------|-------------------------------------------------|


 B|-----15--17--19--17--15--------------19--19--19--|--------|--------|--------|--------|
F#|-19----------------------19--17------------------|--------|--------|--------|--------|
 D|---------------------------------16--------------|--------|--------|--------|--------|
 A|-------------------------------------------------|--------|--------|--------|--------|
 E|-------------------------------------------------|--------|--------|--------|--------|
 B|-------------------------------------------------|--------|--------|--------|--------|


 B|--------|--------|--------|--------|--------|-----------------12--15--14--12--|
F#|--------|--------|--------|--------|--------|-------------12------------------|
 D|--------|--------|--------|--------|--------|---------12----------------------|
 A|--------|--------|--------|--------|--------|-----14--------------------------|
 E|--------|--------|--------|--------|--------|---------------------------------|
 B|--------|--------|--------|--------|--------|---------------------------------|


 B|-14-----|-14--------------12--15--14--12--|-15-----|-15--------------12--15--14--12--|
F#|--------|-------------12------------------|--------|-------------12------------------|
 D|--------|---------12----------------------|--------|---------12----------------------|
 A|--------|-----14--------------------------|--------|-----14--------------------------|
 E|--------|---------------------------------|--------|---------------------------------|
 B|--------|---------------------------------|--------|---------------------------------|


 B|-17---17---17---17--19--|-19----19-19-19-17-15----------------------|---------------------------|
F#|------------------------|----------------------19-19-17-15----------|---------------------------|
 D|------------------------|----------------------------------17-16-14-|-16---16--16--16---16--16--|
 A|------------------------|-------------------------------------------|---------------------------|
 E|------------------------|-------------------------------------------|---------------------------|
 B|------------------------|-------------------------------------------|---------------------------|


 B|--------|--------|--------|--------|--------|--------|--------|--------|--------|
F#|--------|--------|--------|--------|--------|--------|--------|--------|--------|
 D|-16-----|--------|--------|--------|--------|--------|--------|--------|--------|
 A|--------|--------|--------|--------|--------|--------|--------|--------|--------|
 E|--------|--------|--------|--------|--------|--------|--------|--------|--------|
 B|--------|--------|--------|--------|--------|--------|--------|--------|--------|


 B|--------|--------|--------|--------|--------|--------|--------|--------|-16---16---16---16---16---16---|
F#|--------|--------|--------|--------|--------|--------|--------|--------|-------------------------------|
 D|--------|--------|--------|--------|--------|--------|--------|--------|-------------------------------|
 A|--------|--------|--------|--------|--------|--------|--------|--------|-------------------------------|
 E|--------|--------|--------|--------|--------|--------|--------|--------|-------------------------------|
 B|--------|--------|--------|--------|--------|--------|--------|--------|-------------------------------|


 B|-16---16------------|--------|--------|--------|--------|--------|--------|--------|
F#|--------------------|--------|--------|--------|--------|--------|--------|--------|
 D|--------------------|--------|--------|--------|--------|--------|--------|--------|
 A|--------------------|--------|--------|--------|--------|--------|--------|--------|
 E|--------------------|--------|--------|--------|--------|--------|--------|--------|
 B|--------------------|--------|--------|--------|--------|--------|--------|--------|


 B|--------|--------|--------|--------|--------|--------|--------|--------|--------|
F#|--------|--------|--------|--------|--------|--------|--------|--------|--------|
 D|--------|--------|--------|--------|--------|--------|--------|--------|--------|
 A|--------|--------|--------|--------|--------|--------|--------|--------|--------|
 E|--------|--------|--------|--------|--------|--------|--------|--------|--------|
 B|--------|--------|--------|--------|--------|--------|--------|--------|--------|


 B|--------|--------|--------22--|-22-----|-22----19------------------|--------|--------|
F#|--------|--------|------------|--------|-----------17------17------|--------|--------|
 D|--------|--------|------------|--------|---------------16------16--|-16-----|-16-----|
 A|--------|--------|------------|--------|---------------------------|--------|--------|
 E|--------|--------|------------|--------|---------------------------|--------|--------|
 B|--------|--------|------------|--------|---------------------------|--------|--------|


 B|-----17----------19----------17--|---------19------19----|-19---19---19---17--------|
F#|-15------15--17------17--15------|-15--17------17--19----|-19---19-------------20---|
 D|---------------------------------|-----------------------|--------------------------|
 A|---------------------------------|-----------------------|--------------------------|
 E|---------------------------------|-----------------------|--------------------------|
 B|---------------------------------|-----------------------|--------------------------|


 B|-------------------|--------|--------|--------|--------|--------|--------|--------|
F#|-19----20-19-17----|-17-----|-17-----|--------|--------|--------|--------|--------|
 D|-------------------|--------|--------|--------|--------|--------|--------|--------|
 A|-------------------|--------|--------|--------|--------|--------|--------|--------|
 E|-------------------|--------|--------|--------|--------|--------|--------|--------|
 B|-------------------|--------|--------|--------|--------|--------|--------|--------|


 B|--------|
F#|--------|
 D|--------|
 A|--------|
 E|--------|
 B|--------|





Track 8: El. Bass - O. Flink

D|--------|--------|--------|--------|--------|--------|--------|--------|-----------------------------------|
A|--------|--------|--------|--------|--------|--------|--------|--------|-----------------------------------|
E|--------|--------|--------|--------|--------|--------|--------|--------|---------------5-------4-----------|
B|--------|--------|--------|--------|--------|--------|--------|--------|-2---2--2--2-------2-------0---0---|


D|---------------------------------|-----------------------------------|------------------------------|
A|---------------------------------|-----------------------------------|------------------------------|
E|---------------------------------|---------------5-------4-----------|-1---2---1-------1------------|
B|-2---3---2---0---2---3---2---0---|-2---2--2--2-------2-------0---0---|-------------3-------2---3----|


D|--------|---------------------------------|-----------------------------------|--------------------------|
A|--------|---------------------------------|-----------------------------------|----------------4---------|
E|--------|---------------------------------|---------------5-------4-----------|-----------0--------------|
B|--------|-2---3---2---0---2---3---2---0---|-2---2--2--2-------2-------0---0---|-2----3--------------14---|


D|-----------------------------------|---------------------------------|-----------------------------------|
A|-----------------------------------|---------------------------------|-----------------------------------|
E|---------------5-------4-----------|---------------------------------|---------------5-------4-----------|
B|-2---2--2--2-------2-------0---0---|-2---3---2---0---2---3---2---0---|-2---2--2--2-------2-------0---0---|


D|------------------------------|-----------------------------------|---------------------------------|
A|------------------------------|-----------------------------------|---------------------------------|
E|-1---2---1-------1------------|---------------5-------4-----------|---------------------------------|
B|-------------3-------2---3----|-2---2--2--2-------2-------0---0---|-2---3---2---0---2---3---2---0---|


D|-----------------------------------|--------|--------|-----------------------------------|
A|-----------------------------------|--------|--------|-----------------------------------|
E|---------------5-------4-----------|--------|--------|---------------5-------4-----------|
B|-2---2--2--2-------2-------0---0---|--------|--------|-2---2--2--2-------2-------0---0---|


D|---------------------------------|-----------------------------------|------------------------------|
A|---------------------------------|-----------------------------------|------------------------------|
E|---------------------------------|---------------5-------4-----------|-1---2---1-------1------------|
B|-2---3---2---0---2---3---2---0---|-2---2--2--2-------2-------0---0---|-------------3-------2---3----|


D|-----------------------------------|---------------------------------|-----------------------------------|
A|-----------------------------------|---------------------------------|-----------------------------------|
E|---------------5-------4-----------|---------------------------------|---------------5-------4-----------|
B|-2---2--2--2-------2-------0---0---|-2---3---2---0---2---3---2---0---|-2---2--2--2-------2-------0---0---|


D|--------------------------|---------------------------------|---------------------------------|
A|----------------4---------|---------------------------------|---------------------------------|
E|-----------0--------------|-7---7---7---7---7---7---7---7---|-9---9---9---9---10--10--10--10--|
B|-2----3--------------14---|---------------------------------|---------------------------------|


D|---------------------------------|---------------------------------|---------------------------------|
A|-10--10--10--10--10--10--10--10--|-7---7---7---7---9---9---9---9---|---------------------------------|
E|---------------------------------|---------------------------------|-7---7---7---7---7---7---7---7---|
B|---------------------------------|---------------------------------|---------------------------------|


D|---------------------------------|---------------------------------|---------------------------------|
A|---------------------------------|-10--10--10--10--10--10--10--10--|-7---7---7---7---9---9---9---9---|
E|-9---9---9---9---10--10--10--10--|---------------------------------|---------------------------------|
B|---------------------------------|---------------------------------|---------------------------------|


D|------------------------------|------------------------------|------------------------------|
A|------------------------------|------------------------------|------------------------------|
E|-3----3-------3---3---3---3---|-3----3-------3---3---3---5---|-5----5-------5---5---5---5---|
B|------------------------------|------------------------------|------------------------------|


D|------------------------------|---------------------------------|---------------------------------|
A|------------------------------|---------------------------------|---------------------------------|
E|-5----5-------5---5---5-------|---------------------------------|---------------------------------|
B|--------------------------0---|-0---0---0---0---0---0---0---0---|-0---0---0---0---0---0---0---0---|


D|---------------------------------|---------------------------------|------------------------------|
A|---------------------------------|---------------------------------|------------------------------|
E|---------------------------------|-----------------------------3---|-3----3-------3---3---3---3---|
B|-0---0---0---0---0---0---0---0---|-0---0---0---0---0---0---0-------|------------------------------|


D|------------------------------|-------------|-----------------------------------|
A|------------------------------|-------------|-----------------------------------|
E|-3----3-------3---3---3---2---|-2-----------|---------------5-------4-----------|
B|------------------------------|-------------|-2---2--2--2-------2-------0---0---|


D|---------------------------------|-----------------------------------|------------------------------|
A|---------------------------------|-----------------------------------|------------------------------|
E|---------------------------------|---------------5-------4-----------|-1---2---1-------1------------|
B|-2---3---2---0---2---3---2---0---|-2---2--2--2-------2-------0---0---|-------------3-------2---3----|


D|-----------------------------------|---------------------------------|-----------------------------------|
A|-----------------------------------|---------------------------------|-----------------------------------|
E|---------------5-------4-----------|---------------------------------|---------------5-------4-----------|
B|-2---2--2--2-------2-------0---0---|-2---3---2---0---2---3---2---0---|-2---2--2--2-------2-------0---0---|


D|--------------------------|-----------------------------------|---------------------------------|
A|----------------4---------|-----------------------------------|---------------------------------|
E|-----------0--------------|---------------5-------4-----------|---------------------------------|
B|-2----3--------------14---|-2---2--2--2-------2-------0---0---|-2---3---2---0---2---3---2---0---|


D|-----------------------------------|------------------------------|-----------------------------------|
A|-----------------------------------|------------------------------|-----------------------------------|
E|---------------5-------4-----------|-1---2---1-------1------------|---------------5-------4-----------|
B|-2---2--2--2-------2-------0---0---|-------------3-------2---3----|-2---2--2--2-------2-------0---0---|


D|---------------------------------|-----------------------------------|--------------------------|
A|---------------------------------|-----------------------------------|----------------4---------|
E|---------------------------------|---------------5-------4-----------|-----------0--------------|
B|-2---3---2---0---2---3---2---0---|-2---2--2--2-------2-------0---0---|-2----3--------------14---|


D|---------------------------------|---------------------------------|---------------------------------|
A|---------------------------------|---------------------------------|-10--10--10--10--10--10--10--10--|
E|-7---7---7---7---7---7---7---7---|-9---9---9---9---10--10--10--10--|---------------------------------|
B|---------------------------------|---------------------------------|---------------------------------|


D|---------------------------------|---------------------------------|---------------------------------|
A|-7---7---7---7---9---9---9---9---|---------------------------------|---------------------------------|
E|---------------------------------|-7---7---7---7---7---7---7---7---|-9---9---9---9---10--10--10--10--|
B|---------------------------------|---------------------------------|---------------------------------|


D|---------------------------------|---------------------------------|------------------------------|
A|-10--10--10--10--10--10--10--10--|-7---7---7---7---9---9---9---9---|------------------------------|
E|---------------------------------|---------------------------------|-3----3-------3---3---3---3---|
B|---------------------------------|---------------------------------|------------------------------|


D|------------------------------|------------------------------|------------------------------|
A|------------------------------|------------------------------|------------------------------|
E|-3----3-------3---3---3---5---|-5----5-------5---5---5---5---|-5----5-------5---5---5-------|
B|------------------------------|------------------------------|--------------------------0---|


D|---------------------------------|---------------------------------|---------------------------------|
A|---------------------------------|---------------------------------|---------------------------------|
E|---------------------------------|---------------------------------|---------------------------------|
B|-0---0---0---0---0---0---0---0---|-0---0---0---0---0---0---0---0---|-0---0---0---0---0---0---0---0---|


D|---------------------------------|------------------------------|------------------------------|
A|---------------------------------|------------------------------|------------------------------|
E|-----------------------------3---|-3----3-------3---3---3---3---|-3----3-------3---3---3---2---|
B|-0---0---0---0---0---0---0-------|------------------------------|------------------------------|


D|-------------|----------------|------------------------------|------------------------------|
A|-------------|----------------|------------------------------|------------------------------|
E|-2-----------|----------------|------5-----------------------|------5-----------------------|
B|-------------|--------3---0---|-0--------0---3---0---1---0---|-0--------0---3---0---1---0---|


D|------------------------------|------------------------------|------------------------------|
A|------------------------------|------------------------------|------------------------------|
E|------5-----------------------|------5-----------------------|------5-----------------------|
B|-0--------0---3---0---1---0---|-0--------0---3---0---1---0---|-0--------0---3---0---1---0---|


D|------------------------------|------------------------------|------------------------------|
A|------------------------------|------------------------------|------------------------------|
E|------5-----------------------|------5-----------------------|------5-----------------------|
B|-0--------0---3---0---1---0---|-0--------0---3---0---1---0---|-0--------0---3---0---1---0---|


D|-------------------------------------------------|-------------------------------------------------|
A|-------------------------------------------------|-------------------------------------------------|
E|-3---3---3---3---3---3---3---3---3---3---3---3---|-3---3---3---3---3---3---3---3---3---3---3---3---|
B|-------------------------------------------------|-------------------------------------------------|


D|-------------------------------------------------|-------------------------------------------------|
A|-------------------------------------------------|-------------------------------------------------|
E|-3---3---3---3---3---3---3---3---3---3---3---3---|-3---3---3---3---3---3---3---3---3---3---3---3---|
B|-------------------------------------------------|-------------------------------------------------|


D|------------------------------|------------------------------|------------------------------|
A|------------------------------|------------------------------|------------------------------|
E|------5-----------------------|------5-----------------------|------5-----------------------|
B|-0--------0---3---0---1---0---|-0--------0---3---0---1---0---|-0--------0---3---0---1---0---|


D|------------------------------|-------------------------------------------------|
A|------------------------------|-------------------------------------------------|
E|------5-----------------------|-3---3---3---3---3---3---3---3---3---3---3---3---|
B|-0--------0---3---0---1---0---|-------------------------------------------------|


D|-------------------------------------------------|-------------------------------------------------|
A|-------------------------------------------------|-------------------------------------------------|
E|-3---3---3---3---3---3---3---3---3---3---3---3---|-5---5---5---5---5---5---5---5---5---5---5---5---|
B|-------------------------------------------------|-------------------------------------------------|


D|-------------------------------------------------|------------------------------|
A|-------------------------------------------------|------------------------------|
E|-5---5---5---5---5---5---5---5---5---5---5---5---|------5-----------------------|
B|-------------------------------------------------|-0--------0---3---0---1---0---|


D|------------------------------|------------------------------|------------------------------|
A|------------------------------|------------------------------|------------------------------|
E|------5-----------------------|------5-----------------------|------5-----------------------|
B|-0--------0---3---0---1---0---|-0--------0---3---0---1---0---|-0--------0---3---0---1---0---|


D|-------------------------------------------------|-------------------------------------------------|
A|-------------------------------------------------|-------------------------------------------------|
E|-3---3---3---3---3---3---3---3---3---3---3---3---|-3---3---3---3---3---3---3---3---3---3---3---3---|
B|-------------------------------------------------|-------------------------------------------------|


D|-------------------------------------------------|-------------------------------------------------|
A|-------------------------------------------------|-------------------------------------------------|
E|-3---3---3---3---3---3---3---3---3---3---3---3---|-3---3---3---3---3---3---3---3---3---3---3---3---|
B|-------------------------------------------------|-------------------------------------------------|


D|------------------------------|------------------------------|------------------------------|
A|------------------------------|------------------------------|------------------------------|
E|------5-----------------------|------5-----------------------|------5-----------------------|
B|-0--------0---3---0---1---0---|-0--------0---3---0---1---0---|-0--------0---3---0---1---0---|


D|------------------------------|-------------------------------------------------|
A|------------------------------|-------------------------------------------------|
E|------5-----------------------|-3---3---3---3---3---3---3---3---3---3---3---3---|
B|-0--------0---3---0---1---0---|-------------------------------------------------|


D|-------------------------------------------------|-------------------------------------------------|
A|-------------------------------------------------|-------------------------------------------------|
E|-3---3---3---3---3---3---3---3---3---3---3---3---|-5---5---5---5---5---5---5---5---5---5---5---5---|
B|-------------------------------------------------|-------------------------------------------------|


D|-------------------------------------------------|--------------------------------|
A|-------------------------------------------------|--------------------------------|
E|-5---5---5---5---5---5---5---5---5---5---5---5---|--------------------------------|
B|-------------------------------------------------|-0--------0--0--0---0---0-------|


D|-------------------------------------|--------------------------------|-------------------------------------|
A|-------------------------------------|--------------------------------|-------------------------------------|
E|-------------------------------------|-2--------2--2--2---2---2-------|-----2-------2--2--2---2---2--2--2---|
B|-----0-------0--0--0---0---0--0--0---|--------------------------------|-------------------------------------|


D|--------------------------------|-------------------------------------|--------------------------------|
A|--------------------------------|-------------------------------------|--------------------------------|
E|--------------------------------|-------------------------------------|--------------------------------|
B|-0--------0--0--0---0---0-------|-----0-------0--0--0---0---0--0--0---|-0--------0--0--0---0---0-------|


D|-------------------------------------|--------------------------------|-------------------------------------|
A|-------------------------------------|--------------------------------|-------------------------------------|
E|-------------------------------------|--------------------------------|-------------------------------------|
B|-----0-------0--0--0---0---0--0--0---|-0--------0--0--0---0---0-------|-----0-------0--0--0---0---0--0--0---|


D|--------------------------------|-------------------------------------|--------------------------------|
A|--------------------------------|-------------------------------------|--------------------------------|
E|-2--------2--2--2---2---2-------|-----2-------2--2--2---2---2--2--2---|--------------------------------|
B|--------------------------------|-------------------------------------|-0--------0--0--0---0---0-------|


D|-------------------------------------|--------------------------------|-------------------------------------|
A|-------------------------------------|--------------------------------|-------------------------------------|
E|-------------------------------------|--------------------------------|-------------------------------------|
B|-----0-------0--0--0---0---0--0--0---|-0--------0--0--0---0---0-------|-----0-------0--0--0---0---0--0--0---|


D|-------------------------------------------------|------------------------------------------|
A|-------------------------------------------------|-------------------------------------4----|
E|-------------------------------------------------|------------------------------------------|
B|-0--2--2--2--2--2--0--2--2--2--2--2--0--2--2--2--|-2--2--0--2--2--2--2--2--0--2--2--2-------|


D|-------------------------------------------------|------------------------------------------|
A|-------------------------------------------------|-------------------------------------4----|
E|-------------------------------------------------|------------------------------------------|
B|-0--2--2--2--2--2--0--2--2--2--2--2--0--2--2--2--|-2--2--0--2--2--2--2--2--0--2--2--2-------|


D|-------------------------------------------------|------------------------------------------|
A|-------------------------------------------------|-------------------------------------4----|
E|-------------------------------------------------|------------------------------------------|
B|-0--2--2--2--2--2--0--2--2--2--2--2--0--2--2--2--|-2--2--0--2--2--2--2--2--0--2--2--2-------|


D|-------------------------------------------------|------------------------------------------|
A|-------------------------------------------------|-------------------------------------4----|
E|-------------------------------------------------|------------------------------------------|
B|-0--2--2--2--2--2--0--2--2--2--2--2--0--2--2--2--|-2--2--0--2--2--2--2--2--0--2--2--2-------|


D|-----------------|---------------------------------|-----------------|---------------------------|
A|-----------------|---------------------------------|-----------------|---------------------------|
E|-----------------|---------------------------------|-3-----3---3-----|-3---3---3----3---3----3---|
B|-0-----0---0-----|-0---0---0---0---0---0---0---0---|-----------------|---------------------------|


D|-----------------|---------------------------|---------------------------|------------------------|
A|-----------------|---------------------------|---------------------------|------------------------|
E|-5-----5---5-----|-5---5---5----5---5----5---|-2-----2-------2-------2---|-2-----2---2---2--------|
B|-----------------|---------------------------|---------------------------|------------------------|


D|-------------------------------------------------|---------------------|-----------------|
A|-------------------------------------------------|---------------------|-----------------|
E|-2---2---2---2---2---2---2---2---2---2---2---2---|-2----2----2----2----|-----------------|
B|-------------------------------------------------|---------------------|-2---------------|


D|---------------------------------|--------|------------------------------|--------|
A|---------------------------------|--------|------------------------------|--------|
E|---------------------------------|--------|-1---2---1-------1------------|--------|
B|-2---3---2---0---2---3---2---0---|--------|-------------3-------2---3----|--------|


D|---------------------------------|--------|--------------------------|-----------------------------------|
A|---------------------------------|--------|----------------4---------|-----------------------------------|
E|---------------------------------|--------|-----------0--------------|---------------5-------4-----------|
B|-2---3---2---0---2---3---2---0---|--------|-2----3--------------5----|-2---2--2--2-------2-------0---0---|


D|---------------------------------|-----------------------------------|------------------------------|
A|---------------------------------|-----------------------------------|------------------------------|
E|---------------------------------|---------------5-------4-----------|-1---2---1-------1------------|
B|-2---3---2---0---2---3---2---0---|-2---2--2--2-------2-------0---0---|-------------3-------2---3----|


D|-----------------------------------|---------------------------------|-----------------------------------|
A|-----------------------------------|---------------------------------|-----------------------------------|
E|---------------5-------4-----------|---------------------------------|---------------5-------4-----------|
B|-2---2--2--2-------2-------0---0---|-2---3---2---0---2---3---2---0---|-2---2--2--2-------2-------0---0---|


D|--------------------------|-------------------------------|-----------------------------------|
A|----------------4---------|-------------------------------|-----------------------------------|
E|-----------0--------------|-------------------------------|---------------5-------4-----------|
B|-2----3--------------5----|-0----0----0----0----0----0----|-2---2--2--2-------2-------0---0---|


D|---------------------------------|-----------------------------------|------------------------------|
A|---------------------------------|-----------------------------------|------------------------------|
E|---------------------------------|---------------5-------4-----------|-1---2---1-------1------------|
B|-2---3---2---0---2---3---2---0---|-2---2--2--2-------2-------0---0---|-------------3-------2---3----|


D|-----------------------------------|---------------------------------|-----------------------------------|
A|-----------------------------------|---------------------------------|-----------------------------------|
E|---------------5-------4-----------|---------------------------------|---------------5-------4-----------|
B|-2---2--2--2-------2-------0---0---|-2---3---2---0---2---3---2---0---|-2---2--2--2-------2-------0---0---|


D|--------------------------|---------------------------------|---------------------------------|
A|----------------4---------|---------------------------------|---------------------------------|
E|-----------0--------------|-7---7---7---7---7---7---7---7---|-9---9---9---9---10--10--10--10--|
B|-2----3--------------5----|---------------------------------|---------------------------------|


D|---------------------------------|---------------------------------|---------------------------------|
A|-10--10--10--10--10--10--10--10--|-7---7---7---7---9---9---9---9---|---------------------------------|
E|---------------------------------|---------------------------------|-7---7---7---7---7---7---7---7---|
B|---------------------------------|---------------------------------|---------------------------------|


D|---------------------------------|---------------------------------|---------------------------------|
A|---------------------------------|-10--10--10--10--10--10--10--10--|-7---7---7---7---9---9---9---9---|
E|-9---9---9---9---10--10--10--10--|---------------------------------|---------------------------------|
B|---------------------------------|---------------------------------|---------------------------------|


D|------------------------------|------------------------------|------------------------------|
A|------------------------------|------------------------------|------------------------------|
E|-3----3-------3---3---3---3---|-3----3-------3---3---3---5---|-5----5-------5---5---5---5---|
B|------------------------------|------------------------------|------------------------------|


D|------------------------------|---------------------------------|---------------------------------|
A|------------------------------|---------------------------------|---------------------------------|
E|-5----5-------5---5---5-------|---------------------------------|---------------------------------|
B|--------------------------0---|-0---0---0---0---0---0---0---0---|-0---0---0---0---0---0---0---0---|


D|---------------------------------|---------------------------------|------------------------------|
A|---------------------------------|---------------------------------|------------------------------|
E|---------------------------------|-----------------------------3---|-3----3-------3---3---3---3---|
B|-0---0---0---0---0---0---0---0---|-0---0---0---0---0---0---0-------|------------------------------|


D|------------------------------|------------------------------|------------------------------|
A|------------------------------|------------------------------|------------------------------|
E|-3----3-------3---3---3---5---|-5----5-------5---5---5---5---|-5----5-------5---5---5-------|
B|------------------------------|------------------------------|--------------------------0---|


D|---------------------------------|---------------------------------|---------------------------------|
A|---------------------------------|---------------------------------|---------------------------------|
E|---------------------------------|---------------------------------|---------------------------------|
B|-0---0---0---0---0---0---0---0---|-0---0---0---0---0---0---0---0---|-0---0---0---0---0---0---0---0---|


D|---------------------------------|------------------------------|------------------------------|
A|---------------------------------|------------------------------|------------------------------|
E|-----------------------------3---|-3----3-------3---3---3---3---|-3----3-----------------------|
B|-0---0---0---0---0---0---0-------|------------------------------|--------------6---5---6---3---|


D|--------|-----------------------|
A|--------|-----------------------|
E|--------|-----------------------|
B|--------|-3---2---3---0---------|