Site menu:

    

Browse: 0-9 A B C D E F G H I J K L N O P Q R S T U V W X Y Z

soilwork - possessing the angels:



#----------------------------------PLEASE NOTE---------------------------------#
#This file is the author's own work and represents their interpretation of the #
#song. You may only use this file for private study, scholarship, or research. #
#------------------------------------------------------------------------------#

  Visit MetalTabs.com for more metal tablature
  
Soilwork
Possessing the Angels
The Chainheart Machine

Intro
|------------------------------------------------------------|
|------------------------------------------------------------|
|-10-9---------------------------------------------------10-9|
|-10-9---------------------------45-2--------------------10-9| gtr1
|-8--7---------------------------45-2(let ring)----------8--7|
|0--0-0--------------------------23-0-------------------0--0-|
|                                                            |
|------------------------------------------------------------|
|------------------------------------------------------------|
|-10-9---------------------------------------------------10-9|
|-10-9--2------2------2------2------2------2------2------10-9| gtr2
|-8--7---------------------------------------------------8--7|
|0--0----020232-020232-020232-020232-020232-020232-020232--0-|
Verse
|------------------------------------------------------------|
|5------5------5------5------5------5------------------------|
|------------------------------------------------------------|
|-------------------------------------------44444444-55555555| gtr1
|-------------------------------------------44444444-55555555|
|-020232-020232-020232-020232-020232-020232-22222222-33333333|
|                                                            |
|------------------------------------------------------------|
|------------------------------------------------------------|
|------------------------------------------------------------|
|2------2------2------2------2------2-------44444444-55555555| gtr2
|-------------------------------------------44444444-55555555|
|-020232-020232-020232-020232-020232-020232-22222222-33333333|
Chorus
|-------------------------------------|
|-------------------------------------|
|-----------------------------5-4--8-7|
|-----------------------------5-4--8-7| gtr1+2
|-----------------------------3-2--6-5|
|0h2-0-0h4-0-0h5-0h7-0-0h6-0h5--------|
Bridge
|----------------------|
|----------------------|
|9---16-----9-10-12--11|
|9---16----------------|gtr1+2
|7---14-----7-8--10--9-|
|-------0000-0--0---0--|
Solo:

|--------------------------------------------------------11-13-14-11---11-13-14br---
|-----------------------------------------------------------------------------------
|8-10-11-8---8-10-11br---11br-10-8---8-10-11-8-8-10-11b-----------------------------
|-----------------------------------------------------------------------------------
|-----------------------------------------------------------------------------------
|-----------------------------------------------------------------------------------

-14br-13-11---11-13-14-11-11-13-14b-|
------------------------------------|
------------------------------------|
------------------------------------|
------------------------------------|
------------------------------------|
    p.m---------
|---------------7p6------7p6-7p6-----------------------------------------------------------
|--------7-9-7-9---9-7--7---9---9-7--7-------11--12-9--11-7--9-6---9p7--7------------------
|8~--8-10-------------10-----------10-10-8~---------------------------10-10-8-11p10-10-10p8
|------------------------------------------------------------------------------------------
|------------------------------------------------------------------------------------------
|------------------------------------------------------------------------------------------

--------|
--------|
--8~w.b.|
11------|
--------|
--------|
                x4        x7    t.p.-----------------
|-----------------|---------|17b---------------------20b|
|---12-15-17-15-17|-17-15-12|---------------------------|
|14b--------------|---------|-----9-10-12-13-15-17-19---|
|-----------------|---------|---------------------------|
|-----------------|---------|---------------------------|
|-----------------|---------|---------------------------|

|-----17-15--17br-17br-17-17b--------------------------------------------------------------
|---15---------------------------15p14-14-14p12-12-12p10-10-10p9~--------------------------
|/15--------------------------------------------------------------17br-17br-17b----14-16-14
|-----------------------------/17-----------------------------------------------/17--------
|------------------------------------------------------------------------------------------
|------------------------------------------------------------------------------------------

------------17b-15-17-15-20b|
----------------------------|
---16-18-16-----------------|
/19-------------------------|
----------------------------|
----------------------------|

  Visit MetalTabs.com for more metal tablature