Site menu:

    

Browse: 0-9 A B C D E F G H I J K L N O P Q R S T U V W X Y Z

soilwork - follow the hollow:



#----------------------------------PLEASE NOTE---------------------------------#
#This file is the author's own work and represents their interpretation of the #
#song. You may only use this file for private study, scholarship, or research. #
#------------------------------------------------------------------------------#

  Visit MetalTabs.com for more metal tablature
  
Band:  Soilwork
Album: Natural Born Chaos
Song:  Follow the Hollow

Copyright (c)  Nuclear Blast 2002
Version 1.0 - 07.07.02

Transcribed By:  RJB a.k.a. "the Avengalist"
Email:           geetaro@hotmail.com


.  - palm mute           /  - slide up to
\  - slide down to       ~  - vibrato
h  - hammer on           b  - Bend
p  - pull off            Suffixes for bend
t  - tap                 f  - full bend    h - half bend
ph - pinched harmonic    q  - quarter bend t - tap bend
*  - see comment         ^  - Hold bend    r release bend
x  - Stuccatto           ~  - vibrato bend
,  - slight palm mute    () - ghost note, sustained note
"  - tremolo note        <> - Trill

Just the solo --- the rest of the song is f***ing crazy - too much
going on for me to transcribe accurately.  I may try anyway though.
Horns up, Soilmates!  - RJB


Tunning b G D A E B

Lead - Frenning

|--------13--------------|------------------------------------------|
|-\10-11-----------------|---------11-13/15-15b16^--15p-13h-15~~~~--|
|-----------------10--~~~|------12----------------------------------|
|------------\7-8--------|5-7-8-------------------------------------|
|------------------------|------------------------------------------|
|------------------------|------------------------------------------|

|-------------------------------------------------------------------|
|16-15-13-15-~~--16-15-13----------------------------16/15/13-~~~~~~|
|----------------------------------14/12/11----------17/15/14-~~~~~~|
|-------------------------15/13/12----------13/12/10----------------|
|-------------------------------------------------------------------|
|-------------------------------------------------------------------|

|-------------------------------------------------------------------|
|15/13/11-~~~~~~~~~~~~---8-~~~~~~~~~~~~~----------------------------|
|15/14-------------------8-~~~~~~~~~~~~~----------------------------|
|------12-~~~~~~~~~~~~----------------------------------------------|
|-------------------------------------------------------------------|
|-------------------------------------------------------------------|

Horns up, Soilmates!  - RJB

  Visit MetalTabs.com for more metal tablature