Site menu:

    

Browse: 0-9 A B C D E F G H I J K L N O P Q R S T U V W X Y Z

soilwork - as we speak:



#----------------------------------PLEASE NOTE---------------------------------#
#This file is the author's own work and represents their interpretation of the #
#song. You may only use this file for private study, scholarship, or research. #
#------------------------------------------------------------------------------#

  Visit MetalTabs.com for more metal tablature
  
Song: As We Speak
Artist: Soilwork
Album: Natural Born Chaos (Nuclear Blast, 2002)
Tabber: Daniel Molnar (Azrael666isGod@hotmail.com)

Palm Mute: pm
Pull Off: p
Let Ring: ~
Slide: /

Normal Soilwork tuning

Intro:
|-------------------------------------------------------------------------------------
|-------------------------------------------------------------------------------------
|-------------------------------------------------------------------------------------
|-22222-5-2-2-2-2---------------------------------------------------------------------
|-22222-5-2-2-2-2---------------------------------------------------------------------
|-00000-3-0-0-0-0---------------------------------------------------------------------
pm.....   . . . .

Chorus:
|-------------------------------------------------------------------------------------
|-------------------------------------------------------------------------------------
|---------------------------------------7-7-7-7-7-------------------------------------
|-2222222222222-3-2-3-2-3-2-3-2-3-2-3------------------/5--4-------------------------- x3
|-2222222222222-3-2-3-2-3-2-3-2-3-2-3---5-5-5-5-5------/5--4--------------------------
|-0000000000000-1p0-1p0-1p0-1p0-1p0-1------------------/3--2--------------------------
pm                .   .   .   .   .

Verse:
|-------------------------------------------------------------------------------------
|-------------------------------------------------------------------------------------
|------------16~---------------17~----------------12~-----------------14~-------------
|------------------------------------------------------------------------------------- x2
|-2222222222-14~-2-2-2-2-2-2-2-15~-2-2-2-2--2-2-2-10~-2-2-2-2-2-2-2-2-12~-------------
|-0000000000-----0-0-0-0-0-0-0-----0-0-0-0--0-0-0-----0-0-0-0-0-0-0-0-----------------
pm..........     . . . . . . .     . . . .  . . .     . . . . . . . .

Chorus

Verse2:
|-------------------------------------------------------------------------------------
|-------------------------------------------------------------------------------------
|----------------------------------------------------------------------------7~-------
|-2222222222-----2-2-2-2-2-2-2-2-2-----2-2-2-2--2--2-2-----------------------7~-------
|-2222222222-----2-2-2-2-2-2-2-2-2-----2-2-2-2--2--2-2-----2-2-2-2-2-2-2-2-2-5~-------
|-0000000000-----0-0-0-0-0-0-0-0-0-----0-0-0-0--0--0-0-----0-0-0-0-0-0-0-0-0----------

Verse x2

Interlude:
|-------------------------------------------------------------------------------------
|-------------------------------------------------------------------------------------
|-----15-15-15-15-----15-15-15-15-----15-15-----16-16-16-16-----16-16-16-16-----16-16-
|-------------------------------------------------------------------------------------
|-----13-13-13-13-----13-13-13-13-----13-13-----14-14-14-14-----14-14-14-14-----14-14-
|-0-0-------------0-0-------------0-0-------0-0-------------0-0-------------0-0-------
pm. .             . .             . .       . .             . .             . .

|-------------------------------------------------------------------------------------
|-------------------------------------------------------------------------------------
|-----15-15-15-15-----15-15-15-15-----15-15-----16-16-16-16-----16/18-18/19-19--------
|-------------------------------------------------------------------------------------
|-----13-13-13-13-----13-13-13-13-----13-13-----14-14-14-14-----14/16-16/17-17--------
|-0-0-------------0-0-------------0-0-------0-0-------------0-0-----------------------
pm. .             . .             . .       . .             . .

Under First Solo:
|-------------------------------------------------------------------------------------
|-------------------------------------------------------------------------------------
|-------------------------------------------------------------------------------------
|-------------------------------------------------------------------------------------
|-2-2---2-2-2---2-2--2-2---2-2-2------------------------------------------------------
|-0-0---0-0-0---0-0--0-0---0-0-0------------------------------------------------------

Under Second Solo:
|-------------------------------------------------------------------------------------
|-------------------------------------------------------------------------------------
|-------------------------------------------------------------------------------------
|-------------------4444444444444444--------------------------------------------------
|-4444444444444444--2222222222222222--------------------------------------------------
|-2222222222222222--------------------------------------------------------------------

|-------------------------------------------------------------------------------------
|-------------------------------------------------------------------------------------
|-------------------------------------------------------------------------------------
|-22222-5-2-2-2-2---------------------------------------------------------------------
|-22222-5-2-2-2-2---------------------------------------------------------------------
|-00000-3-0-0-0-0---------------------------------------------------------------------
pm.....   . . . .

Chorus x3

Fade out. Hope you enjoy it! This tab most likely sucks like my other tabs
(Burzum - Naar Himmelen Klarner, Sear Bliss - Twilight, and In Flames - Cloud Connected).
Any questions, comments, corrections (gonna be expecting a LOT of those), email me.
Have phun!

  Visit MetalTabs.com for more metal tablature