Site menu:

    

Browse: 0-9 A B C D E F G H I J K L N O P Q R S T U V W X Y Z

saprogenic - force fed exrement:



/---------------------------------------------------------------------------
/ The following is the author's own interpretation of the song, to be used -
/ for studying or private use only, removal of any part of this ten line   -
/ header is illegal!!!  Removal of the transcribers name or anything       -
/ relevant to the transcriber is also illegal, as so is the removal of the -
/ place inwhich the tab was downloaded. Publishing as well as printing of  -
/ the tab is illegal without permission of the transcriber and copyright   -
/ owner of the song. Failure to apply to these laws result will in legal   -
/ action from the appropriate parties.                                     -
/---------------------------------------------------------------------------

downloaded from Displacer's Tablature Site at
        http://www.dsrmusic.com/metaltab
join the death/black tab emailing list by filling out the free
subscription form at http://www.dsrmusic.com/metaltab/join.htm


#----------------------------------PLEASE NOTE---------------------------------#
#This file is the author's own work and represents their interpretation of the #
#song. You may only use this file for private study, scholarship, or research. #
#------------------------------------------------------------------------------#

  Visit MetalTabs.com for more metal tablature
  
                               FORCE FED EXCREMENT
                            As recorded by Saprogenic
            (From the 2003 Album THE WET SOUND OF FLESH ON CONCRETE)

Transcribed by Lewis Porter (lewis@chaosphereonline.com)

This is my first tab, and its accurate as far as I can tell (unless a member
of Saprogenic wants to correct me ;]).
I used a vocal remover to isolate the guitar, because some parts were
very hard to hear cos of the mix.

Enjoy! \m/ \m/


Tune to BEADGB
    Q=250
   3/4

(0:00) INTRO/OUTRO:
    Gtr I
    TP TP TP   TP TP TP   TP TP TP   TP TP TP   TP TP TP   TP TP TP
||-----------|----------|----------|----------|----------|-----------|
||-----------|----------|----------|----------|----------|-----------|
||o----------|----------|----------|----------|----------|-----------|
||-----5--4--|----------|----5--4--|----------|----5--4--|-----------|
||o----------|----6--5--|----------|----6--5--|----------|----6--5---|
||--3--------|----------|-3--------|----------|-3--------|-----------|
||-----------|-4--------|----------|-4--------|----------|-4---------|



  PM----|     PM-|
                    4x
|-------------------||----
|-------------------||----
|------------------o||----
|-------------------||----
|---------5s6------o||----
|-5--3--5-3s4-5--3--||----
|-3--1--3-----3--1--||----


(0:25) FIRST BREAKDOWN:
    Q=85                          Q=250
   4/4
        PM---------------|
                               5x
||-----------------------------||--
||-----------------------------||--
||o---------------------------o||--
||-----------------------------||--
||o---------------------------o||--
||--/7--6--4--3--4--5--3-4-3---||--
||--/5--4--2--1--2--3--1-2-1---||--


(0:55) RIFF 2                                                                   ~~~
                                                                          4x
||------------------|-----------------|-----------------|-----------------||
||------------------|-----------------|-----------------|-----------------||
||o-----------------|-----------------|-----------------|----------------o||
||------------------|-----------------|-----------------|-----------------||
||o-----------------|-----------------|-----------------|----------------o||
||--9p6-0-0-8p5-0-0-|-7p4-0-0-6p3-0-0-|-9p6-0-0-8p5-0-0-|-7p4-0-0-[3]-----||
||------------------|-----------------|-----------------|-----------------||

(1:11) RIFF 3

  PM  TP  TP TP TP TP   PM  TP  TP TP TP TP
|---------------------|---------------------||----
|---------------------|---------------------||----
|---------------------|--------------------o||----
|---------------------|---------------------||----
|---------------------|---------------4--3-o||----
|-2---1---4--3--------|-2---1---4--3--------||----
|---------------2--1--|---------------------||----

(1:28) RIFF 4
||-------------------------------------------||----|
||-------------------------------------------||----|
||o-----------------------------------------o||----|
||-------------------------------------------||----|
||o--------------------------------6--6-4-5-o||----|
||--2---6--5--4--1---4--3--1--0----4--4-2-3--||----|
||-------------------------------------------||----|

(1:54) SECOND BREAKDOWN
                                       8x
||-------------------------------------||----|
||-------------------------------------||----|
||o-----------------------------------o||----|
||-------------------------------------||----|
||o-----------------------------------o||----|
||--6---5--[3]--6-4-6-5-------6-4-6-5--||----|
||--4---3-------4-2-4-3--[3]--4-2-4-3--||----|

Song Order:
Intro
First Breakdown
Riff 1
Riff 2
Riff 3
Riff 4
Second Breakdown
Outro (guitar 2 plays a minor 3rd harmony after first 2 times)

Tablature Legend
----------------
 h   - hammer-on
 p   - pull-off
 b   - bend
 pb  - pre-bend
 r   - bend release (if no number after the r, then release immediately)
 /\  - slide into or out of (from/to "nowhere")
 s   - legato slide
 S   - shift slide
  - natural harmonic
[n]  - artificial harmonic
n(n) - tapped harmonic
 ~   - vibrato
 tr  - trill
 T   - tap
 TP  - trem. picking
 PM  - palm muting
\n/  - tremolo bar dip; n = amount to dip
 \n  - tremolo bar down
 n/  - tremolo bar up
/n\  - tremolo bar inverted dip
 =   - hold bend; also acts as connecting device for hammers/pulls
 <>  - volume swell (louder/softer)
 x   - on rhythm slash represents muted slash
 o   - on rhythm slash represents single note slash

Misc Legend
-----------
 |  - bar
||  - double bar
||o - repeat start
o|| - repeat end
*|  - double bar (ending)
 :  - bar (freetime)
 $  - Segno
 &  - Coda

  Visit MetalTabs.com for more metal tablature