Site menu:

    

Browse: 0-9 A B C D E F G H I J K L N O P Q R S T U V W X Y Z

samhain - horror biz:



+++ Ultimate Guitar Tabs Archive - your #1 source for tabs! +++
over 70,000 of guitar & bass tabs! Also lessons, news and forums!

-------------------------------------------------------------------------------
                               HORROR BIZ - Samhain
-------------------------------------------------------------------------------



Intro
e|-----|---------|
B|-----|---------|
G|-----|---------|
D|-----|---------|
A|-8-7-|-5-5-6-5-|
E|-6-5-|-3-3-4-3-|

Verse
e|-----------------|
B|-----------------|
G|-----------------|
D|-----------------|
A|-5-5-6-5---------|
E|-3-3-4-3-0000000-|
pm         .......

Chorus
e|---------------------------------|
B|---------------------------------|
G|---------------------------------|
D|-10-10-10-10---------------------|
A|--8--8--8--8-10-10-10-10-8-8-8-8-|
E|--------------8--8--8--8-6-6-6-6-|

Whole Verse

Chorus 2:
e|--------------|
B|--------------|
G|-10-----------|
D|-10-------10--|
A|--8--10-8-8---|
E|-----8--6-----|

  solo:
E|-13----------------------------------------------------------------|
B|----8-6-8--6-6-6-8-8-8-11-11-11-13-13-13---------------------------|
G|-----------------------------------------12-14-(trill these notes)-|
D|-------------------------------------------------------------------|
A|-------------------------------------------------------------------|
E|-------------------------------------------------------------------|