Site menu:

    

Browse: 0-9 A B C D E F G H I J K L N O P Q R S T U V W X Y Z

samhain - erlkoenig:



Title: Erlkoenig
Artist: 
Album: 
Author: Daniel Evans


Track 1: Flute

E|-------------|-----------------|----------------------------------|----------------------------------|
A|-------------|-----------------|----------------------------------|----------------------------------|
D|-------------|-----------------|-------------------------0--------|----------------------------------|
G|-0-----0-----|-0----7-----7----|-0---2--3--2---5---3--5------5----|-0---2--3--2---5---3--2--0---0----|


E|----------------------------------|----------------------------------|-------------------|
A|----------------------------------|----------------------------------|-------------------|
D|-------------------------0--------|----------------------------------|-------------0-----|
G|-0---2--3--2---5---3--5------5----|-0---2--3--2---5---3--2--0---0----|-0-----2--3--------|


E|---------------------------|-------------------|--------------------|-----------------------------------|
A|---------------------------|-------------------|--------------------|-----------------------------------|
D|-0-------------------------|-------------0-----|-0------------------|-5----0--3-1-0-------------0-------|
G|------3---2---0----3---2---|-0-----2--3--------|------3---2---0-----|----------------0--2--3--------0---|


E|---------------------------------------------|-----------------------------------|
A|---------------------------------------------|-----------------------------------|
D|-5----0--3-1-0-----------0---------5---------|-5----0--3-1-0-------------0-------|
G|----------------0--2-3-5---0-2-3-5----3--5---|----------------0--2--3--------0---|


E|---------------------------------------------|-----------------------------|----------------------------------|
A|---------------------------------------------|-----------------------------|----------------------------------|
D|-5----0--3-1-0-----------0---------5---------|--------------------0--------|-------------------------0--------|
G|----------------0--2-3-5---0-2-3-5----3--5---|-0---3---2----3--5------5----|-0---2--3--2---5---3--5------5----|


E|-----------------------------|----------------------------------|-------------------|
A|-----------------------------|----------------------------------|-------------------|
D|--------------------0--------|----------------------------------|-------------0-----|
G|-0---3---2----3--5------5----|-0---2--3--2---5---3--2--0---0----|-0-----2--3--------|


E|---------------------------|-------------------|--------------------|--------|--------|
A|---------------------------|-------------------|--------------------|--------|--------|
D|-0-------------------------|-------------0-----|-0------------------|--------|--------|
G|------3---2---0----3---2---|-0-----2--3--------|------3---2---0-----|--------|--------|


E|---------------------------------------------|--------------------------------------------------|
A|---------------------------------------------|--------------------------------------------------|
D|---------------------------------------------|--------------------------------------------------|
G|-0---2--3--3---2--3--0--5--3--2--0--5--3--2--|-0---5-2-3--3--0--3-2-3--0--5--3--2--0--5--3-2-5--|


E|---------------------------------------------|--------------------------------------------------|
A|---------------------------------------------|--------------------------------------------------|
D|---------------------------------------------|--------------------------------------------------|
G|-0---2--3--3---2--3--0--5--3--2--0--5--3--2--|-0---5-2-3--3--0--3-2-3--0--5--3--2--0--5--3-2-5--|


E|----------------------------------|----------------------------------|----------------------------------|
A|----------------------------------|----------------------------------|----------------------------------|
D|-------------------------0--------|----------------------------------|-------------------------0--------|
G|-0---2--3--2---5---3--5------5----|-0---2--3--2---5---3--2--0---0----|-0---2--3--2---5---3--5------5----|


E|----------------------------------|-------------------|---------------------------|
A|----------------------------------|-------------------|---------------------------|
D|----------------------------------|-------------0-----|-0-------------------------|
G|-0---2--3--2---5---3--2--0---0----|-0-----2--3--------|------3---2---0----3---2---|


E|-------------------|--------------------|--------|--------|---------------------------------------------------|
A|-------------------|--------------------|--------|--------|--------------------3-1-3---5-3-5--------3---------|
D|-------------0-----|-0------------------|--------|--------|----7-5-7---8-7-8------------------5-7-8-----------|
G|-0-----2--3--------|------3---2---0-----|--------|--------|-------------------------------------------2-3-5-7-|


E|-------------------------------------|---------------------------------------------------|
A|-------------------------------------|--------------------3-1-3---5-3-5--------3---------|
D|-------------------------------------|----7-5-7---8-7-8------------------5-7-8-----------|
G|-0----2----3----5----0-2-3-5-2-3-5-7-|-------------------------------------------2-3-5-7-|


E|-------------------------------------|---------------------------------------------------|
A|-------------------------------------|--------------------3-1-3---5-3-5--------3---------|
D|-------------------------------------|----7-5-7---8-7-8------------------5-7-8-----------|
G|-0----2----3----5----0-2-3-5-2-3-5-7-|-------------------------------------------2-3-5-7-|


E|-------------------------------------|-----------------------------|-------------------------|
A|-------------------------------------|-----------------------------|-------------------------|
D|-------------------------------------|--------------------0--------|-------------------------|
G|-0----2----3----5----0-2-3-5-2-3-5-7-|-0---3---2----3--5------5----|-0---2--3--2---5---5-----|


E|--------|--------|--------|--------|---------------------------------------------------------|
A|--------|--------|--------|--------|---------------------------------------------------------|
D|--------|--------|--------|--------|-----------------------------128-7--5--7-8-128-7--5--7-8-|
G|-5------|--------|--------|--------|-7-3-2--0--2-3-7-3-2--0--2-3-----------------------------|


E|---------------------------------------------------------|--------|--------|--------|
A|---------------------------------------------------------|--------|--------|--------|
D|-----------------------------128-7--5--7-8-128-7--5--7-8-|--------|--------|--------|
G|-7-3-2--0--2-3-7-3-2--0--2-3-----------------------------|--------|--------|--------|


E|--------|--------|--------|--------|--------|----------------------------------|
A|--------|--------|--------|--------|--------|----------------------------------|
D|--------|--------|--------|--------|--------|-------------------------0--------|
G|--------|--------|--------|--------|--------|-0---2--3--2---5---3--5------5----|


E|----------------------------------|----------------------------------|-------------------------|
A|----------------------------------|----------------------------------|-------------------------|
D|----------------------------------|-------------------------0--------|-------------------------|
G|-0---2--3--2---5---3--2--0---0----|-0---2--3--2---5---3--5------5----|-0---2--3--2---5---5-----|


E|--------|--------|
A|--------|--------|
D|--------|--------|
G|-5------|--------|





Track 2: Bass

C|--------|--------|--------|--------|--------|--------|----------------------------------|
G|--------|--------|--------|--------|--------|--------|----------------------------------|
D|--------|--------|--------|--------|--------|--------|-------------------------0--------|
A|--------|--------|--------|--------|--------|--------|-----0--1--0---3---1--3------3----|
E|--------|--------|--------|--------|--------|--------|-3--------------------------------|
B|--------|--------|--------|--------|--------|--------|----------------------------------|


C|--------|--------|----------------------------------|--------|--------|--------|
G|--------|--------|----------------------------------|--------|--------|--------|
D|--------|--------|----------------------------------|--------|--------|--------|
A|--------|--------|-----0--1--0---3---1--0-----------|--------|--------|--------|
E|--------|--------|-3-----------------------3---3----|--------|--------|--------|
B|--------|--------|----------------------------------|--------|--------|--------|


C|--------|--------|--------|--------|--------|--------|--------|----------------------------------|
G|--------|--------|--------|--------|--------|--------|--------|----------------------------------|
D|--------|--------|--------|--------|--------|--------|--------|-------------------------0--------|
A|--------|--------|--------|--------|--------|--------|--------|-----0--1--0---3---1--3------3----|
E|--------|--------|--------|--------|--------|--------|--------|-3--------------------------------|
B|--------|--------|--------|--------|--------|--------|--------|----------------------------------|


C|----------------------------------|------------------------------------|----------------------------------|
G|----------------------------------|------------------------------------|----------------------------------|
D|----------------------------------|------------------------------------|--------------0-------------------|
A|-----0--1--0---3---1--0-----------|-----0---1-------3--1--0-----0--1---|-----0---1-------3--0------0------|
E|-3-----------------------3---3----|-3------------3-----------3---------|-3----------------------3-----3---|
B|----------------------------------|------------------------------------|----------------------------------|


C|------------------------------------|----------------------------------|------------------------------------|
G|------------------------------------|----------------------------------|------------------------------------|
D|------------------------------------|--------------0-------------------|------------------------------------|
A|-----0---1-------3--1--0-----0--1---|-----0---1-------3--0------0------|-----0---1-------3--1--0-----0--1---|
E|-3------------3-----------3---------|-3----------------------3-----3---|-3------------3-----------3---------|
B|------------------------------------|----------------------------------|------------------------------------|


C|----------------------------------|--------|--------|--------|--------|--------|
G|----------------------------------|--------|--------|--------|--------|--------|
D|--------------0-------------------|--------|--------|--------|--------|--------|
A|-----0---1-------3--0------0------|--------|--------|--------|--------|--------|
E|-3----------------------3-----3---|--------|--------|--------|--------|--------|
B|----------------------------------|--------|--------|--------|--------|--------|


C|--------|----------------------------------|----------------------------------|--------|
G|--------|----------------------------------|----------------------------------|--------|
D|--------|-------------------------0--------|----------------------------------|--------|
A|--------|-----0--1--0---3---1--3------3----|-----0--1--0---3---1--0-----------|--------|
E|--------|-3--------------------------------|-3-----------------------3---3----|--------|
B|--------|----------------------------------|----------------------------------|--------|


C|--------|--------|--------|--------|--------|--------|--------|--------|--------|
G|--------|--------|--------|--------|--------|--------|--------|--------|--------|
D|--------|--------|--------|--------|--------|--------|--------|--------|--------|
A|--------|--------|--------|--------|--------|--------|--------|--------|--------|
E|--------|--------|--------|--------|--------|--------|--------|--------|--------|
B|--------|--------|--------|--------|--------|--------|--------|--------|--------|


C|--------|--------|--------|--------|--------|--------|--------|--------|--------|
G|--------|--------|--------|--------|--------|--------|--------|--------|--------|
D|--------|--------|--------|--------|--------|--------|--------|--------|--------|
A|--------|--------|--------|--------|--------|--------|--------|--------|--------|
E|--------|--------|--------|--------|--------|--------|--------|--------|--------|
B|--------|--------|--------|--------|--------|--------|--------|--------|--------|


C|--------|--------|--------|--------|--------|--------|--------|--------|--------|
G|--------|--------|--------|--------|--------|--------|--------|--------|--------|
D|--------|--------|--------|--------|--------|--------|--------|--------|--------|
A|--------|--------|--------|--------|--------|--------|--------|--------|--------|
E|--------|--------|--------|--------|--------|--------|--------|--------|--------|
B|--------|--------|--------|--------|--------|--------|--------|--------|--------|


C|--------|--------|
G|--------|--------|
D|--------|--------|
A|--------|--------|
E|--------|--------|
B|--------|--------|





Track 3: Piano

E|--------|--------|--------|--------|--------|--------|--------|---------------------------------------|
B|--------|--------|--------|--------|--------|--------|--------|---------------1------1--3---1---------|
G|--------|--------|--------|--------|--------|--------|--------|-0---2--3--2-------3-------------------|
D|--------|--------|--------|--------|--------|--------|--------|---------------------------------------|
A|--------|--------|--------|--------|--------|--------|--------|--------1--0---3---1-----3------1--3---|
E|--------|--------|--------|--------|--------|--------|--------|-3-------------------------------------|


E|-------------------------------------------|--------|--------|--------|--------|
B|-----------------1--------1--3-----1-------|--------|--------|--------|--------|
G|-0---2--3--2-----------3-------------------|--------|--------|--------|--------|
D|-------------------------------------------|--------|--------|--------|--------|
A|-3---1--0-----3--1--1-----3-----1--0--3----|--------|--------|--------|--------|
E|-------------------------------------------|--------|--------|--------|--------|


E|--------|----------------------------------|----------------------------------|----------------------------------|
B|--------|-------------------3--------------|-3----------------------3---------|-------------------3--------------|
G|--------|-0---2--0--2---3------------------|-----------3---2---0-------3--0---|-0---2--0--2---3------------------|
D|--------|-----------------------0----------|--------0------0------------------|-----------------------0----------|
A|--------|-----------0---1------------0--1--|-1---1-----3-------3--------------|-----------0---1------------0--1--|
E|--------|-3--------------------------------|----------------------------------|-3--------------------------------|


E|----------------------------------|---------------------------------------|-------------------------------------------|
B|-3----------------------3---------|---------------1------1--3---1---------|-----------------1--------1--3-----1-------|
G|-----------3---2---0-------3--0---|-0---2--3--2-------3-------------------|-0---2--3--2-----------3-------------------|
D|--------0------0------------------|---------------------------------------|-------------------------------------------|
A|-1---1-----3-------3--------------|--------1--0---3---1-----3------1--3---|-3---1--0-----3--1--1-----3-----1--0--3----|
E|----------------------------------|-3-------------------------------------|-------------------------------------------|


E|--------|--------|--------|--------|--------|--------|--------|--------|-----------------------------------------|
B|--------|--------|--------|--------|--------|--------|--------|--------|-------------------4---3--1--------------|
G|--------|--------|--------|--------|--------|--------|--------|--------|-0---2--0--2---3-------------3--2--0-----|
D|--------|--------|--------|--------|--------|--------|--------|--------|-----------------------0-----------------|
A|--------|--------|--------|--------|--------|--------|--------|--------|-----------0---1-------------3-----0--1--|
E|--------|--------|--------|--------|--------|--------|--------|--------|-3---------------------------------------|


E|---------------------------------------|------------------------------------------|
B|-3---1-----------------------3---------|-------------------4-------3-1------------|
G|-----------3---2---0------------3--0---|-0---2--0--2---3---------------2-3--0-----|
D|--------0------0-------------3---------|-----------------------0------------------|
A|-1---1-----3-------3---3--3------------|-----------0---1--------------------0--1--|
E|---------------------------------------|-3----------------------------------------|


E|--------------------------------------------------|---------------------------------------|
B|-3---1--------------------1-3--4-6-4-3--1---------|---------------1------1--3---1---------|
G|-----------3---2---0--2-3-----------------2-3-0---|-0---2--3--2-------3-------------------|
D|--------0------0------------0--1-3-1-0------------|---------------------------------------|
A|-1---1-----3----------0-1-3-------------3-0-1-----|--------1--0---3---1-----3------1--3---|
E|-------------------3--------------------------3---|-3-------------------------------------|


E|-------------------------------------------|--------|--------|----5-3-5-----6-5-6-----8-6-8-----108-10-8-5-6-8-5-6-8-10|
B|-----------------1--------1--3-----1-------|--------|--------|---------------------------------------------------------|
G|-0---2--3--2-----------3-------------------|--------|--------|---------------------------------------------------------|
D|-------------------------------------------|--------|--------|---------------------------------------------------------|
A|-3---1--0-----3--1--1-----3-----1--0--3----|--------|--------|---------------------------------------------------------|
E|-------------------------------------------|--------|--------|-3---------5---------6---------8---------3-5-6-8-5-6-8-10|


E|----5-3-5-----6-5-6-----8-6-8-----108-10-8-5-6-8-5-6-8-10|----5-3-5-----6-5-6-----8-6-8-----108-10-8-5-6-8-5-6-8-10|
B|---------------------------------------------------------|---------------------------------------------------------|
G|---------------------------------------------------------|---------------------------------------------------------|
D|---------------------------------------------------------|---------------------------------------------------------|
A|---------------------------------------------------------|---------------------------------------------------------|
E|-3---------5---------6---------8---------3-5-6-8-5-6-8-10|-3---------5---------6---------8---------3-5-6-8-5-6-8-10|


E|----5-3-5-----6-5-6-----8-6-8-----108-10-8-5-6-8-5-6-8-10|----5-3-5-----6-5-6-----8-6-8-----108-10-8-5-6-8-5-6-8-10|
B|---------------------------------------------------------|---------------------------------------------------------|
G|---------------------------------------------------------|---------------------------------------------------------|
D|---------------------------------------------------------|---------------------------------------------------------|
A|---------------------------------------------------------|---------------------------------------------------------|
E|-3---------5---------6---------8---------3-5-6-8-5-6-8-10|-3---------5---------6---------8---------3-5-6-8-5-6-8-10|


E|----5-3-5-----6-5-6-----8-6-8-----108-10-8-5-6-8-5-6-8-10|----5-3-5-----6-5-6-----8-6-8-----108-10-8-5-6-8-5-6-8-10|
B|---------------------------------------------------------|---------------------------------------------------------|
G|---------------------------------------------------------|---------------------------------------------------------|
D|---------------------------------------------------------|---------------------------------------------------------|
A|---------------------------------------------------------|---------------------------------------------------------|
E|-3---------5---------6---------8---------3-5-6-8-5-6-8-10|-3---------5---------6---------8---------3-5-6-8-5-6-8-10|


E|----5-3-5-----6-5-6-----8-6-8-----108-10-8-5-6-8-5-6-8-10|----------------------------------|
B|---------------------------------------------------------|-------------------3--------------|
G|---------------------------------------------------------|-0---2--0--2---3------------------|
D|---------------------------------------------------------|-----------------------0----------|
A|---------------------------------------------------------|-----------0---1------------0--1--|
E|-3---------5---------6---------8---------3-5-6-8-5-6-8-10|-3--------------------------------|


E|-------------------------|--------|--------|--------|--------|---------------------------------------|
B|-3-------------3---3-----|-3------|--------|--------|--------|---------------1------1--3---1---------|
G|-----------3---2---------|--------|--------|--------|--------|-0---2--3--2-------3-------------------|
D|--------0------0---0-----|-0------|--------|--------|--------|---------------------------------------|
A|-1---1-----3-------------|--------|--------|--------|--------|--------1--0---3---1-----3------1--3---|
E|-------------------------|--------|--------|--------|--------|-3-------------------------------------|


E|-------------------------------------------|--------|--------|--------|--------|
B|-----------------1--------1--3-----1-------|--------|--------|--------|--------|
G|-0---2--3--2-----------3-------------------|--------|--------|--------|--------|
D|-------------------------------------------|--------|--------|--------|--------|
A|-3---1--0-----3--1--1-----3-----1--0--3----|--------|--------|--------|--------|
E|-------------------------------------------|--------|--------|--------|--------|


E|--------|--------|--------|--------|--------|--------|--------|--------|--------|
B|--------|--------|--------|--------|--------|--------|--------|--------|--------|
G|--------|--------|--------|--------|--------|--------|--------|--------|--------|
D|--------|--------|--------|--------|--------|--------|--------|--------|--------|
A|--------|--------|--------|--------|--------|--------|--------|--------|--------|
E|--------|--------|--------|--------|--------|--------|--------|--------|--------|


E|--------|
B|--------|
G|--------|
D|--------|
A|--------|
E|--------|





Track 4: Mandolin

E|--------|--------|--------|--------|--------|--------|--------|--------|--------|
A|--------|--------|--------|--------|--------|--------|--------|--------|--------|
D|--------|--------|--------|--------|--------|--------|--------|--------|--------|
G|--------|--------|--------|--------|--------|--------|--------|--------|--------|


E|--------|-----------------------------------------------------|-----------------------------------------------------|
A|--------|-----------------------------------------------------|-----------------------------------------------------|
D|--------|-3--0-0-0--1--3--0-0-0--1--3--0-0-0--1--3--0-0-0--1--|-3--0-0-0--1--3--0-0-0--1--3--0-0-0--1--3--0-0-0--1--|
G|--------|-0--0-0-0--0--0--0-0-0--0--0--0-0-0--0--0--0-0-0--0--|-0--0-0-0--0--0--0-0-0--0--0--0-0-0--0--0--0-0-0--0--|


E|-----------------------------------------------------|-----------------------------------------------------|
A|-----------------------------------------------------|-----------------------------------------------------|
D|-3--0-0-0--1--3--0-0-0--1--3--0-0-0--1--3--0-0-0--1--|-3--0-0-0--1--3--0-0-0--1--3--0-0-0--1--3--0-0-0--1--|
G|-0--0-0-0--0--0--0-0-0--0--0--0-0-0--0--0--0-0-0--0--|-0--0-0-0--0--0--0-0-0--0--0--0-0-0--0--0--0-0-0--0--|


E|--------|--------|--------|--------|--------|--------|--------|--------|-----------------------------------------------------|
A|--------|--------|--------|--------|--------|--------|--------|--------|-----------------------------------------------------|
D|--------|--------|--------|--------|--------|--------|--------|--------|-3--0-0-0--1--3--0-0-0--1--3--0-0-0--1--3--0-0-0--1--|
G|--------|--------|--------|--------|--------|--------|--------|--------|-0--0-0-0--0--0--0-0-0--0--0--0-0-0--0--0--0-0-0--0--|


E|-----------------------------------------------------|-----------------------------------------------------|
A|-----------------------------------------------------|-----------------------------------------------------|
D|-3--0-0-0--1--3--0-0-0--1--3--0-0-0--1--3--0-0-0--1--|-3--0-0-0--1--3--0-0-0--1--3--0-0-0--1--3--0-0-0--1--|
G|-0--0-0-0--0--0--0-0-0--0--0--0-0-0--0--0--0-0-0--0--|-0--0-0-0--0--0--0-0-0--0--0--0-0-0--0--0--0-0-0--0--|


E|-----------------------------------------------------|-----------------------------------------------------|
A|-----------------------------------------------------|-----------------------------------------------------|
D|-3--0-0-0--1--3--0-0-0--1--3--0-0-0--1--3--0-0-0--1--|-3--0-0-0--1--3--0-0-0--1--3--0-0-0--1--3--0-0-0--1--|
G|-0--0-0-0--0--0--0-0-0--0--0--0-0-0--0--0--0-0-0--0--|-0--0-0-0--0--0--0-0-0--0--0--0-0-0--0--0--0-0-0--0--|


E|-----------------------------------------------------|--------|--------|--------|
A|-----------------------------------------------------|--------|--------|--------|
D|-3--0-0-0--1--3--0-0-0--1--3--0-0-0--1--3--0-0-0--1--|--------|--------|--------|
G|-0--0-0-0--0--0--0-0-0--0--0--0-0-0--0--0--0-0-0--0--|--------|--------|--------|


E|--------|--------|--------|--------|--------|-----------------------------------------------------|
A|--------|--------|--------|--------|--------|-----------------------------------------------------|
D|--------|--------|--------|--------|--------|-3--0-0-0--1--3--0-0-0--1--3--0-0-0--1--3--0-0-0--1--|
G|--------|--------|--------|--------|--------|-0--0-0-0--0--0--0-0-0--0--0--0-0-0--0--0--0-0-0--0--|


E|-----------------------------------------------------|-----------------------------------------------------|
A|-----------------------------------------------------|-----------------------------------------------------|
D|-3--0-0-0--1--3--0-0-0--1--3--0-0-0--1--3--0-0-0--1--|-3--0-0-0--1--3--0-0-0--1--3--0-0-0--1--3--0-0-0--1--|
G|-0--0-0-0--0--0--0-0-0--0--0--0-0-0--0--0--0-0-0--0--|-0--0-0-0--0--0--0-0-0--0--0--0-0-0--0--0--0-0-0--0--|


E|-----------------------------------------------------|-----------------------------------------------------|
A|-----------------------------------------------------|-----------------------------------------------------|
D|-3--0-0-0--1--3--0-0-0--1--3--0-0-0--1--3--0-0-0--1--|-3--0-0-0--1--3--0-0-0--1--3--0-0-0--1--3--0-0-0--1--|
G|-0--0-0-0--0--0--0-0-0--0--0--0-0-0--0--0--0-0-0--0--|-0--0-0-0--0--0--0-0-0--0--0--0-0-0--0--0--0-0-0--0--|


E|-----------------------------------------------------|-----------------------------------------------------|
A|-----------------------------------------------------|-----------------------------------------------------|
D|-3--0-0-0--1--3--0-0-0--1--3--0-0-0--1--3--0-0-0--1--|-3--0-0-0--1--3--0-0-0--1--3--0-0-0--1--3--0-0-0--1--|
G|-0--0-0-0--0--0--0-0-0--0--0--0-0-0--0--0--0-0-0--0--|-0--0-0-0--0--0--0-0-0--0--0--0-0-0--0--0--0-0-0--0--|


E|-----------------------------------------------------|--------|--------|--------|
A|-----------------------------------------------------|--------|--------|--------|
D|-3--0-0-0--1--3--0-0-0--1--3--0-0-0--1--3--0-0-0--1--|--------|--------|--------|
G|-0--0-0-0--0--0--0-0-0--0--0--0-0-0--0--0--0-0-0--0--|--------|--------|--------|


E|------------------------------|---------------------------------------------------|
A|------------------------------|---------------------------------------------------|
D|-5---5---3---2---0---0--------|-0------2------3------10--0------2------3------10--|
G|-5---5---3---2---0---0--------|-0--0-0-2--0-0-3--0-0-10--0--0-0-2--0-0-3--0-0-10--|


E|---------------------------------------------------|---------------------------------------------------|
A|---------------------------------------------------|---------------------------------------------------|
D|-0------2------3------10--0------2------3------10--|-0------2------3------10--0------2------3------10--|
G|-0--0-0-2--0-0-3--0-0-10--0--0-0-2--0-0-3--0-0-10--|-0--0-0-2--0-0-3--0-0-10--0--0-0-2--0-0-3--0-0-10--|


E|---------------------------------------------------|---------------------------------------------------|
A|---------------------------------------------------|---------------------------------------------------|
D|-0------2------3------10--0------2------3------10--|-0------2------3------10--0------2------3------10--|
G|-0--0-0-2--0-0-3--0-0-10--0--0-0-2--0-0-3--0-0-10--|-0--0-0-2--0-0-3--0-0-10--0--0-0-2--0-0-3--0-0-10--|


E|---------------------------------------------------|---------------------------------------------------|
A|---------------------------------------------------|---------------------------------------------------|
D|-0------2------3------10--0------2------3------10--|-0------2------3------10--0------2------3------10--|
G|-0--0-0-2--0-0-3--0-0-10--0--0-0-2--0-0-3--0-0-10--|-0--0-0-2--0-0-3--0-0-10--0--0-0-2--0-0-3--0-0-10--|


E|---------------------------------------------------|---------------------------------------------------|
A|---------------------------------------------------|---------------------------------------------------|
D|-0------2------3------10--0------2------3------10--|-0------2------3------10--0------2------3------10--|
G|-0--0-0-2--0-0-3--0-0-10--0--0-0-2--0-0-3--0-0-10--|-0--0-0-2--0-0-3--0-0-10--0--0-0-2--0-0-3--0-0-10--|


E|---------------------------------------------------|--------|--------|--------|--------|
A|---------------------------------------------------|--------|--------|--------|--------|
D|-0------2------3------10--0------2------3------10--|--------|--------|--------|--------|
G|-0--0-0-2--0-0-3--0-0-10--0--0-0-2--0-0-3--0-0-10--|--------|--------|--------|--------|


E|--------|--------|--------|------------------------------|
A|--------|--------|--------|------------------------------|
D|--------|--------|--------|-5---5---3---2---0---0--------|
G|--------|--------|--------|-5---5---3---2---0---0--------|





Track 5: Flute

E|--------|--------|--------|--------|--------|--------|--------|--------|--------|
A|--------|--------|--------|--------|--------|--------|--------|--------|--------|
D|--------|--------|--------|--------|--------|--------|--------|--------|--------|
G|--------|--------|--------|--------|--------|--------|--------|--------|--------|


E|--------|--------|--------|--------|--------|--------|--------|--------|--------|
A|--------|--------|--------|--------|--------|--------|--------|--------|--------|
D|--------|--------|--------|--------|--------|--------|--------|--------|--------|
G|--------|--------|--------|--------|--------|--------|--------|--------|--------|


E|--------|--------|--------|--------|--------|--------|--------|--------|--------|
A|--------|--------|--------|--------|--------|--------|--------|--------|--------|
D|--------|--------|--------|--------|--------|--------|--------|--------|--------|
G|--------|--------|--------|--------|--------|--------|--------|--------|--------|


E|--------|--------|--------|--------|--------|--------|--------|--------|--------|
A|--------|--------|--------|--------|--------|--------|--------|--------|--------|
D|--------|--------|--------|--------|--------|--------|--------|--------|--------|
G|--------|--------|--------|--------|--------|--------|--------|--------|--------|


E|--------|--------|--------|--------|--------|--------|--------|--------|--------|
A|--------|--------|--------|--------|--------|--------|--------|--------|--------|
D|--------|--------|--------|--------|--------|--------|--------|--------|--------|
G|--------|--------|--------|--------|--------|--------|--------|--------|--------|


E|--------|--------|--------|--------|--------|--------|--------|--------|--------|
A|--------|--------|--------|--------|--------|--------|--------|--------|--------|
D|--------|--------|--------|--------|--------|--------|--------|--------|--------|
G|--------|--------|--------|--------|--------|--------|--------|--------|--------|


E|--------|--------|--------|--------|--------|--------|--------|--------|--------|
A|--------|--------|--------|--------|--------|--------|--------|--------|--------|
D|--------|--------|--------|--------|--------|--------|--------|--------|--------|
G|--------|--------|--------|--------|--------|--------|--------|--------|--------|


E|--------|--------|--------|
A|--------|--------|--------|
D|--------|--------|--------|
G|--------|--------|--------|





Track 6: Flute

E|--------|--------|--------|--------|--------|--------|--------|--------|--------|
A|--------|--------|--------|--------|--------|--------|--------|--------|--------|
D|--------|--------|--------|--------|--------|--------|--------|--------|--------|
G|--------|--------|--------|--------|--------|--------|--------|--------|--------|


E|--------|--------|--------|--------|--------|--------|--------|--------|--------|
A|--------|--------|--------|--------|--------|--------|--------|--------|--------|
D|--------|--------|--------|--------|--------|--------|--------|--------|--------|
G|--------|--------|--------|--------|--------|--------|--------|--------|--------|


E|--------|--------|--------|--------|--------|--------|--------|--------|--------|
A|--------|--------|--------|--------|--------|--------|--------|--------|--------|
D|--------|--------|--------|--------|--------|--------|--------|--------|--------|
G|--------|--------|--------|--------|--------|--------|--------|--------|--------|


E|--------|--------|--------|--------|--------|--------|--------|--------|--------|
A|--------|--------|--------|--------|--------|--------|--------|--------|--------|
D|--------|--------|--------|--------|--------|--------|--------|--------|--------|
G|--------|--------|--------|--------|--------|--------|--------|--------|--------|


E|--------|--------|--------|--------|--------|--------|--------|--------|--------|
A|--------|--------|--------|--------|--------|--------|--------|--------|--------|
D|--------|--------|--------|--------|--------|--------|--------|--------|--------|
G|--------|--------|--------|--------|--------|--------|--------|--------|--------|


E|--------|--------|--------|--------|--------|--------|--------|----------------------------------|
A|--------|--------|--------|--------|--------|--------|--------|----------------------------------|
D|--------|--------|--------|--------|--------|--------|--------|-------------------------0--------|
G|--------|--------|--------|--------|--------|--------|--------|-----0--1--0---3---1--3------3----|


E|----------------------------------|----------------------------------|----------------------------------|
A|----------------------------------|----------------------------------|----------------------------------|
D|----------------------------------|-------------------------0--------|----------------------------------|
G|-----0--1--0---3---1--0-----------|-----0--1--0---3---1--3------3----|-----0--1--0---3---1--0-----------|


E|----------------------------------|----------------------------------|--------|--------|
A|----------------------------------|----------------------------------|--------|--------|
D|-------------------------0--------|----------------------------------|--------|--------|
G|-----0--1--0---3---1--3------3----|-----0--1--0---3---1--0-----------|--------|--------|


E|--------|--------|--------|--------|--------|--------|
A|--------|--------|--------|--------|--------|--------|
D|--------|--------|--------|--------|--------|--------|
G|--------|--------|--------|--------|--------|--------|





Track 7: Synth

A|------------------|---------------------|-----------------|--------------------|
D|-------------0----|-0-------------------|-----------0-----|-0------------------|
G|-0-----3----------|------3---2-----0----|-0-----3---------|------3---2---0-----|
C|------------------|---------------------|-----------------|--------------------|


A|-----------------|--------------------|-----------------|--------------------|-----------------|
D|-----------0-----|-0------------------|-----------0-----|-0------------------|-----------0-----|
G|-0-----3---------|------3---2---0-----|-0-----3---------|------3---2---0-----|-0-----3---------|
C|-----------------|--------------------|-----------------|--------------------|-----------------|


A|--------------------|--------|--------|-----------------|--------------------|-----------------|
D|-0------------------|--------|--------|-----------0-----|-0------------------|-----------0-----|
G|------3---2---0-----|--------|--------|-0-----3---------|------3---2---0-----|-0-----3---------|
C|--------------------|--------|--------|-----------------|--------------------|-----------------|


A|--------------------|-----------------|--------------------|-----------------|--------------------|
D|-0------------------|-----------0-----|-0------------------|-----------0-----|-0------------------|
G|------3---2---0-----|-0-----3---------|------3---2---0-----|-0-----3---------|------3---2---0-----|
C|--------------------|-----------------|--------------------|-----------------|--------------------|


A|-----------------|--------------------|--------|--------|--------|--------|-----------------|
D|-----------0-----|-0------------------|--------|--------|--------|--------|-----------0-----|
G|-0-----3---------|------3---2---0-----|--------|--------|--------|--------|-0-----3---------|
C|-----------------|--------------------|--------|--------|--------|--------|-----------------|


A|--------------------|-----------------|--------------------|-----------------|--------------------|
D|-0------------------|-----------0-----|-0------------------|-----------0-----|-0------------------|
G|------3---2---0-----|-0-----3---------|------3---2---0-----|-0-----3---------|------3---2---0-----|
C|--------------------|-----------------|--------------------|-----------------|--------------------|


A|-----------------|--------------------|-----------------|--------------------|--------|
D|-----------0-----|-0------------------|-----------0-----|-0------------------|--------|
G|-0-----3---------|------3---2---0-----|-0-----3---------|------3---2---0-----|--------|
C|-----------------|--------------------|-----------------|--------------------|--------|


A|--------|--------|--------|--------|--------|-----------------|--------------------|
D|--------|--------|--------|--------|--------|-----------0-----|-0------------------|
G|--------|--------|--------|--------|--------|-0-----3---------|------3---2---0-----|
C|--------|--------|--------|--------|--------|-----------------|--------------------|


A|-----------------|--------------------|--------|--------|--------|--------|--------|
D|-----------0-----|-0------------------|--------|--------|--------|--------|--------|
G|-0-----3---------|------3---5---5-----|-5------|--------|--------|--------|--------|
C|-----------------|--------------------|--------|--------|--------|--------|--------|


A|--------|--------|--------|--------|--------|--------|--------|------------------|
D|--------|--------|--------|--------|--------|--------|--------|-------------0----|
G|--------|--------|--------|--------|--------|--------|--------|-0-----3----------|
C|--------|--------|--------|--------|--------|--------|--------|------------------|


A|---------------------|-----------------|--------------------|-----------------|--------------------|
D|-0-------------------|-----------0-----|-0------------------|-----------0-----|-0------------------|
G|------3---2-----0----|-0-----3---------|------3---2---0-----|-0-----3---------|------3---5---5-----|
C|---------------------|-----------------|--------------------|-----------------|--------------------|


A|--------|--------|
D|--------|--------|
G|-5------|--------|
C|--------|--------|





Track 8: Cello

A|--------|--------|----------------------------------|----------------------------------|
D|--------|--------|-------------------------0--------|----------------------------------|
G|--------|--------|-0---2--3--2---5---3--5------5----|-0---2--3--2---5---3--2--0---0----|
C|--------|--------|----------------------------------|----------------------------------|


A|----------------------------------|----------------------------------|-----------------|
D|-------------------------0--------|----------------------------------|-----------0-----|
G|-0---2--3--2---5---3--5------5----|-0---2--3--2---5---3--2--0---0----|-0-----3---------|
C|----------------------------------|----------------------------------|-----------------|


A|--------------------|-----------------|--------------------|--------|--------|----------------------------------|
D|-0------------------|-----------0-----|-0------------------|--------|--------|-------------------------0--------|
G|------3---2---0-----|-0-----3---------|------3---2---0-----|--------|--------|-0---2--3--2---5---3--5------5----|
C|--------------------|-----------------|--------------------|--------|--------|----------------------------------|


A|----------------------------------|----------------------------------|----------------------------------|
D|----------------------------------|-------------------------0--------|----------------------------------|
G|-0---2--3--2---5---3--2--0---0----|-0---2--3--2---5---3--5------5----|-0---2--3--2---5---3--2--0---0----|
C|----------------------------------|----------------------------------|----------------------------------|


A|----------------------------------|----------------------------------|-----------------|
D|-------------------------0--------|----------------------------------|-----------0-----|
G|-0---2--3--2---5---3--5------5----|-0---2--3--2---5---3--2--0---0----|-0-----3---------|
C|----------------------------------|----------------------------------|-----------------|


A|--------------------|-----------------|--------------------|--------|--------|--------|
D|-0------------------|-----------0-----|-0------------------|--------|--------|--------|
G|------3---2---0-----|-0-----3---------|------3---2---0-----|--------|--------|--------|
C|--------------------|-----------------|--------------------|--------|--------|--------|


A|--------|----------------------------------|----------------------------------|----------------------------------|
D|--------|-------------------------0--------|----------------------------------|-------------------------0--------|
G|--------|-0---2--3--2---5---3--5------5----|-0---2--3--2---5---3--2--0---0----|-0---2--3--2---5---3--5------5----|
C|--------|----------------------------------|----------------------------------|----------------------------------|


A|----------------------------------|----------------------------------|----------------------------------|
D|----------------------------------|-------------------------0--------|----------------------------------|
G|-0---2--3--2---5---3--2--0---0----|-0---2--3--2---5---3--5------5----|-0---2--3--2---5---3--2--0---0----|
C|----------------------------------|----------------------------------|----------------------------------|


A|-----------------|--------------------|-----------------|--------------------|--------|
D|-----------0-----|-0------------------|-----------0-----|-0------------------|--------|
G|-0-----3---------|------3---2---0-----|-0-----3---------|------3---2---0-----|--------|
C|-----------------|--------------------|-----------------|--------------------|--------|


A|--------|--------|--------|--------|--------|----------------------------------|
D|--------|--------|--------|--------|--------|-------------------------0--------|
G|--------|--------|--------|--------|--------|-0---2--3--2---5---3--5------5----|
C|--------|--------|--------|--------|--------|----------------------------------|


A|----------------------------------|----------------------------------|-------------------------|
D|----------------------------------|-------------------------0--------|-------------------------|
G|-0---2--3--2---5---3--2--0---0----|-0---2--3--2---5---3--5------5----|-0---2--3--2---5---5-----|
C|----------------------------------|----------------------------------|-------------------------|


A|--------|--------|--------|--------|--------|--------|--------|--------|--------|
D|--------|--------|--------|--------|--------|--------|--------|--------|--------|
G|-5------|--------|--------|--------|--------|--------|--------|--------|--------|
C|--------|--------|--------|--------|--------|--------|--------|--------|--------|


A|--------|--------|--------|--------|--------|----------------------------------|
D|--------|--------|--------|--------|--------|-------------------------0--------|
G|--------|--------|--------|--------|--------|-0---2--3--2---5---3--5------5----|
C|--------|--------|--------|--------|--------|----------------------------------|


A|----------------------------------|----------------------------------|-------------------------|
D|----------------------------------|-------------------------0--------|-------------------------|
G|-0---2--3--2---5---3--2--0---0----|-0---2--3--2---5---3--5------5----|-0---2--3--2---5---5-----|
C|----------------------------------|----------------------------------|-------------------------|


A|--------|--------|
D|--------|--------|
G|-5------|--------|
C|--------|--------|





Track 9: Guitar

E|--------|--------|--------|--------|--------|--------|--------|--------|--------|
B|--------|--------|--------|--------|--------|--------|--------|--------|--------|
G|--------|--------|--------|--------|--------|--------|--------|--------|--------|
D|--------|--------|--------|--------|--------|--------|--------|--------|--------|
A|--------|--------|--------|--------|--------|--------|--------|--------|--------|
D|--------|--------|--------|--------|--------|--------|--------|--------|--------|


E|--------|--------|--------|--------|--------|--------|--------|--------|--------|
B|--------|--------|--------|--------|--------|--------|--------|--------|--------|
G|--------|--------|--------|--------|--------|--------|--------|--------|--------|
D|--------|--------|--------|--------|--------|--------|--------|--------|--------|
A|--------|--------|--------|--------|--------|--------|--------|--------|--------|
D|--------|--------|--------|--------|--------|--------|--------|--------|--------|


E|--------|--------|--------|--------|--------|--------|--------|--------|--------|
B|--------|--------|--------|--------|--------|--------|--------|--------|--------|
G|--------|--------|--------|--------|--------|--------|--------|--------|--------|
D|--------|--------|--------|--------|--------|--------|--------|--------|--------|
A|--------|--------|--------|--------|--------|--------|--------|--------|--------|
D|--------|--------|--------|--------|--------|--------|--------|--------|--------|


E|--------|--------|--------|--------|--------|--------|--------|--------|--------|
B|--------|--------|--------|--------|--------|--------|--------|--------|--------|
G|--------|--------|--------|--------|--------|--------|--------|--------|--------|
D|--------|--------|--------|--------|--------|--------|--------|--------|--------|
A|--------|--------|--------|--------|--------|--------|--------|--------|--------|
D|--------|--------|--------|--------|--------|--------|--------|--------|--------|


E|--------|--------|--------|--------|--------|--------|--------|--------|--------|
B|--------|--------|--------|--------|--------|--------|--------|--------|--------|
G|--------|--------|--------|--------|--------|--------|--------|--------|--------|
D|--------|--------|--------|--------|--------|--------|--------|--------|--------|
A|--------|--------|--------|--------|--------|--------|--------|--------|--------|
D|--------|--------|--------|--------|--------|--------|--------|--------|--------|


E|--------|--------|------------------------------|---------------------------------------------------|
B|--------|--------|------------------------------|---------------------------------------------------|
G|--------|--------|------------------------------|---------------------------------------------------|
D|--------|--------|-5---5---3---2---0---0--------|-0------2------3------5---0------2------3------5---|
A|--------|--------|-5---5---3---2---0---0--------|-0------2------3------5---0------2------3------5---|
D|--------|--------|-5---5---3---2---0---0--------|-0--0-0-2--0-0-3--0-0-5---0--0-0-2--0-0-3--0-0-5---|


E|---------------------------------------------------|---------------------------------------------------|
B|---------------------------------------------------|---------------------------------------------------|
G|---------------------------------------------------|---------------------------------------------------|
D|-0------2------3------5---0------2------3------5---|-0------2------3------5---0------2------3------5---|
A|-0------2------3------5---0------2------3------5---|-0------2------3------5---0------2------3------5---|
D|-0--0-0-2--0-0-3--0-0-5---0--0-0-2--0-0-3--0-0-5---|-0--0-0-2--0-0-3--0-0-5---0--0-0-2--0-0-3--0-0-5---|


E|---------------------------------------------------|-----------------------------------|
B|---------------------------------------------------|-----------------------------------|
G|---------------------------------------------------|-7----2--5-3-2-------------2-------|
D|-0------2------3------5---0------2------3------5---|----------------0--2--3--------0---|
A|-0------2------3------5---0------2------3------5---|-----------------------------------|
D|-0--0-0-2--0-0-3--0-0-5---0--0-0-2--0-0-3--0-0-5---|-----------------------------------|


E|---------------------------------------------|---------------------------------------------|
B|---------------------------------------------|---------------------------------------------|
G|-7----2--5-3-2---------------------7---------|------------------------0-----------0--------|
D|----------------0--2-3-5-7-0-2-3-5----3--5---|-0---2--3--3---2--3--0-----3--2--0-----3--2--|
A|---------------------------------------------|---------------------------------------------|
D|---------------------------------------------|---------------------------------------------|


E|--------------------------------------------------|---------------------------------------------------|
B|--------------------------------------------------|-------------------------------------------3-5-6-8-|
G|----------------------------0-----------0------0--|----------------------------2-0-2------------------|
D|-0---5-2-3--3--0--3-2-3--0-----3--2--0-----3-2----|----2-0-2---3-2-3---5-3-5----------0-2-3-5---------|
A|--------------------------------------------------|---------------------------------------------------|
D|--------------------------------------------------|---------------------------------------------------|


E|-------------------------------------|--------|--------|--------|--------|--------|
B|---------------------3-5-6-8-3-5-6-8-|--------|--------|--------|--------|--------|
G|-------------------------------------|--------|--------|--------|--------|--------|
D|-0----2----3----5--------------------|--------|--------|--------|--------|--------|
A|-------------------------------------|--------|--------|--------|--------|--------|
D|-------------------------------------|--------|--------|--------|--------|--------|


E|--------|--------|------------------------------|
B|--------|--------|------------------------------|
G|--------|--------|------------------------------|
D|--------|--------|-5---5---3---2---0---0--------|
A|--------|--------|-5---5---3---2---0---0--------|
D|--------|--------|-5---5---3---2---0---0--------|