Site menu:

    

Browse: 0-9 A B C D E F G H I J K L N O P Q R S T U V W X Y Z

royal rumble - workmanship:



Title: Workmanship
Artist: 
Album: This Are Rumbletones
Author: Rimu Tahu


Track 1: Guitar 1 (w/dist.)

E|---------------------------------------|-----------------------------------|----------------------------------|
B|---------------------------------------|-----------------------------------|----------------------------------|
G|---------7---7---------7---7--7--7--7--|-7---9---9---9---------7-----------|---------7---7---------7-------7--|
D|-7---7---7---7--7---7--7---7--7--7--7--|-7---9---9---9--7---7--7---7---7---|-7---7---7---7--7---7--7----7--7--|
A|-5---7---5---5--7---7--5---5--5--5--5--|-5---7---7---7--7---7--5-----------|-5---7---5---5--7---7--5----5-----|
E|-5---5----------5---5------------------|----------------5---5--------------|-5---5----------5---5-------------|


E|-----------------------------------|----------------------------------|-----------------------------------|
B|-----------------------7-----------|----------------------------------|-----------------------------------|
G|-7---9---9---9---------7-----------|---------7---7---------7-------7--|-7---9---9---9---------7-----------|
D|-7---9---9---9--7---7--7---7---7---|-7---7---7---7--7---7--7----7--7--|-7---9---9---9--7---7--7---7---7---|
A|-5---7---7---7--7---7--5-----------|-5---7---5---5--7---7--5----5-----|-5---7---7---7--7---7--5-----------|
E|----------------5---5--------------|-5---5----------5---5-------------|----------------5---5--------------|


E|--------------------------------------|------------------------------|--------|--------|
B|--------------------------------------|------------------------------|--------|--------|
G|-------------7---7---------7----------|-7---9---9--------7-----------|-9------|--------|
D|-------------7---7--7---7--7----7--7--|-7---9---9----7---7---7---7---|-9------|-7------|
A|-5--5--7--7--5---5--7---7--5----5--5--|-5---7---7----7---5-----------|-7------|-7------|
E|-5--5--5--5---------5---5-------------|--------------5---------------|--------|-5------|


E|--------|-------------|--------|--------|--------|-------------|--------|--------|
B|--------|-------------|--------|--------|--------|-------------|--------|--------|
G|-7------|-------------|-9------|--------|-7------|-------------|-9------|--------|
D|-7------|-7-----------|-9------|-7------|-7------|-7-----------|-9------|-7------|
A|-5------|-7-----------|-7------|-7------|-5------|-7-----------|-7------|-7------|
E|--------|-5-----------|--------|-5------|--------|-5-----------|--------|-5------|


E|--------|-------------|--------|--------|--------|-------------|--------|--------|
B|--------|-------------|--------|--------|--------|-------------|--------|--------|
G|-7------|-------------|-9------|--------|-7------|-------------|--------|--------|
D|-7------|-7-----------|-9------|-7------|-7------|-7-----------|--------|--------|
A|-5------|-7-----------|-7------|-7------|-5------|-7-----------|--------|--------|
E|--------|-5-----------|--------|-5------|--------|-5-----------|--------|--------|


E|--------|--------|--------|--------|--------|--------|--------|--------|--------|
B|--------|--------|--------|--------|--------|--------|--------|--------|--------|
G|--------|--------|--------|--------|--------|--------|--------|--------|--------|
D|--------|--------|--------|--------|--------|--------|--------|--------|--------|
A|--------|--------|--------|--------|--------|--------|--------|--------|--------|
E|--------|--------|--------|--------|--------|--------|--------|--------|--------|


E|--------|--------|--------|--------|--------|--------|--------|--------|--------|
B|--------|--------|--------|--------|--------|--------|--------|--------|--------|
G|--------|--------|--------|--------|--------|-9------|--------|-7------|--------|
D|--------|--------|--------|--------|--------|-9------|-7------|-7------|-7------|
A|--------|--------|--------|--------|--------|-7------|-7------|-5------|-7------|
E|--------|--------|--------|--------|--------|--------|-5------|--------|-5------|


E|--------|--------|--------|--------|--------|--------|--------|--------|--------|
B|--------|--------|--------|--------|--------|--------|--------|--------|--------|
G|-9------|--------|-7------|--------|-9------|--------|-7------|--------|-9------|
D|-9------|-7------|-7------|-7------|-9------|-7------|-7------|-7------|-9------|
A|-7------|-7------|-5------|-7------|-7------|-7------|-5------|-7------|-7------|
E|--------|-5------|--------|-5------|--------|-5------|--------|-5------|--------|


E|--------|--------|--------|--------|--------|--------|--------|--------|--------|
B|--------|--------|--------|--------|--------|--------|--------|--------|--------|
G|--------|-7------|--------|--------|--------|--------|--------|--------|--------|
D|-7------|-7------|-7------|--------|--------|--------|--------|--------|--------|
A|-7------|-5------|-7------|--------|--------|--------|--------|--------|--------|
E|-5------|--------|-5------|--------|--------|--------|--------|--------|--------|


E|--------|--------|--------|--------|--------|--------|--------|--------|--------|
B|--------|--------|--------|--------|--------|--------|--------|--------|--------|
G|--------|--------|--------|--------|--------|--------|--------|--------|--------|
D|--------|--------|--------|--------|--------|--------|--------|--------|--------|
A|--------|--------|--------|--------|--------|--------|--------|--------|--------|
E|--------|--------|--------|--------|--------|--------|--------|--------|--------|


E|--------|--------|--------|--------|--------|--------|--------|--------|--------|
B|--------|--------|--------|--------|--------|--------|--------|--------|--------|
G|--------|-9------|--------|-7------|--------|-9------|--------|-7------|--------|
D|--------|-9------|-7------|-7------|-7------|-9------|-7------|-7------|-7------|
A|--------|-7------|-7------|-5------|-7------|-7------|-7------|-5------|-7------|
E|--------|--------|-5------|--------|-5------|--------|-5------|--------|-5------|


E|--------|--------|--------|--------|--------|--------|--------|--------|--------|
B|--------|--------|--------|--------|--------|--------|--------|--------|--------|
G|-9------|--------|-7------|--------|-9------|--------|-7------|--------|--------|
D|-9------|-7------|-7------|-7------|-9------|-7------|-7------|-7------|--------|
A|-7------|-7------|-5------|-7------|-7------|-7------|-5------|-7------|--------|
E|--------|-5------|--------|-5------|--------|-5------|--------|-5------|--------|


E|--------|--------|--------|--------|--------|--------|--------|--------|--------|
B|--------|--------|--------|--------|--------|--------|--------|--------|--------|
G|--------|--------|--------|--------|--------|--------|--------|-9------|--------|
D|--------|--------|--------|--------|--------|--------|--------|-9------|-7------|
A|--------|--------|--------|--------|--------|--------|--------|-7------|-7------|
E|--------|--------|--------|--------|--------|--------|--------|--------|-5------|


E|--------|--------|--------|--------|--------------------|---------------------|--------|
B|--------|--------|--------|--------|--------------------|---------------------|--------|
G|-7------|--------|-9------|--------|-7-----7----7---7---|---------------------|-9------|
D|-7------|-7------|-9------|-7------|-7-----7----7---7---|-7----7----7----7----|-9------|
A|-5------|-7------|-7------|-7------|-5-----5----5---5---|-7----7----7----7----|-7------|
E|--------|-5------|--------|-5------|--------------------|-5----5----5----5----|--------|


E|--------|--------|-------------|--------|--------|--------|-------------|--------|
B|--------|--------|-------------|--------|--------|--------|-------------|--------|
G|--------|-7------|-------------|-9------|--------|-7------|-------------|-9------|
D|-7------|-7------|-7-----------|-9------|-7------|-7------|-7-----------|-9------|
A|-7------|-5------|-7-----------|-7------|-7------|-5------|-7-----------|-7------|
E|-5------|--------|-5-----------|--------|-5------|--------|-5-----------|--------|


E|--------|--------|-------------|--------|--------|--------|-------------|--------|
B|--------|--------|-------------|--------|--------|--------|-------------|--------|
G|--------|-7------|-------------|-9------|--------|-7------|-------------|--------|
D|-7------|-7------|-7-----------|-9------|-7------|-7------|-7-----------|-7------|
A|-7------|-5------|-7-----------|-7------|-7------|-5------|-7-----------|-7------|
E|-5------|--------|-5-----------|--------|-5------|--------|-5-----------|-5------|


E|--------|--------|--------|--------|--------|--------|-------------|
B|--------|--------|--------|--------|--------|--------|-------------|
G|--------|--------|--------|--------|--------|--------|-------------|
D|-7------|-7------|-7------|-7------|--------|--------|-7-----------|
A|-7------|-7------|-7------|-7------|--------|--------|-7-----------|
E|-5------|-5------|-5------|-5------|--------|--------|-5-----------|





Track 2: Guitar 2 (w/dist.)

E|--------|--------|--------|--------|----------------|----------------|----------------|
B|--------|--------|--------|--------|----------------|----------------|----------------|
G|--------|--------|--------|--------|----------------|----------------|----------------|
D|--------|--------|--------|--------|-7------7-------|-7------7-------|-7------7-------|
A|--------|--------|--------|--------|-7------7-------|-7------7-------|-7------7-------|
E|--------|--------|--------|--------|-5------5-------|-5------5-------|-5------5-------|


E|----------------|------------------------|------------------------|------------------------|
B|----------------|------------------------|------------------------|------------------------|
G|-7------7-------|-9----9----9----9---9---|------------------------|-7----7----7----7---7---|
D|-7------7-------|-9----9----9----9---9---|-7----7----7----7---7---|-7----7----7----7---7---|
A|-5------5-------|-7----7----7----7---7---|-7----7----7----7---7---|-5----5----5----5---5---|
E|----------------|------------------------|-5----5----5----5---5---|------------------------|


E|------------------------|------------------------|------------------------|------------------------|
B|------------------------|------------------------|------------------------|------------------------|
G|------------------------|-9----9----9----9---9---|------------------------|-7----7----7----7---7---|
D|-7----7----7----7---7---|-9----9----9----9---9---|-7----7----7----7---7---|-7----7----7----7---7---|
A|-7----7----7----7---7---|-7----7----7----7---7---|-7----7----7----7---7---|-5----5----5----5---5---|
E|-5----5----5----5---5---|------------------------|-5----5----5----5---5---|------------------------|


E|------------------------|------------------------|------------------------|------------------------|
B|------------------------|------------------------|------------------------|------------------------|
G|------------------------|-9----9----9----9---9---|------------------------|-7----7----7----7---7---|
D|-7----7----7----7---7---|-9----9----9----9---9---|-7----7----7----7---7---|-7----7----7----7---7---|
A|-7----7----7----7---7---|-7----7----7----7---7---|-7----7----7----7---7---|-5----5----5----5---5---|
E|-5----5----5----5---5---|------------------------|-5----5----5----5---5---|------------------------|


E|------------------------|------------------------|------------------------|------------------------|
B|------------------------|------------------------|------------------------|------------------------|
G|------------------------|-9----9----9----9---9---|------------------------|-7----7----7----7---7---|
D|-7----7----7----7---7---|-9----9----9----9---9---|-7----7----7----7---7---|-7----7----7----7---7---|
A|-7----7----7----7---7---|-7----7----7----7---7---|-7----7----7----7---7---|-5----5----5----5---5---|
E|-5----5----5----5---5---|------------------------|-5----5----5----5---5---|------------------------|


E|------------------------|--------|--------|--------|--------|--------|--------|--------|
B|------------------------|--------|--------|--------|--------|--------|--------|--------|
G|------------------------|--------|--------|--------|--------|--------|--------|--------|
D|-7----7----7----7---7---|--------|--------|--------|--------|--------|--------|--------|
A|-7----7----7----7---7---|--------|--------|--------|--------|--------|--------|--------|
E|-5----5----5----5---5---|--------|--------|--------|--------|--------|--------|--------|


E|--------|--------|--------|--------|--------|--------|--------|--------|--------|
B|--------|--------|--------|--------|--------|--------|--------|--------|--------|
G|--------|--------|--------|--------|--------|--------|--------|--------|--------|
D|--------|--------|--------|--------|--------|--------|--------|--------|--------|
A|--------|--------|--------|--------|--------|--------|--------|--------|--------|
E|--------|--------|--------|--------|--------|--------|--------|--------|--------|


E|------------------------|------------------------|------------------------|------------------------|
B|------------------------|------------------------|------------------------|------------------------|
G|-9----9----9----9---9---|------------------------|-7----7----7----7---7---|------------------------|
D|-9----9----9----9---9---|-7----7----7----7---7---|-7----7----7----7---7---|-7----7----7----7---7---|
A|-7----7----7----7---7---|-7----7----7----7---7---|-5----5----5----5---5---|-7----7----7----7---7---|
E|------------------------|-5----5----5----5---5---|------------------------|-5----5----5----5---5---|


E|------------------------|------------------------|------------------------|------------------------|
B|------------------------|------------------------|------------------------|------------------------|
G|-9----9----9----9---9---|------------------------|-7----7----7----7---7---|------------------------|
D|-9----9----9----9---9---|-7----7----7----7---7---|-7----7----7----7---7---|-7----7----7----7---7---|
A|-7----7----7----7---7---|-7----7----7----7---7---|-5----5----5----5---5---|-7----7----7----7---7---|
E|------------------------|-5----5----5----5---5---|------------------------|-5----5----5----5---5---|


E|------------------------|------------------------|------------------------|------------------------|
B|------------------------|------------------------|------------------------|------------------------|
G|-9----9----9----9---9---|------------------------|-7----7----7----7---7---|------------------------|
D|-9----9----9----9---9---|-7----7----7----7---7---|-7----7----7----7---7---|-7----7----7----7---7---|
A|-7----7----7----7---7---|-7----7----7----7---7---|-5----5----5----5---5---|-7----7----7----7---7---|
E|------------------------|-5----5----5----5---5---|------------------------|-5----5----5----5---5---|


E|------------------------|------------------------|------------------------|------------------------|
B|------------------------|------------------------|------------------------|------------------------|
G|-9----9----9----9---9---|------------------------|-7----7----7----7---7---|------------------------|
D|-9----9----9----9---9---|-7----7----7----7---7---|-7----7----7----7---7---|-7----7----7----7---7---|
A|-7----7----7----7---7---|-7----7----7----7---7---|-5----5----5----5---5---|-7----7----7----7---7---|
E|------------------------|-5----5----5----5---5---|------------------------|-5----5----5----5---5---|


E|--------|--------|--------|--------|--------|--------|--------|--------|--------|
B|--------|--------|--------|--------|--------|--------|--------|--------|--------|
G|--------|--------|--------|--------|--------|--------|--------|--------|--------|
D|--------|--------|--------|--------|--------|--------|--------|--------|--------|
A|--------|--------|--------|--------|--------|--------|--------|--------|--------|
E|--------|--------|--------|--------|--------|--------|--------|--------|--------|


E|--------|--------|--------|--------|--------|--------|--------|------------------------|
B|--------|--------|--------|--------|--------|--------|--------|------------------------|
G|--------|--------|--------|--------|--------|--------|--------|-9----9----9----9---9---|
D|--------|--------|--------|--------|--------|--------|--------|-9----9----9----9---9---|
A|--------|--------|--------|--------|--------|--------|--------|-7----7----7----7---7---|
E|--------|--------|--------|--------|--------|--------|--------|------------------------|


E|------------------------|------------------------|------------------------|------------------------|
B|------------------------|------------------------|------------------------|------------------------|
G|------------------------|-7----7----7----7---7---|------------------------|-9----9----9----9---9---|
D|-7----7----7----7---7---|-7----7----7----7---7---|-7----7----7----7---7---|-9----9----9----9---9---|
A|-7----7----7----7---7---|-5----5----5----5---5---|-7----7----7----7---7---|-7----7----7----7---7---|
E|-5----5----5----5---5---|------------------------|-5----5----5----5---5---|------------------------|


E|------------------------|------------------------|------------------------|------------------------|
B|------------------------|------------------------|------------------------|------------------------|
G|------------------------|-7----7----7----7---7---|------------------------|-9----9----9----9---9---|
D|-7----7----7----7---7---|-7----7----7----7---7---|-7----7----7----7---7---|-9----9----9----9---9---|
A|-7----7----7----7---7---|-5----5----5----5---5---|-7----7----7----7---7---|-7----7----7----7---7---|
E|-5----5----5----5---5---|------------------------|-5----5----5----5---5---|------------------------|


E|------------------------|------------------------|------------------------|------------------------|
B|------------------------|------------------------|------------------------|------------------------|
G|------------------------|-7----7----7----7---7---|------------------------|-9----9----9----9---9---|
D|-7----7----7----7---7---|-7----7----7----7---7---|-7----7----7----7---7---|-9----9----9----9---9---|
A|-7----7----7----7---7---|-5----5----5----5---5---|-7----7----7----7---7---|-7----7----7----7---7---|
E|-5----5----5----5---5---|------------------------|-5----5----5----5---5---|------------------------|


E|------------------------|------------------------|------------------------|--------|
B|------------------------|------------------------|------------------------|--------|
G|------------------------|-7----7----7----7---7---|------------------------|--------|
D|-7----7----7----7---7---|-7----7----7----7---7---|-7----7----7----7---7---|--------|
A|-7----7----7----7---7---|-5----5----5----5---5---|-7----7----7----7---7---|--------|
E|-5----5----5----5---5---|------------------------|-5----5----5----5---5---|--------|


E|--------|--------|--------|--------|--------|--------|--------|--------|--------|
B|--------|--------|--------|--------|--------|--------|--------|--------|--------|
G|--------|--------|--------|--------|--------|--------|--------|--------|--------|
D|--------|--------|--------|--------|--------|--------|--------|--------|--------|
A|--------|--------|--------|--------|--------|--------|--------|--------|--------|
E|--------|--------|--------|--------|--------|--------|--------|--------|--------|


E|--------|--------|--------|--------|--------|--------|------------------------|------------------------|
B|--------|--------|--------|--------|--------|--------|------------------------|------------------------|
G|--------|--------|--------|--------|--------|--------|-9----9----9----9---9---|------------------------|
D|--------|--------|--------|--------|--------|--------|-9----9----9----9---9---|-7----7----7----7---7---|
A|--------|--------|--------|--------|--------|--------|-7----7----7----7---7---|-7----7----7----7---7---|
E|--------|--------|--------|--------|--------|--------|------------------------|-5----5----5----5---5---|


E|------------------------|------------------------|------------------------|------------------------|
B|------------------------|------------------------|------------------------|------------------------|
G|-7----7----7----7---7---|------------------------|-9----9----9----9---9---|------------------------|
D|-7----7----7----7---7---|-7----7----7----7---7---|-9----9----9----9---9---|-7----7----7----7---7---|
A|-5----5----5----5---5---|-7----7----7----7---7---|-7----7----7----7---7---|-7----7----7----7---7---|
E|------------------------|-5----5----5----5---5---|------------------------|-5----5----5----5---5---|


E|------------------------|------------------------|------------------------|------------------------|
B|------------------------|------------------------|------------------------|------------------------|
G|-7----7----7----7---7---|------------------------|-9----9----9----9---9---|------------------------|
D|-7----7----7----7---7---|-7----7----7----7---7---|-9----9----9----9---9---|-7----7----7----7---7---|
A|-5----5----5----5---5---|-7----7----7----7---7---|-7----7----7----7---7---|-7----7----7----7---7---|
E|------------------------|-5----5----5----5---5---|------------------------|-5----5----5----5---5---|


E|------------------------|------------------------|------------------------|------------------------|
B|------------------------|------------------------|------------------------|------------------------|
G|-7----7----7----7---7---|------------------------|-9----9----9----9---9---|------------------------|
D|-7----7----7----7---7---|-7----7----7----7---7---|-9----9----9----9---9---|-7----7----7----7---7---|
A|-5----5----5----5---5---|-7----7----7----7---7---|-7----7----7----7---7---|-7----7----7----7---7---|
E|------------------------|-5----5----5----5---5---|------------------------|-5----5----5----5---5---|


E|------------------------|-----------------------|--------|--------|--------|--------|
B|------------------------|-----------------------|--------|--------|--------|--------|
G|-7----7----7----7---7---|-----------------------|--------|--------|--------|--------|
D|-7----7----7----7---7---|-7-----7---7---7---7---|-7------|-7------|-7------|-7------|
A|-5----5----5----5---5---|-7-----7---7---7---7---|-7------|-7------|-7------|-7------|
E|------------------------|-5-----5---5---5---5---|-5------|-5------|-5------|-5------|


E|--------|--------|--------|--------|
B|--------|--------|--------|--------|
G|--------|--------|--------|--------|
D|-7------|-7------|-7------|--------|
A|-7------|-7------|-7------|--------|
E|-5------|-5------|--------|--------|





Track 3: Alto Sax

E|--------|--------|--------|--------|--------|--------|--------|--------|--------|
B|--------|--------|--------|--------|--------|--------|--------|--------|--------|
G|--------|--------|--------|--------|--------|--------|--------|--------|--------|
D|--------|--------|--------|--------|--------|--------|--------|--------|--------|
A|--------|--------|--------|--------|--------|--------|--------|--------|--------|
E|--------|--------|--------|--------|--------|--------|--------|--------|--------|


E|-----------------------|----------------|---------------------------|--------|-----------------------|
B|-----------------------|----------------|---------------------------|--------|-----------------------|
G|-----------------------|----------------|---------------------------|--------|-----------------------|
D|-7---9---7-------------|----------------|-7---9---7-----------------|--------|-7---9---7-------------|
A|-------------9---9-----|-9----------9---|-------------9----7--------|--------|-------------9---9-----|
E|-----------------------|----------------|---------------------------|--------|-----------------------|


E|----------------|---------------------------|--------|-----------------------|----------------|
B|----------------|---------------------------|--------|-----------------------|----------------|
G|----------------|---------------------------|--------|-----------------------|----------------|
D|----------------|-7---9---7-----------------|--------|-7---9---7-------------|----------------|
A|-9----------9---|-------------9----7--------|--------|-------------9---9-----|-9----------9---|
E|----------------|---------------------------|--------|-----------------------|----------------|


E|---------------------------|--------|-----------------------|----------------|---------------------------|
B|---------------------------|--------|-----------------------|----------------|---------------------------|
G|---------------------------|--------|-----------------------|----------------|---------------------------|
D|-7---9---7-----------------|--------|-7---9---7-------------|----------------|-7---9---7-----------------|
A|-------------9----7--------|--------|-------------9---9-----|-9----------9---|-------------9----7--------|
E|---------------------------|--------|-----------------------|----------------|---------------------------|


E|--------|--------|--------|--------|--------|--------|--------|--------|--------|
B|--------|--------|--------|--------|--------|--------|--------|--------|--------|
G|--------|--------|--------|--------|--------|--------|--------|--------|--------|
D|--------|--------|--------|--------|--------|--------|--------|--------|--------|
A|--------|--------|--------|--------|--------|--------|--------|--------|--------|
E|--------|--------|--------|--------|--------|--------|--------|--------|--------|


E|--------|--------|--------|--------|--------|--------|--------|--------|--------|
B|--------|--------|--------|--------|--------|--------|--------|--------|--------|
G|--------|--------|--------|--------|--------|--------|--------|--------|--------|
D|--------|--------|--------|--------|--------|--------|--------|--------|--------|
A|--------|--------|--------|--------|--------|--------|--------|--------|--------|
E|--------|--------|--------|--------|--------|--------|--------|--------|--------|


E|--------|--------|--------|--------|--------|--------|--------|--------|--------|
B|--------|--------|--------|--------|--------|--------|--------|--------|--------|
G|--------|--------|--------|--------|--------|--------|--------|--------|--------|
D|--------|--------|--------|--------|--------|--------|--------|--------|--------|
A|--------|--------|--------|--------|--------|--------|--------|--------|--------|
E|--------|--------|--------|--------|--------|--------|--------|--------|--------|


E|--------|--------|--------|--------|--------|--------|--------|--------|--------|
B|--------|--------|--------|--------|--------|--------|--------|--------|--------|
G|--------|--------|--------|--------|--------|--------|--------|--------|--------|
D|--------|--------|--------|--------|--------|--------|--------|--------|--------|
A|--------|--------|--------|--------|--------|--------|--------|--------|--------|
E|--------|--------|--------|--------|--------|--------|--------|--------|--------|


E|--------|--------|--------|--------|--------|--------|--------|--------|--------|
B|--------|--------|--------|--------|--------|--------|--------|--------|--------|
G|--------|--------|--------|--------|--------|--------|--------|--------|--------|
D|--------|--------|--------|--------|--------|--------|--------|--------|--------|
A|--------|--------|--------|--------|--------|--------|--------|--------|--------|
E|--------|--------|--------|--------|--------|--------|--------|--------|--------|


E|--------|--------|--------|--------|--------|--------|--------|--------|--------|
B|--------|--------|--------|--------|--------|--------|--------|--------|--------|
G|--------|--------|--------|--------|--------|--------|--------|--------|--------|
D|--------|--------|--------|--------|--------|--------|--------|--------|--------|
A|--------|--------|--------|--------|--------|--------|--------|--------|--------|
E|--------|--------|--------|--------|--------|--------|--------|--------|--------|


E|--------|--------|--------|--------|--------|--------|--------|--------|--------|
B|--------|--------|--------|--------|--------|--------|--------|--------|--------|
G|--------|--------|--------|--------|--------|--------|--------|--------|--------|
D|--------|--------|--------|--------|--------|--------|--------|--------|--------|
A|--------|--------|--------|--------|--------|--------|--------|--------|--------|
E|--------|--------|--------|--------|--------|--------|--------|--------|--------|


E|--------|--------|--------|--------|--------|--------|--------|--------|--------|
B|--------|--------|--------|--------|--------|--------|--------|--------|--------|
G|--------|--------|--------|--------|--------|--------|--------|--------|--------|
D|--------|--------|--------|--------|--------|--------|--------|--------|--------|
A|--------|--------|--------|--------|--------|--------|--------|--------|--------|
E|--------|--------|--------|--------|--------|--------|--------|--------|--------|


E|--------|--------|--------|--------|--------|--------|--------|--------|--------|
B|--------|--------|--------|--------|--------|--------|--------|--------|--------|
G|--------|--------|--------|--------|--------|--------|--------|--------|--------|
D|--------|--------|--------|--------|--------|--------|--------|--------|--------|
A|--------|--------|--------|--------|--------|--------|--------|--------|--------|
E|--------|--------|--------|--------|--------|--------|--------|--------|--------|


E|-----------------------|----------------|---------------------------|--------|-----------------------|
B|-----------------------|----------------|---------------------------|--------|-----------------------|
G|-----------------------|----------------|---------------------------|--------|-----------------------|
D|-7---9---7-------------|----------------|-7---9---7-----------------|--------|-7---9---7-------------|
A|-------------9---9-----|-9----------9---|-------------9----7--------|--------|-------------9---9-----|
E|-----------------------|----------------|---------------------------|--------|-----------------------|


E|----------------|---------------------------|--------|-----------------------|----------------|
B|----------------|---------------------------|--------|-----------------------|----------------|
G|----------------|---------------------------|--------|-----------------------|----------------|
D|----------------|-7---9---7-----------------|--------|-7---9---7-------------|----------------|
A|-9----------9---|-------------9----7--------|--------|-------------9---9-----|-9----------9---|
E|----------------|---------------------------|--------|-----------------------|----------------|


E|---------------------------|--------|-----------------------|----------------|---------------------------|
B|---------------------------|--------|-----------------------|----------------|---------------------------|
G|---------------------------|--------|-----------------------|----------------|---------------------------|
D|-7---9---7-----------------|--------|-7---9---7-------------|----------------|-7---9---7-----------------|
A|-------------9----7--------|--------|-------------9---9-----|-9----------9---|-------------9----7--------|
E|---------------------------|--------|-----------------------|----------------|---------------------------|


E|--------|--------|--------|--------|--------|--------|--------|--------|
B|--------|--------|--------|--------|--------|--------|--------|--------|
G|--------|--------|--------|--------|--------|--------|--------|--------|
D|-7------|-7------|-7------|-7------|--------|--------|--------|--------|
A|--------|--------|--------|--------|--------|--------|--------|--------|
E|--------|--------|--------|--------|--------|--------|--------|--------|





Track 4: Guitar 1 (clean)

E|--------|--------|--------|--------|--------|--------|--------|--------|--------|
B|--------|--------|--------|--------|--------|--------|--------|--------|--------|
G|--------|--------|--------|--------|--------|--------|--------|--------|--------|
D|--------|--------|--------|--------|--------|--------|--------|--------|--------|
A|--------|--------|--------|--------|--------|--------|--------|--------|--------|
E|--------|--------|--------|--------|--------|--------|--------|--------|--------|


E|--------|--------|--------|--------|--------|--------|--------|--------|--------|
B|--------|--------|--------|--------|--------|--------|--------|--------|--------|
G|--------|--------|--------|--------|--------|--------|--------|--------|--------|
D|--------|--------|--------|--------|--------|--------|--------|--------|--------|
A|--------|--------|--------|--------|--------|--------|--------|--------|--------|
E|--------|--------|--------|--------|--------|--------|--------|--------|--------|


E|--------|--------|--------|--------|--------|--------|-7---7-------7-------7-----------|
B|--------|--------|--------|--------|--------|--------|-9---9-------9-------9-----------|
G|--------|--------|--------|--------|--------|--------|-9---9-------9-------9-------9---|
D|--------|--------|--------|--------|--------|--------|---------------------------------|
A|--------|--------|--------|--------|--------|--------|---------------------------------|
E|--------|--------|--------|--------|--------|--------|---------------------------------|


E|---------------------------------|-7---5-------5-------5-----------|---------------------------------|
B|-5---5-------5-------5-----------|-7---7-------7-------7-----------|-5---5-------5-------5-----------|
G|-6---6-------6-------6-----------|-7---7-------7-------7-------7---|-6---6-------6-------6-----------|
D|-7---7-------7-------7-------7---|---------------------------------|-7---7-------7-------7-------7---|
A|---------------------------------|---------------------------------|---------------------------------|
E|---------------------------------|---------------------------------|---------------------------------|


E|-7---7-------7-------7-----------|---------------------------------|-7---5-------5-------5-----------|
B|-9---9-------9-------9-----------|-5---5-------5-------5-----------|-7---7-------7-------7-----------|
G|-9---9-------9-------9-------9---|-6---6-------6-------6-----------|-7---7-------7-------7-------7---|
D|---------------------------------|-7---7-------7-------7-------7---|---------------------------------|
A|---------------------------------|---------------------------------|---------------------------------|
E|---------------------------------|---------------------------------|---------------------------------|


E|---------------------------------|-7---7-------7-------7-----------|---------------------------------|
B|-5---5-------5-------5-----------|-9---9-------9-------9-----------|-5---5-------5-------5-----------|
G|-6---6-------6-------6-----------|-9---9-------9-------9-------9---|-6---6-------6-------6-----------|
D|-7---7-------7-------7-------7---|---------------------------------|-7---7-------7-------7-------7---|
A|---------------------------------|---------------------------------|---------------------------------|
E|---------------------------------|---------------------------------|---------------------------------|


E|-7---5-------5-------5-----------|---------------------------------|-7---7-------7-------7-----------|
B|-7---7-------7-------7-----------|-5---5-------5-------5-----------|-9---9-------9-------9-----------|
G|-7---7-------7-------7-------7---|-6---6-------6-------6-----------|-9---9-------9-------9-------9---|
D|---------------------------------|-7---7-------7-------7-------7---|---------------------------------|
A|---------------------------------|---------------------------------|---------------------------------|
E|---------------------------------|---------------------------------|---------------------------------|


E|---------------------------------|-7---5-------5-------5-----------|----------------|
B|-5---5-------5-------5-----------|-7---7-------7-------7-----------|-5---5----------|
G|-6---6-------6-------6-----------|-7---7-------7-------7-------7---|-6---6----------|
D|-7---7-------7-------7-------7---|---------------------------------|-7---7----------|
A|---------------------------------|---------------------------------|----------------|
E|---------------------------------|---------------------------------|----------------|


E|--------|--------|--------|--------|--------|--------|--------|--------|--------|
B|--------|--------|--------|--------|--------|--------|--------|--------|--------|
G|--------|--------|--------|--------|--------|--------|--------|--------|--------|
D|--------|--------|--------|--------|--------|--------|--------|--------|--------|
A|--------|--------|--------|--------|--------|--------|--------|--------|--------|
E|--------|--------|--------|--------|--------|--------|--------|--------|--------|


E|--------|--------|--------|--------|--------|--------|--------|-7---7-------7-------7-----------|
B|--------|--------|--------|--------|--------|--------|--------|-9---9-------9-------9-----------|
G|--------|--------|--------|--------|--------|--------|--------|-9---9-------9-------9-------9---|
D|--------|--------|--------|--------|--------|--------|--------|---------------------------------|
A|--------|--------|--------|--------|--------|--------|--------|---------------------------------|
E|--------|--------|--------|--------|--------|--------|--------|---------------------------------|


E|---------------------------------|-7---5-------5-------5-----------|---------------------------------|
B|-5---5-------5-------5-----------|-7---7-------7-------7-----------|-5---5-------5-------5-----------|
G|-6---6-------6-------6-----------|-7---7-------7-------7-------7---|-6---6-------6-------6-----------|
D|-7---7-------7-------7-------7---|---------------------------------|-7---7-------7-------7-------7---|
A|---------------------------------|---------------------------------|---------------------------------|
E|---------------------------------|---------------------------------|---------------------------------|


E|-7---7-------7-------7-----------|---------------------------------|-7---5-------5-------5-----------|
B|-9---9-------9-------9-----------|-5---5-------5-------5-----------|-7---7-------7-------7-----------|
G|-9---9-------9-------9-------9---|-6---6-------6-------6-----------|-7---7-------7-------7-------7---|
D|---------------------------------|-7---7-------7-------7-------7---|---------------------------------|
A|---------------------------------|---------------------------------|---------------------------------|
E|---------------------------------|---------------------------------|---------------------------------|


E|---------------------------------|-7---7-------7-------7-----------|---------------------------------|
B|-5---5-------5-------5-----------|-9---9-------9-------9-----------|-5---5-------5-------5-----------|
G|-6---6-------6-------6-----------|-9---9-------9-------9-------9---|-6---6-------6-------6-----------|
D|-7---7-------7-------7-------7---|---------------------------------|-7---7-------7-------7-------7---|
A|---------------------------------|---------------------------------|---------------------------------|
E|---------------------------------|---------------------------------|---------------------------------|


E|-7---5-------5-------5-----------|---------------------------------|-7---7-------7-------7-----------|
B|-7---7-------7-------7-----------|-5---5-------5-------5-----------|-9---9-------9-------9-----------|
G|-7---7-------7-------7-------7---|-6---6-------6-------6-----------|-9---9-------9-------9-------9---|
D|---------------------------------|-7---7-------7-------7-------7---|---------------------------------|
A|---------------------------------|---------------------------------|---------------------------------|
E|---------------------------------|---------------------------------|---------------------------------|


E|---------------------------------|-7---5-------5-------5-----------|----------------|
B|-5---5-------5-------5-----------|-7---7-------7-------7-----------|-5---5----------|
G|-6---6-------6-------6-----------|-7---7-------7-------7-------7---|-6---6----------|
D|-7---7-------7-------7-------7---|---------------------------------|-7---7----------|
A|---------------------------------|---------------------------------|----------------|
E|---------------------------------|---------------------------------|----------------|


E|--------|--------|--------|--------|--------|--------|--------|--------|--------|
B|--------|--------|--------|--------|--------|--------|--------|--------|--------|
G|--------|--------|--------|--------|--------|--------|--------|--------|--------|
D|--------|--------|--------|--------|--------|--------|--------|--------|--------|
A|--------|--------|--------|--------|--------|--------|--------|--------|--------|
E|--------|--------|--------|--------|--------|--------|--------|--------|--------|


E|--------|--------|--------|--------|--------|--------|--------|--------|--------|
B|--------|--------|--------|--------|--------|--------|--------|--------|--------|
G|--------|--------|--------|--------|--------|--------|--------|--------|--------|
D|--------|--------|--------|--------|--------|--------|--------|--------|--------|
A|--------|--------|--------|--------|--------|--------|--------|--------|--------|
E|--------|--------|--------|--------|--------|--------|--------|--------|--------|


E|--------|--------|--------|--------|--------|--------|--------|--------|--------|
B|--------|--------|--------|--------|--------|--------|--------|--------|--------|
G|--------|--------|--------|--------|--------|--------|--------|--------|--------|
D|--------|--------|--------|--------|--------|--------|--------|--------|--------|
A|--------|--------|--------|--------|--------|--------|--------|--------|--------|
E|--------|--------|--------|--------|--------|--------|--------|--------|--------|


E|--------|--------|--------|--------|--------|--------|--------|--------|--------|
B|--------|--------|--------|--------|--------|--------|--------|--------|--------|
G|--------|--------|--------|--------|--------|--------|--------|--------|--------|
D|--------|--------|--------|--------|--------|--------|--------|--------|--------|
A|--------|--------|--------|--------|--------|--------|--------|--------|--------|
E|--------|--------|--------|--------|--------|--------|--------|--------|--------|


E|--------|--------|--------|--------|--------|--------|--------|--------|--------|
B|--------|--------|--------|--------|--------|--------|--------|--------|--------|
G|--------|--------|--------|--------|--------|--------|--------|--------|--------|
D|--------|--------|--------|--------|--------|--------|--------|--------|--------|
A|--------|--------|--------|--------|--------|--------|--------|--------|--------|
E|--------|--------|--------|--------|--------|--------|--------|--------|--------|


E|--------|--------|--------|--------|--------|--------|--------|--------|--------|
B|--------|--------|--------|--------|--------|--------|--------|--------|--------|
G|--------|--------|--------|--------|--------|--------|--------|--------|--------|
D|--------|--------|--------|--------|--------|--------|--------|--------|--------|
A|--------|--------|--------|--------|--------|--------|--------|--------|--------|
E|--------|--------|--------|--------|--------|--------|--------|--------|--------|


E|--------|--------|
B|--------|--------|
G|--------|--------|
D|--------|--------|
A|--------|--------|
E|--------|--------|





Track 5: Trombone

E|--------|--------|--------|--------|--------|--------|--------|--------|--------|
B|--------|--------|--------|--------|--------|--------|--------|--------|--------|
G|--------|--------|--------|--------|--------|--------|--------|--------|--------|
D|--------|--------|--------|--------|--------|--------|--------|--------|--------|
A|--------|--------|--------|--------|--------|--------|--------|--------|--------|
E|--------|--------|--------|--------|--------|--------|--------|--------|--------|


E|--------|--------|--------|--------|--------|--------|--------|--------|--------|
B|--------|--------|--------|--------|--------|--------|--------|--------|--------|
G|--------|--------|--------|--------|--------|--------|--------|--------|--------|
D|--------|--------|--------|--------|--------|--------|--------|--------|--------|
A|--------|--------|--------|--------|--------|--------|--------|--------|--------|
E|--------|--------|--------|--------|--------|--------|--------|--------|--------|


E|--------|--------|--------|--------|--------|--------|--------|--------|--------|
B|--------|--------|--------|--------|--------|--------|--------|--------|--------|
G|--------|--------|--------|--------|--------|--------|--------|--------|--------|
D|--------|--------|--------|--------|--------|--------|--------|--------|--------|
A|--------|--------|--------|--------|--------|--------|--------|--------|--------|
E|--------|--------|--------|--------|--------|--------|--------|--------|--------|


E|--------|--------|--------|--------|--------|--------|--------|--------|--------|
B|--------|--------|--------|--------|--------|--------|--------|--------|--------|
G|--------|--------|--------|--------|--------|--------|--------|--------|--------|
D|--------|--------|--------|--------|--------|--------|--------|--------|--------|
A|--------|--------|--------|--------|--------|--------|--------|--------|--------|
E|--------|--------|--------|--------|--------|--------|--------|--------|--------|


E|--------|--------|--------|--------|---------------------------------|---------------------------------|
B|--------|--------|--------|--------|---------------------------------|---------------------------------|
G|--------|--------|--------|--------|-----9-------9-------9-------9---|---------------------------------|
D|--------|--------|--------|--------|---------------------------------|-----7-------7-------7-------7---|
A|--------|--------|--------|--------|---------------------------------|---------------------------------|
E|--------|--------|--------|--------|---------------------------------|---------------------------------|


E|---------------------------------|------------------------------|---------------------------------|
B|---------------------------------|------------------------------|---------------------------------|
G|-----7-------7-------7-------7---|------------------------------|-----9-------9-------9-------9---|
D|---------------------------------|-----7-------7-------7--------|---------------------------------|
A|---------------------------------|------------------------------|---------------------------------|
E|---------------------------------|------------------------------|---------------------------------|


E|---------------------------------|---------------------------------|------------------------------|
B|---------------------------------|---------------------------------|------------------------------|
G|---------------------------------|-----7-------7-------7-------7---|------------------------------|
D|-----7-------7-------7-------7---|---------------------------------|-----7-------7-------7--------|
A|---------------------------------|---------------------------------|------------------------------|
E|---------------------------------|---------------------------------|------------------------------|


E|------------------------|---------------------------|------------------------|---------------------------|
B|------------------------|---------------------------|------------------------|---------------------------|
G|------9---------9-------|---------------------------|------7---------7-------|---------------------------|
D|------------------------|------7---7--------7-------|------------------------|------7---7--------7-------|
A|------------------------|---------------------------|------------------------|---------------------------|
E|------------------------|---------------------------|------------------------|---------------------------|


E|------------------------|---------------------------|------------------------|---------------------------|
B|------------------------|---------------------------|------------------------|---------------------------|
G|------9---------9-------|---------------------------|------7---------7-------|---------------------------|
D|------------------------|------7---7--------7-------|------------------------|------7---7--------7-------|
A|------------------------|---------------------------|------------------------|---------------------------|
E|------------------------|---------------------------|------------------------|---------------------------|


E|--------|--------|--------|--------|--------|--------|--------|--------|--------|
B|--------|--------|--------|--------|--------|--------|--------|--------|--------|
G|--------|--------|--------|--------|--------|--------|--------|--------|--------|
D|--------|--------|--------|--------|--------|--------|--------|--------|--------|
A|--------|--------|--------|--------|--------|--------|--------|--------|--------|
E|--------|--------|--------|--------|--------|--------|--------|--------|--------|


E|--------|--------|--------|--------|--------|--------|--------|---------------------------------|
B|--------|--------|--------|--------|--------|--------|--------|---------------------------------|
G|--------|--------|--------|--------|--------|--------|--------|-----9-------9-------9-------9---|
D|--------|--------|--------|--------|--------|--------|--------|---------------------------------|
A|--------|--------|--------|--------|--------|--------|--------|---------------------------------|
E|--------|--------|--------|--------|--------|--------|--------|---------------------------------|


E|---------------------------------|---------------------------------|------------------------------|
B|---------------------------------|---------------------------------|------------------------------|
G|---------------------------------|-----7-------7-------7-------7---|------------------------------|
D|-----7-------7-------7-------7---|---------------------------------|-----7-------7-------7--------|
A|---------------------------------|---------------------------------|------------------------------|
E|---------------------------------|---------------------------------|------------------------------|


E|---------------------------------|---------------------------------|---------------------------------|
B|---------------------------------|---------------------------------|---------------------------------|
G|-----9-------9-------9-------9---|---------------------------------|-----7-------7-------7-------7---|
D|---------------------------------|-----7-------7-------7-------7---|---------------------------------|
A|---------------------------------|---------------------------------|---------------------------------|
E|---------------------------------|---------------------------------|---------------------------------|


E|------------------------------|------------------------|---------------------------|
B|------------------------------|------------------------|---------------------------|
G|------------------------------|------9---------9-------|---------------------------|
D|-----7-------7-------7--------|------------------------|------7---7--------7-------|
A|------------------------------|------------------------|---------------------------|
E|------------------------------|------------------------|---------------------------|


E|------------------------|---------------------------|------------------------|---------------------------|
B|------------------------|---------------------------|------------------------|---------------------------|
G|------7---------7-------|---------------------------|------9---------9-------|---------------------------|
D|------------------------|------7---7--------7-------|------------------------|------7---7--------7-------|
A|------------------------|---------------------------|------------------------|---------------------------|
E|------------------------|---------------------------|------------------------|---------------------------|


E|------------------------|---------------------------|--------|--------|--------|
B|------------------------|---------------------------|--------|--------|--------|
G|------7---------7-------|---------------------------|--------|--------|--------|
D|------------------------|------7---7--------7-------|--------|--------|--------|
A|------------------------|---------------------------|--------|--------|--------|
E|------------------------|---------------------------|--------|--------|--------|


E|--------|--------|--------|--------|--------|--------|--------|--------|--------|
B|--------|--------|--------|--------|--------|--------|--------|--------|--------|
G|--------|--------|--------|--------|--------|--------|--------|--------|--------|
D|--------|--------|--------|--------|--------|--------|--------|--------|--------|
A|--------|--------|--------|--------|--------|--------|--------|--------|--------|
E|--------|--------|--------|--------|--------|--------|--------|--------|--------|


E|--------|--------|--------|--------|--------|--------|--------|--------|--------|
B|--------|--------|--------|--------|--------|--------|--------|--------|--------|
G|--------|--------|--------|--------|--------|--------|--------|--------|--------|
D|--------|--------|--------|--------|--------|--------|--------|--------|--------|
A|--------|--------|--------|--------|--------|--------|--------|--------|--------|
E|--------|--------|--------|--------|--------|--------|--------|--------|--------|


E|--------|--------|--------|--------|--------|--------|--------|--------|--------|
B|--------|--------|--------|--------|--------|--------|--------|--------|--------|
G|--------|--------|--------|--------|--------|--------|--------|--------|--------|
D|--------|--------|--------|--------|--------|--------|--------|--------|--------|
A|--------|--------|--------|--------|--------|--------|--------|--------|--------|
E|--------|--------|--------|--------|--------|--------|--------|--------|--------|


E|--------|--------|--------|--------|--------|--------|--------|--------|--------|
B|--------|--------|--------|--------|--------|--------|--------|--------|--------|
G|--------|--------|--------|--------|--------|--------|--------|--------|--------|
D|--------|--------|--------|--------|--------|--------|--------|--------|--------|
A|--------|--------|--------|--------|--------|--------|--------|--------|--------|
E|--------|--------|--------|--------|--------|--------|--------|--------|--------|


E|--------|
B|--------|
G|--------|
D|--------|
A|--------|
E|--------|





Track 6: Fretless Bass

G|--------|----------------|---------------------------|---------------------------|
D|--------|----------------|---------------------------|---------------------------|
A|--------|--------5---0---|------5-----------5----5---|-7----7-----------5---5----|
E|--------|----------------|-5---------5---5-----------|-----------5---5-----------|


G|---------------------------|---------------------------|---------------------------|
D|---------------------------|---------------------------|---------------------------|
A|------5-----------5----5---|-7----7-----------5---5----|------5-----------5----5---|
E|-5---------5---5-----------|-----------5---5-----------|-5---------5---5-----------|


G|---------------------------|---------------------|---------------------|---------------------|
D|---------------------------|------7----9----7----|---------------------|------5----7----5----|
A|-7----7--------5---7---5---|-7-------------------|------7----5----7----|-5-------------------|
E|-----------5---------------|---------------------|-5-------------------|---------------------|


G|---------------------|---------------------|---------------------|---------------------|
D|---------------------|------7----9----7----|---------------------|------5----7----5----|
A|------7----5----7----|-7-------------------|------7----5----7----|-5-------------------|
E|-5-------------------|---------------------|-5-------------------|---------------------|


G|---------------------|---------------------|---------------------|---------------------|
D|---------------------|------7----9----7----|---------------------|------5----7----5----|
A|------7----5----7----|-7-------------------|------7----5----7----|-5-------------------|
E|-5-------------------|---------------------|-5-------------------|---------------------|


G|---------------------|---------------------|---------------------|---------------------|
D|---------------------|------7----9----7----|---------------------|------5----7----5----|
A|------7----5----7----|-7-------------------|------7----5----7----|-5-------------------|
E|-5-------------------|---------------------|-5-------------------|---------------------|


G|---------------------|---------------------|---------------------|---------------------|
D|---------------------|-----------9----7----|-7----9----9----7----|-5----7----5---------|
A|------7----5----7----|-7----9--------------|---------------------|----------------5----|
E|-5-------------------|---------------------|---------------------|---------------------|


G|---------------------|---------------------|---------------------|---------------------|
D|---------------------|-----------9----7----|-7----9----9----7----|-5----7----5---------|
A|-5----7--------------|-7----9--------------|---------------------|----------------5----|
E|-----------7----5----|---------------------|---------------------|---------------------|


G|-5-------------------|---------------------|---------------------|---------------------|
D|------7----5---------|-----------9----7----|-7----9----9----7----|-5----7----5---------|
A|----------------7----|-7----9--------------|---------------------|----------------5----|
E|---------------------|---------------------|---------------------|---------------------|


G|---------------------|---------------------|---------------------|---------------------|
D|---------------------|-----------9----7----|-7----9----9----7----|-5----7----5---------|
A|-5----7--------------|-7----9--------------|---------------------|----------------5----|
E|-----------7----5----|---------------------|---------------------|---------------------|


G|-5-------------------|---------------------|---------------------|---------------------|
D|------7----5---------|------7----9----7----|---------------------|------5----7----5----|
A|----------------7----|-7-------------------|------7----5----7----|-5-------------------|
E|---------------------|---------------------|-5-------------------|---------------------|


G|---------------------|---------------------|---------------------|---------------------|
D|---------------------|------7----9----7----|---------------------|------5----7----5----|
A|------7----5----7----|-7-------------------|------7----5----7----|-5-------------------|
E|-5-------------------|---------------------|-5-------------------|---------------------|


G|---------------------|---------------------|---------------------|---------------------|
D|---------------------|------7----9----7----|---------------------|------5----7----5----|
A|------7----5----7----|-7-------------------|------7----5----7----|-5-------------------|
E|-5-------------------|---------------------|-5-------------------|---------------------|


G|---------------------|---------------------|---------------------|---------------------|
D|---------------------|------7----9----7----|---------------------|------5----7----5----|
A|------7----5----7----|-7-------------------|------7----5----7----|-5-------------------|
E|-5-------------------|---------------------|-5-------------------|---------------------|


G|---------------------|---------------------|---------------------|---------------------|
D|---------------------|-----------9----7----|-7----9----9----7----|-5----7----5---------|
A|------7----5----7----|-7----9--------------|---------------------|----------------5----|
E|-5-------------------|---------------------|---------------------|---------------------|


G|---------------------|---------------------|---------------------|---------------------|
D|---------------------|-----------9----7----|-7----9----9----7----|-5----7----5---------|
A|-5----7--------------|-7----9--------------|---------------------|----------------5----|
E|-----------7----5----|---------------------|---------------------|---------------------|


G|-5-------------------|---------------------|---------------------|---------------------|
D|------7----5---------|-----------9----7----|-7----9----9----7----|-5----7----5---------|
A|----------------7----|-7----9--------------|---------------------|----------------5----|
E|---------------------|---------------------|---------------------|---------------------|


G|---------------------|---------------------|---------------------|---------------------|
D|---------------------|-----------9----7----|-7----9----9----7----|-5----7----5---------|
A|-5----7--------------|-7----9--------------|---------------------|----------------5----|
E|-----------7----5----|---------------------|---------------------|---------------------|


G|-5-------------------|---------------------|---------------------|---------------------|
D|------7----5---------|------7----9----7----|---------------------|------5----7----5----|
A|----------------7----|-7-------------------|------7----5----7----|-5-------------------|
E|---------------------|---------------------|-5-------------------|---------------------|


G|---------------------|---------------------|---------------------|---------------------|
D|---------------------|------7----9----7----|---------------------|------5----7----5----|
A|------7----5----7----|-7-------------------|------7----5----7----|-5-------------------|
E|-5-------------------|---------------------|-5-------------------|---------------------|


G|---------------------|---------------------|---------------------|---------------------|
D|---------------------|------7----9----7----|---------------------|------5----7----5----|
A|------7----5----7----|-7-------------------|------7----5----7----|-5-------------------|
E|-5-------------------|---------------------|-5-------------------|---------------------|


G|---------------------|---------------------|---------------------|---------------------|
D|---------------------|------7----9----7----|---------------------|------5----7----5----|
A|------7----5----7----|-7-------------------|------7----5----7----|-5-------------------|
E|-5-------------------|---------------------|-5-------------------|---------------------|


G|---------------------|--------|--------|--------|--------|--------|--------|--------|
D|---------------------|--------|--------|--------|--------|--------|--------|--------|
A|------7----5----7----|--------|--------|--------|--------|--------|--------|--------|
E|-5-------------------|--------|--------|--------|--------|--------|--------|--------|


G|--------|--------|--------|--------|--------|--------|--------|--------|--------|
D|--------|--------|--------|--------|--------|--------|--------|--------|--------|
A|--------|-7------|--------|-5------|--------|-7------|--------|-5------|--------|
E|--------|--------|-5------|--------|-5------|--------|-5------|--------|-5------|


G|---------------------|---------------------|---------------------|---------------------|
D|------7----9----7----|---------------------|------5----7----5----|---------------------|
A|-7-------------------|------7----5----7----|-5-------------------|------7----5----7----|
E|---------------------|-5-------------------|---------------------|-5-------------------|


G|---------------------|---------------------|---------------------|---------------------|
D|------7----9----7----|---------------------|------5----7----5----|---------------------|
A|-7-------------------|------7----5----7----|-5-------------------|------7----5----7----|
E|---------------------|-5-------------------|---------------------|-5-------------------|


G|---------------------|---------------------|---------------------|---------------------|
D|------7----9----7----|---------------------|------5----7----5----|---------------------|
A|-7-------------------|------7----5----7----|-5-------------------|------7----5----7----|
E|---------------------|-5-------------------|---------------------|-5-------------------|


G|---------------------|---------------------|---------------------|---------------------|
D|------7----9----7----|---------------------|------5----7----5----|---------------------|
A|-7-------------------|------7----5----7----|-5-------------------|------7----5----7----|
E|---------------------|-5-------------------|---------------------|-5-------------------|


G|--------|--------|--------|--------|--------|--------|--------|--------|
D|--------|--------|--------|--------|--------|--------|--------|--------|
A|--------|--------|--------|--------|--------|--------|--------|--------|
E|-5------|-5------|-5------|-5------|--------|--------|--------|--------|