Site menu:

    

Browse: 0-9 A B C D E F G H I J K L N O P Q R S T U V W X Y Z

queens of the stone age - someones in the wolf:



Title: Someone's In The Wolf
Artist: 
Album: Lullabies To Paralyze
Author: Joey Castillo/Josh Homme/Troy Van Leeuwen


Track 1: Heavy guitar 1

D|-------------------------------------------|-------------------------------------------|
A|-------------------------------------------|-------------------------------------------|
F|-9--9---9--9--9---9--9--9--9--9--9--9---9--|-9--9---9--9--9---9--9--9--9--9--9--9---9--|
C|-7--7---7--7--7---7--7--7--7--7--7--7---7--|-7--7---7--7--7---7--7--7--7--7--7--7---7--|
G|-6--0---0--6--0---0--6--0--6--0--6--0---0--|-6--0---0--6--0---0--6--0--6--0--6--0---0--|
D|-------------------------------------------|-------------------------------------------|


D|-------------------------------------------------|-------------------------------------------------|
A|-------------------------------------------------|-------------------------------------------------|
F|-14-14-14-14-16----16----17-17-17-17-20----20----|-14-14-14-14-16----16----17-17-17-17-20----20----|
C|-------------------------------------------------|-------------------------------------------------|
G|-12-12-12-12-14----14----15-15-15-15-18----18----|-12-12-12-12-14----14----15-15-15-15-18----18----|
D|-------------------------------------------------|-------------------------------------------------|


D|-------------------------------------------------|-------------------------------------------------|
A|-------------------------------------------------|-------------------------------------------------|
F|-14-14-14-14-16-16-16-16-17-17-17-17-20-20-20-20-|-14-14-14-14-16-16-16-16-17-17-17-17-20-20-20-20-|
C|-------------------------------------------------|-------------------------------------------------|
G|-12-12-12-12-14-14-14-14-15-15-15-15-18-18-18-18-|-12-12-12-12-14-14-14-14-15-15-15-15-18-18-18-18-|
D|-------------------------------------------------|-------------------------------------------------|


D|-------------------------------------------|-------------------------------------------|
A|-------------------------------------------|-------------------------------------------|
F|-9--9---9--9--9---9--9--9--9--9--9--9---9--|-9--9---9--9--9---9--9--9--9--9--9--9---9--|
C|-7--7---7--7--7---7--7--7--7--7--7--7---7--|-7--7---7--7--7---7--7--7--7--7--7--7---7--|
G|-6--0---0--6--0---0--6--0--6--0--6--0---0--|-6--0---0--6--0---0--6--0--6--0--6--0---0--|
D|-------------------------------------------|-------------------------------------------|


D|-------------------------------------------------|-------------------------------------------------|
A|-------------------------------------------------|-------------------------------------------------|
F|----9--------8--------------9--------8-----------|----9--------8-----------8--8--8--6-----6--8-----|
C|-7--7-----7--------7-----7--7-----7--------7-----|-7--7-----7--------7-----------------7--------7--|
G|-0--0--0--0--------------0--0--0--0--------------|-0--0--0--0--------------------------------------|
D|-------------------------------------------------|-------------------------------------------------|


D|-------------------------------------------------|-------------------------------------------------|
A|-------------------------------------------------|-------------------------------------------------|
F|----9--------8--------------9--------8-----------|----9--------8-----------8--8--8--6-----6--8-----|
C|-7--7-----7--------7-----7--7-----7--------7-----|-7--7-----7--------7-----------------7--------7--|
G|-0--0--0--0--------------0--0--0--0--------------|-0--0--0--0--------------------------------------|
D|-------------------------------------------------|-------------------------------------------------|


D|-------------------------------------------------|-------------------------------------------------|
A|-------------------------------------------------|-------------------------------------------------|
F|----9--------8--------------9--------8-----------|----9--------8-----------8--8--8--6-----6--8-----|
C|-7--7-----7--------7-----7--7-----7--------7-----|-7--7-----7--------7-----------------7--------7--|
G|-0--0--0--0--------------0--0--0--0--------------|-0--0--0--0--------------------------------------|
D|-------------------------------------------------|-------------------------------------------------|


D|-------------------------------------------------|-------------------------------------------------|
A|-------------------------------------------------|-------------------------------------------------|
F|----9--------8--------------9--------8-----------|----9--------8-----------8--8--8--6-----6--8-----|
C|-7--7-----7--------7-----7--7-----7--------7-----|-7--7-----7--------7-----------------7--------7--|
G|-0--0--0--0--------------0--0--0--0--------------|-0--0--0--0--------------------------------------|
D|-------------------------------------------------|-------------------------------------------------|


D|-------------------------------------------------|-------------------------------------------------|
A|-------------------------------------------------|-------------------------------------------------|
F|----9--------8--------------9--------8-----------|----9--------8-----------8--8--8--6-----6--8-----|
C|-7--7-----7--------7-----7--7-----7--------7-----|-7--7-----7--------7-----------------7--------7--|
G|-0--0--0--0--------------0--0--0--0--------------|-0--0--0--0--------------------------------------|
D|-------------------------------------------------|-------------------------------------------------|


D|-------------------------------------------------|-------------------------------------------------|
A|-------------------------------------------------|-------------------------------------------------|
F|----9--------8--------------9--------8-----------|----9--------8-----------8--8--8--6-----6--8-----|
C|-7--7-----7--------7-----7--7-----7--------7-----|-7--7-----7--------7-----------------7--------7--|
G|-0--0--0--0--------------0--0--0--0--------------|-0--0--0--0--------------------------------------|
D|-------------------------------------------------|-------------------------------------------------|


D|---------------------------------------------|---------------------------------------------|
A|-------------14----------16-16-16-16-14------|-16-16-16-16-14------16-16-16-14-------------|
F|-------13-14-------14------------------------|---------------------------------13-14-------|
C|----13---------------------------------------|---------------------------------------13----|
G|-12------------------------------------------|------------------------------------------16-|
D|---------------------------------------------|---------------------------------------------|


D|---------------------------------------------|---------------------------------------------|
A|-------------14----------16-16-16-16-14------|-16-16-16-16-14------16-16-16-14-------------|
F|-------13-14-------14------------------------|---------------------------------13-14-------|
C|----13---------------------------------------|---------------------------------------13----|
G|-12------------------------------------------|------------------------------------------16-|
D|---------------------------------------------|---------------------------------------------|


D|-------------------------------------------------|-------------------------------------------------|
A|-------------------------------------------------|-------------------------------------------------|
F|----9--------8--------------9--------8-----------|----9--------8-----------8--8--8--6-----6--8-----|
C|-7--7-----7--------7-----7--7-----7--------7-----|-7--7-----7--------7-----------------7--------7--|
G|-0--0--0--0--------------0--0--0--0--------------|-0--0--0--0--------------------------------------|
D|-------------------------------------------------|-------------------------------------------------|


D|-------------------------------------------------|-------------------------------------------------|
A|-------------------------------------------------|-------------------------------------------------|
F|----9--------8--------------9--------8-----------|----9--------8-----------8--8--8--6-----6--8-----|
C|-7--7-----7--------7-----7--7-----7--------7-----|-7--7-----7--------7-----------------7--------7--|
G|-0--0--0--0--------------0--0--0--0--------------|-0--0--0--0--------------------------------------|
D|-------------------------------------------------|-------------------------------------------------|


D|-------------------------------------------------|-------------------------------------------------|
A|-------------------------------------------------|-------------------------------------------------|
F|----9--------8--------------9--------8-----------|----9--------8-----------8--8--8--6-----6--8-----|
C|-7--7-----7--------7-----7--7-----7--------7-----|-7--7-----7--------7-----------------7--------7--|
G|-0--0--0--0--------------0--0--0--0--------------|-0--0--0--0--------------------------------------|
D|-------------------------------------------------|-------------------------------------------------|


D|-------------------------------------------------|-------------------------------------------------|
A|-------------------------------------------------|-------------------------------------------------|
F|----9--------8--------------9--------8-----------|----9--------8-----------8--8--8--6-----6--8-----|
C|-7--7-----7--------7-----7--7-----7--------7-----|-7--7-----7--------7-----------------7--------7--|
G|-0--0--0--0--------------0--0--0--0--------------|-0--0--0--0--------------------------------------|
D|-------------------------------------------------|-------------------------------------------------|


D|---------------------------------------------|---------------------------------------------|
A|-------------14----------16-16-16-16-14------|-16-16-16-16-14------16-16-16-14-------------|
F|-------13-14-------14------------------------|---------------------------------13-14-------|
C|----13---------------------------------------|---------------------------------------13----|
G|-12------------------------------------------|------------------------------------------16-|
D|---------------------------------------------|---------------------------------------------|


D|---------------------------------------------|---------------------------------------------|
A|-------------14----------16-16-16-16-14------|-16-16-16-16-14------16-16-16-14-------------|
F|-------13-14-------14------------------------|---------------------------------13-14-------|
C|----13---------------------------------------|---------------------------------------13----|
G|-12------------------------------------------|------------------------------------------16-|
D|---------------------------------------------|---------------------------------------------|


D|---------------------------------------------|---------------------------------------------|
A|-------------14----------16-16-16-16-14------|-16-16-16-16-14------16-16-16-14-------------|
F|-------12-14-------14------------------------|---------------------------------13-14-------|
C|----13---------------------------------------|---------------------------------------13----|
G|-12------------------------------------------|------------------------------------------16-|
D|---------------------------------------------|---------------------------------------------|


D|---------------------------------------------|---------------------------------------------|
A|-------------14----------16-16-16-16-14------|-16-16-16-16-14------16-16-16-14-------------|
F|-------12-14-------14------------------------|---------------------------------13-14-------|
C|----13---------------------------------------|---------------------------------------13----|
G|-12------------------------------------------|------------------------------------------16-|
D|---------------------------------------------|---------------------------------------------|


D|-17---19------15---12------|-15---12------11---9-------|-17---19------15---12------|
A|---------------------------|---------------------------|---------------------------|
F|-14---16------12---9-------|-12---9-------8----6-------|-14---16------12---9-------|
C|---------------------------|---------------------------|---------------------------|
G|---------------------------|---------------------------|---------------------------|
D|---------------------------|---------------------------|---------------------------|


D|-15---12------11---9-------|-17---19------15---12------|-15---12------11---9-------|
A|---------------------------|---------------------------|---------------------------|
F|-12---9-------8----6-------|-14---16------12---9-------|-12---9-------8----6-------|
C|---------------------------|---------------------------|---------------------------|
G|---------------------------|---------------------------|---------------------------|
D|---------------------------|---------------------------|---------------------------|


D|-17---19------15---12------|-15---12------11---9-------|-------------------------------------------------|
A|---------------------------|---------------------------|-------------------------------------------------|
F|-14---16------12---9-------|-12---9-------8----6-------|-14-14-14-14-16----16----17-17-17-17-20----20----|
C|---------------------------|---------------------------|-------------------------------------------------|
G|---------------------------|---------------------------|-12-12-12-12-14----14----15-15-15-15-18----18----|
D|---------------------------|---------------------------|-------------------------------------------------|


D|-------------------------------------------------|-------------------------------------------------|
A|-------------------------------------------------|-------------------------------------------------|
F|-14-14-14-14-16----16----17-17-17-17-20----20----|-14-14-14-14-16-16-16-16-17-17-17-17-20-20-20-20-|
C|-------------------------------------------------|-------------------------------------------------|
G|-12-12-12-12-14----14----15-15-15-15-18----18----|-12-12-12-12-14-14-14-14-15-15-15-15-18-18-18-18-|
D|-------------------------------------------------|-------------------------------------------------|


D|-------------------------------------------------|-------------------------------------------|
A|-------------------------------------------------|-------------------------------------------|
F|-14-14-14-14-16-16-16-16-17-17-17-17-20-20-20-20-|-9--9---9--9--9---9--9--9--9--9--9--9---9--|
C|-------------------------------------------------|-7--7---7--7--7---7--7--7--7--7--7--7---7--|
G|-12-12-12-12-14-14-14-14-15-15-15-15-18-18-18-18-|-6--0---0--6--0---0--6--0--6--0--6--0---0--|
D|-------------------------------------------------|-------------------------------------------|


D|-------------------------------------------|-------------------------------------------|
A|-------------------------------------------|-------------------------------------------|
F|-9--9---9--9--9---9--9--9--9--9--9--9---9--|-9--9---9--9--9---9--9--9--9--9--9--9---9--|
C|-7--7---7--7--7---7--7--7--7--7--7--7---7--|-7--7---7--7--7---7--7--7--7--7--7--7---7--|
G|-6--0---0--6--0---0--6--0--6--0--6--0---0--|-6--0---0--6--0---0--6--0--6--0--6--0---0--|
D|-------------------------------------------|-------------------------------------------|


D|-------------------------------------------|-------------------------------------------------|
A|-------------------------------------------|-------------------------------------------------|
F|-9--9---9--9--9---9--9--9--9--9--9--9---9--|----9--------8--------------9--------8-----------|
C|-7--7---7--7--7---7--7--7--7--7--7--7---7--|-7--------7--------7-----7--------7--------7-----|
G|-6--0---0--6--0---0--6--0--6--0--6--0---0--|-0--0--0--0--------------0--0--0--0--------------|
D|-------------------------------------------|-------------------------------------------------|


D|-------------------------------------------------|-------------------------------------------------|
A|-------------------------------------------------|-------------------------------------------------|
F|----9--------8-----------8--8--8--6-----6--8-----|----9--------8--------------9--------8-----------|
C|-7--------7--------7-----------------7--------7--|-7--------7--------7-----7--------7--------7-----|
G|-0--0--0--0--------------------------------------|-0--0--0--0--------------0--0--0--0--------------|
D|-------------------------------------------------|-------------------------------------------------|


D|-------------------------------------------------|-------------------------------------------------|
A|-------------------------------------------------|-------------------------------------------------|
F|----9--------8-----------8--8--8--6-----6--8-----|----9--------8--------------9--------8-----------|
C|-7--------7--------7-----------------7--------7--|-7--------7--------7-----7--------7--------7-----|
G|-0--0--0--0--------------------------------------|-0--0--0--0--------------0--0--0--0--------------|
D|-------------------------------------------------|-------------------------------------------------|


D|-------------------------------------------------|-------------------------------------------------|
A|-------------------------------------------------|-------------------------------------------------|
F|----9--------8-----------8--8--8--6-----6--8-----|----9--------8--------------9--------8-----------|
C|-7--------7--------7-----------------7--------7--|-7--------7--------7-----7--------7--------7-----|
G|-0--0--0--0--------------------------------------|-0--0--0--0--------------0--0--0--0--------------|
D|-------------------------------------------------|-------------------------------------------------|


D|-------------------------------------------------|-------------------------------------------------|
A|-------------------------------------------------|-------------------------------------------------|
F|----9--------8-----------8--8--8--6-----6--8-----|----9--------8--------------9--------8-----------|
C|-7--------7--------7-----------------7--------7--|-7--------7--------7-----7--------7--------7-----|
G|-0--0--0--0--------------------------------------|-0--0--0--0--------------0--0--0--0--------------|
D|-------------------------------------------------|-------------------------------------------------|


D|-------------------------------------------------|-------------------------------------------------|
A|-------------------------------------------------|-------------------------------------------------|
F|----9--------8-----------8--8--8--6-----6--8-----|----9--------8--------------9--------8-----------|
C|-7--------7--------7-----------------7--------7--|-7--------7--------7-----7--------7--------7-----|
G|-0--0--0--0--------------------------------------|-0--0--0--0--------------0--0--0--0--------------|
D|-------------------------------------------------|-------------------------------------------------|


D|-------------------------------------------------|---------------------------------------------|
A|-------------------------------------------------|-------------14----------16-16-16-16-14------|
F|----9--------8-----------8--8--8--6-----6--8-----|-------13-14-------14------------------------|
C|-7--------7--------7-----------------7--------7--|----13---------------------------------------|
G|-0--0--0--0--------------------------------------|-12------------------------------------------|
D|-------------------------------------------------|---------------------------------------------|


D|---------------------------------------------|---------------------------------------------|
A|-16-16-16-16-14------16-16-16-14-------------|-------------14----------16-16-16-16-14------|
F|---------------------------------13-14-------|-------13-14-------14------------------------|
C|---------------------------------------13----|----13---------------------------------------|
G|------------------------------------------16-|-12------------------------------------------|
D|---------------------------------------------|---------------------------------------------|


D|---------------------------------------------|---------------------------------------------|
A|-16-16-16-16-14------16-16-16-14-------------|-------------14----------16-16-16-16-14------|
F|---------------------------------13-14-------|-------13-14-------14------------------------|
C|---------------------------------------13----|----13---------------------------------------|
G|------------------------------------------16-|-12------------------------------------------|
D|---------------------------------------------|---------------------------------------------|


D|---------------------------------------------|---------------------------------------------|
A|-16-16-16-16-14------16-16-16-14-------------|-------------14----------16-16-16-16-14------|
F|---------------------------------13-14-------|-------13-14-------14------------------------|
C|---------------------------------------13----|----13---------------------------------------|
G|------------------------------------------16-|-12------------------------------------------|
D|---------------------------------------------|---------------------------------------------|


D|---------------------------------------------|-------------------------------------------------|
A|-16-16-16-16-14------16-16-16-14-------------|-------------------------------------------------|
F|---------------------------------13-14-------|-------------8-----------------------8-----------|
C|---------------------------------------13----|-7--7--7--7--------7-----7--7--7--7--------7-----|
G|------------------------------------------16-|-0--0--0--0--------------0--0--0--0--------------|
D|---------------------------------------------|-------------------------------------------------|


D|-------------------------------------------------|-------------------------------------------------|
A|-------------------------------------------------|-------------------------------------------------|
F|-------------8-----------8--8--8--6-----6--8-----|-------------8-----------------------8-----------|
C|-7--7--7--7--------7-----------------7--------7--|-7--7--7--7--------7-----7--7--7--7--------7-----|
G|-0--0--0--0--------------------------------------|-0--0--0--0--------------0--0--0--0--------------|
D|-------------------------------------------------|-------------------------------------------------|


D|-------------------------------------------------|-------------------------------------------------|
A|-------------------------------------------------|-------------------------------------------------|
F|-------------8-----------8--8--8--6-----6--8-----|-------------8-----------------------8-----------|
C|-7--7--7--7--------7-----------------7--------7--|-7--7--7--7--------7-----7--7--7--7--------7-----|
G|-0--0--0--0--------------------------------------|-0--0--0--0--------------0--0--0--0--------------|
D|-------------------------------------------------|-------------------------------------------------|


D|-------------------------------------------------|-------------------------------------------------|
A|-------------------------------------------------|-------------------------------------------------|
F|-------------8-----------8--8--8--6-----6--8-----|-------------8-----------------------8-----------|
C|-7--7--7--7--------7-----------------7--------7--|-7--7--7--7--------7-----7--7--7--7--------7-----|
G|-0--0--0--0--------------------------------------|-0--0--0--0--------------0--0--0--0--------------|
D|-------------------------------------------------|-------------------------------------------------|


D|-------------------------------------------------|-17---19------15---12------|-15---12------11---9-------|
A|-------------------------------------------------|---------------------------|---------------------------|
F|-------------8-----------8--8--8--6-----6--8-----|-14---16------12---9-------|-12---9-------8----6-------|
C|-7--7--7--7--------7-----------------7--------7--|---------------------------|---------------------------|
G|-0--0--0--0--------------------------------------|---------------------------|---------------------------|
D|-------------------------------------------------|---------------------------|---------------------------|


D|-17---19------15---12------|-15---12------11---9-------|-17---19------15---12------|
A|---------------------------|---------------------------|---------------------------|
F|-14---16------12---9-------|-12---9-------8----6-------|-14---16------12---9-------|
C|---------------------------|---------------------------|---------------------------|
G|---------------------------|---------------------------|---------------------------|
D|---------------------------|---------------------------|---------------------------|


D|-15---12------11---9-------|-17---19------15---12------|-15---12------11---9-------|
A|---------------------------|---------------------------|---------------------------|
F|-12---9-------8----6-------|-14---16------12---9-------|-12---9-------8----6-------|
C|---------------------------|---------------------------|---------------------------|
G|---------------------------|---------------------------|---------------------------|
D|---------------------------|---------------------------|---------------------------|


D|--------|--------|--------|--------|--------|--------|--------|--------|--------|
A|--------|--------|--------|--------|--------|--------|--------|--------|--------|
F|--------|--------|--------|--------|--------|--------|--------|--------|--------|
C|--------|--------|--------|--------|--------|--------|--------|--------|--------|
G|--------|--------|--------|--------|--------|--------|--------|--------|--------|
D|--------|--------|--------|--------|--------|--------|--------|--------|--------|


D|--------|--------|--------|--------|--------|--------|--------|--------|--------|
A|--------|--------|--------|--------|--------|--------|--------|--------|--------|
F|--------|--------|--------|--------|--------|--------|--------|--------|--------|
C|--------|--------|--------|--------|--------|--------|--------|--------|--------|
G|--------|--------|--------|--------|--------|--------|--------|--------|--------|
D|--------|--------|--------|--------|--------|--------|--------|--------|--------|


D|--------|--------|--------|--------|--------|--------|--------|--------|--------|
A|--------|--------|--------|--------|--------|--------|--------|--------|--------|
F|--------|--------|--------|--------|--------|--------|--------|--------|--------|
C|--------|--------|--------|--------|--------|--------|--------|--------|--------|
G|--------|--------|--------|--------|--------|--------|--------|--------|--------|
D|--------|--------|--------|--------|--------|--------|--------|--------|--------|


D|--------|--------|--------|--------|--------|--------|--------|--------|-----------------------------------------|
A|--------|--------|--------|--------|--------|--------|--------|--------|-----------------------------------------|
F|--------|--------|--------|--------|--------|--------|--------|--------|-----------------------------------------|
C|--------|--------|--------|--------|--------|--------|--------|--------|-17--------14--------13--------11--------|
G|--------|--------|--------|--------|--------|--------|--------|--------|----0---0-----0---0-----0---0-----0---0--|
D|--------|--------|--------|--------|--------|--------|--------|--------|-----------------------------------------|


D|-------------------------------------------------|-------------------------------------------------|
A|-------------------------------------------------|-------------------------------------------------|
F|-14-14-14-14-16----16----17-17-17-17-20----20----|-14-14-14-14-16----16----17-17-17-17-20----20----|
C|-------------------------------------------------|-------------------------------------------------|
G|-12-12-12-12-14----14----15-15-15-15-18----18----|-12-12-12-12-14----14----15-15-15-15-18----18----|
D|-------------------------------------------------|-------------------------------------------------|


D|-------------------------------------------------|-------------------------------------------------|
A|-------------------------------------------------|-------------------------------------------------|
F|-14-14-14-14-16-16-16-16-17-17-17-17-20-20-20-20-|-14-14-14-14-16-16-16-16-17-17-17-17-20-20-20-20-|
C|-------------------------------------------------|-------------------------------------------------|
G|-12-12-12-12-14-14-14-14-15-15-15-15-18-18-18-18-|-12-12-12-12-14-14-14-14-15-15-15-15-18-18-18-18-|
D|-------------------------------------------------|-------------------------------------------------|


D|-------------------------------------------------|-------------------------------------------------|
A|-------------------------------------------------|-------------------------------------------------|
F|-14-14-14-14-16-16-16-16-17-17-17-17-20-20-20-20-|-14-14-14-14-16-16-16-16-17-17-17-17-20-20-20-20-|
C|-------------------------------------------------|-------------------------------------------------|
G|-12-12-12-12-14-14-14-14-15-15-15-15-18-18-18-18-|-12-12-12-12-14-14-14-14-15-15-15-15-18-18-18-18-|
D|-------------------------------------------------|-------------------------------------------------|


D|-------------------------------------------------|-------------------------------------------------|
A|-------------------------------------------------|-------------------------------------------------|
F|-14-14-14-14-16-16-16-16-17-17-17-17-20-20-20-20-|-14-14-14-14-16-16-16-16-17-17-17-17-20-20-20-20-|
C|-------------------------------------------------|-------------------------------------------------|
G|-12-12-12-12-14-14-14-14-15-15-15-15-18-18-18-18-|-12-12-12-12-14-14-14-14-15-15-15-15-18-18-18-18-|
D|-------------------------------------------------|-------------------------------------------------|


D|-------------------------------------------------|-------------------------------------------------|
A|-------------------------------------------------|-------------------------------------------------|
F|-14-14-14-14-16-16-16-16-17-17-17-17-20-20-20-20-|-14-14-14-14-16-16-16-16-17-17-17-17-20-20-20-20-|
C|-------------------------------------------------|-------------------------------------------------|
G|-12-12-12-12-14-14-14-14-15-15-15-15-18-18-18-18-|-12-12-12-12-14-14-14-14-15-15-15-15-18-18-18-18-|
D|-------------------------------------------------|-------------------------------------------------|


D|-------------------------------------------------|-------------------------------------------------|
A|-------------------------------------------------|-------------------------------------------------|
F|-14-14-14-14-16-16-16-16-17-17-17-17-20-20-20-20-|-14-14-14-14-16-16-16-16-17-17-17-17-20-20-20-20-|
C|-------------------------------------------------|-------------------------------------------------|
G|-12-12-12-12-14-14-14-14-15-15-15-15-18-18-18-18-|-12-12-12-12-14-14-14-14-15-15-15-15-18-18-18-18-|
D|-------------------------------------------------|-------------------------------------------------|


D|-------------------------------------------------|-------------------------------------------------|
A|-------------------------------------------------|-------------------------------------------------|
F|-14-14-14-14-16-16-16-16-17-17-17-17-20-20-20-20-|-14-14-14-14-16-16-16-16-17-17-17-17-20-20-20-20-|
C|-------------------------------------------------|-------------------------------------------------|
G|-12-12-12-12-14-14-14-14-15-15-15-15-18-18-18-18-|-12-12-12-12-14-14-14-14-15-15-15-15-18-18-18-18-|
D|-------------------------------------------------|-------------------------------------------------|


D|-------------------------------------------------|-------------------------------------------------|
A|-------------------------------------------------|-------------------------------------------------|
F|-14-14-14-14-16-16-16-16-17-17-17-17-20-20-20-20-|-14-14-14-14-16-16-16-16-17-17-17-17-20-20-20-20-|
C|-------------------------------------------------|-------------------------------------------------|
G|-12-12-12-12-14-14-14-14-15-15-15-15-18-18-18-18-|-12-12-12-12-14-14-14-14-15-15-15-15-18-18-18-18-|
D|-------------------------------------------------|-------------------------------------------------|


D|-------------------------------------------|-------------------------------------------|
A|-------------------------------------------|-------------------------------------------|
F|-9--9---9--9--9---9--9--9--9--9--9--9---9--|-9--9---9--9--9---9--9--9--9--9--9--9---9--|
C|-7--7---7--7--7---7--7--7--7--7--7--7---7--|-7--7---7--7--7---7--7--7--7--7--7--7---7--|
G|-6--0---0--6--0---0--6--0--6--0--6--0---0--|-6--0---0--6--0---0--6--0--6--0--6--0---0--|
D|-------------------------------------------|-------------------------------------------|


D|-------------------------------------------|-----------------------------------------|
A|-------------------------------------------|-----------------------------------------|
F|-9--9---9--9--9---9--9--9--9--9--9--9---9--|-9--9---9--9--9---9--9--9--9--9--9-------|
C|-7--7---7--7--7---7--7--7--7--7--7--7---7--|-7--7---7--7--7---7--7--7--7--7--7-------|
G|-6--0---0--6--0---0--6--0--6--0--6--0---0--|-6--0---0--6--0---0--6--0--6--0--6-------|
D|-------------------------------------------|-----------------------------------------|





Track 2: Heavy guitar 2

D|--------|--------|--------|--------|-------------------------------------------------|
A|--------|--------|--------|--------|-------------------------------------------------|
F|--------|--------|--------|--------|-11-11-11-11-12-12-12-12-14-14-14-14-16-16-16-16-|
C|--------|--------|--------|--------|-------------------------------------------------|
G|--------|--------|--------|--------|-9--9--9--9--10-10-10-10-12-12-12-12-14-14-14-14-|
D|--------|--------|--------|--------|-------------------------------------------------|


D|-------------------------------------------------|--------|--------|-------------------------------------------------|
A|-------------------------------------------------|--------|--------|-------------16----------------------16----------|
F|-11-11-11-11-12-12-12-12-14-14-14-14-16-16-16-16-|--------|--------|----------14-------14-------------14-------14----|
C|-------------------------------------------------|--------|--------|----14----------------------14-------------------|
G|-9--9--9--9--10-10-10-10-12-12-12-12-14-14-14-14-|--------|--------|-0--0--0--0--------------0--0--0--0--------------|
D|-------------------------------------------------|--------|--------|-------------------------------------------------|


D|-------------------------------------------------|-------------------------------------------------|
A|-------------16----------16-16-16-14----14-16----|-------------16----------------------16----------|
F|----------14-------14----------------14-------14-|----------14-------14-------------14-------14----|
C|----14-------------------------------------------|----14----------------------14-------------------|
G|-0--0--0--0--------------------------------------|-0--0--0--0--------------0--0--0--0--------------|
D|-------------------------------------------------|-------------------------------------------------|


D|-------------------------------------------------|-------------------------------------------------|
A|-------------16----------16-16-16-14----14-16----|-------------16----------------------16----------|
F|----------14-------14----------------14-------14-|----------14-------14-------------14-------14----|
C|----14-------------------------------------------|----14----------------------14-------------------|
G|-0--0--0--0--------------------------------------|-0--0--0--0--------------0--0--0--0--------------|
D|-------------------------------------------------|-------------------------------------------------|


D|-------------------------------------------------|-------------------------------------------------|
A|-------------16----------16-16-16-14----14-16----|-------------16----------------------16----------|
F|----------14-------14----------------14-------14-|----------14-------14-------------14-------14----|
C|----14-------------------------------------------|----14----------------------14-------------------|
G|-0--0--0--0--------------------------------------|-0--0--0--0--------------0--0--0--0--------------|
D|-------------------------------------------------|-------------------------------------------------|


D|-------------------------------------------------|-------------------------------------------------|
A|-------------16----------16-16-16-14----14-16----|-------------16----------------------16----------|
F|----------14-------14----------------14-------14-|----------14-------14-------------14-------14----|
C|----14-------------------------------------------|----14----------------------14-------------------|
G|-0--0--0--0--------------------------------------|-0--0--0--0--------------0--0--0--0--------------|
D|-------------------------------------------------|-------------------------------------------------|


D|-------------------------------------------------|-------------------------------------------------|
A|-------------16----------16-16-16-14----14-16----|-------------16----------------------16----------|
F|----------14-------14----------------14-------14-|----------14-------14-------------14-------14----|
C|----14-------------------------------------------|----14----------------------14-------------------|
G|-0--0--0--0--------------------------------------|-0--0--0--0--------------0--0--0--0--------------|
D|-------------------------------------------------|-------------------------------------------------|


D|-------------------------------------------------|--------|--------|--------|--------|
A|-------------16----------16-16-16-14----14-16----|--------|--------|--------|--------|
F|----------14-------14----------------14-------14-|--------|--------|--------|--------|
C|----14-------------------------------------------|--------|--------|--------|--------|
G|-0--0--0--0--------------------------------------|--------|--------|--------|--------|
D|-------------------------------------------------|--------|--------|--------|--------|


D|--------|--------|--------|--------|-------------------------------------------------|
A|--------|--------|--------|--------|-------------7-----------------------7-----------|
F|--------|--------|--------|--------|----9-----------------------9--------------------|
C|--------|--------|--------|--------|-7--7-----7--------7-----7--7-----7--------7-----|
G|--------|--------|--------|--------|-0--0--0--0--------------0--0--0--0--------------|
D|--------|--------|--------|--------|-------------------------------------------------|


D|-------------------------------------------------|--------|--------|---------------------------------------------|
A|-------------7-----------7--7--7-----------7-----|--------|--------|-------------7-----------7--7--7--7--5-------|
F|----9-----------------------------9--8--9-----8--|--------|--------|----8--8--8--------8-------------------------|
C|-7--7-----7--------7-----------------------------|--------|--------|---------------------------------------------|
G|-0--0--0--0--------------------------------------|--------|--------|-0-------------------------------------------|
D|-------------------------------------------------|--------|--------|---------------------------------------------|


D|---------------------------------------------|---------------------------------------------|
A|-7--7--7--7--5-------7--7--7--5--------------|-------------7-----------7--7--7--7--5-------|
F|---------------------------------6--8--6--6--|----8--8--8--------8-------------------------|
C|---------------------------------------------|---------------------------------------------|
G|---------------------------------------------|-0-------------------------------------------|
D|---------------------------------------------|---------------------------------------------|


D|---------------------------------------------|-------------12----------14-14-14-14---------|
A|-7--7--7--7--5-------7--7--7--5--------------|-------------------14----------------17------|
F|---------------------------------6--8--6--6--|-------12-14---------------------------------|
C|---------------------------------------------|----13---------------------------------------|
G|---------------------------------------------|-12------------------------------------------|
D|---------------------------------------------|---------------------------------------------|


D|-14-14-14-14---------14-14-14----------------|-------------12----------14-14-14-14-15------|
A|-------------17---------------17-------------|-------------------14------------------------|
F|---------------------------------13-14-------|-------12-14---------------------------------|
C|---------------------------------------13----|----13---------------------------------------|
G|------------------------------------------16-|-12------------------------------------------|
D|---------------------------------------------|---------------------------------------------|


D|-14-14-14-14-15------14-14-14----------------|---------------------------|-----------------------------------------|
A|------------------------------17-16-17-------|---------------------------|-----------------------------------------|
F|---------------------------------------11----|---------------------------|-9--9---9--9--9---9--9--9---9--9--9---9--|
C|------------------------------------------14-|-10---14------9----7-------|-7--7---7--7--7---7--7--7---7--7--7---7--|
G|---------------------------------------------|-0----0-------0----0-------|-6--0---0--6--0---0--6--0---0--6--0---0--|
D|---------------------------------------------|---------------------------|-----------------------------------------|


D|---------------------------|-----------------------------------------|---------------------------|
A|---------------------------|-----------------------------------------|---------------------------|
F|---------------------------|-9--9---9--9--9---9--9--9---9--9--9---9--|---------------------------|
C|-10---14------9----7-------|-7--7---7--7--7---7--7--7---7--7--7---7--|-10---14------9----7-------|
G|-0----0-------0----0-------|-6--0---0--6--0---0--6--0---0--6--0---0--|-0----0-------0----0-------|
D|---------------------------|-----------------------------------------|---------------------------|


D|-----------------------------------------|---------------------------|-----------------------------------------|
A|-----------------------------------------|---------------------------|-----------------------------------------|
F|-9--9---9--9--9---9--9--9---9--9--9---9--|---------------------------|-9--9---9--9--9---9--9--9---9--9--9---9--|
C|-7--7---7--7--7---7--7--7---7--7--7---7--|-10---14------9----7-------|-7--7---7--7--7---7--7--7---7--7--7---7--|
G|-6--0---0--6--0---0--6--0---0--6--0---0--|-0----0-------0----0-------|-6--0---0--6--0---0--6--0---0--6--0---0--|
D|-----------------------------------------|---------------------------|-----------------------------------------|


D|--------|--------|-------------------------------------------------|-------------------------------------------------|
A|--------|--------|-------------------------------------------------|-------------------------------------------------|
F|--------|--------|-11-11-11-11-12-12-12-12-14-14-14-14-16-16-16-16-|-11-11-11-11-12-12-12-12-14-14-14-14-16-16-16-16-|
C|--------|--------|-------------------------------------------------|-------------------------------------------------|
G|--------|--------|-9--9--9--9--10-10-10-10-12-12-12-12-14-14-14-14-|-9--9--9--9--10-10-10-10-12-12-12-12-14-14-14-14-|
D|--------|--------|-------------------------------------------------|-------------------------------------------------|


D|-11-12--0--12-11--0--11-12---------------|-11-12--0--12-11--0--11-12---------------|
A|-----------------------------------------|-----------------------------------------|
F|---------------------------14-13---------|---------------------------14-13---------|
C|---------------------------------13------|---------------------------------13------|
G|------------------------------------12---|------------------------------------12---|
D|-----------------------------------------|-----------------------------------------|


D|-11-12--0--12-11--0--11-12---------------|-11-12--0--12-11--0--11-12---------------|
A|-----------------------------------------|-----------------------------------------|
F|---------------------------14-13---------|---------------------------14-13---------|
C|---------------------------------13------|---------------------------------13------|
G|------------------------------------12---|------------------------------------12---|
D|-----------------------------------------|-----------------------------------------|


D|-------------11----------------------11----------|-------------11----------11-11-11-9-----9--11----|
A|-------------------10----------------------10----|-------------------10----------------10-------10-|
F|----9-----9-----------------9-----9--------------|----9-----9--------------------------------------|
C|-------------------------------------------------|-------------------------------------------------|
G|-0-----0-----------------0-----0-----------------|-0-----0-----------------------------------------|
D|-------------------------------------------------|-------------------------------------------------|


D|-------------11----------------------11----------|-------------11----------11-11-11-9-----9--11----|
A|-------------------10----------------------10----|-------------------10----------------10-------10-|
F|----9-----9-----------------9-----9--------------|----9-----9--------------------------------------|
C|-------------------------------------------------|-------------------------------------------------|
G|-0-----0-----------------0-----0-----------------|-0-----0-----------------------------------------|
D|-------------------------------------------------|-------------------------------------------------|


D|-------------11----------------------11----------|-------------11----------11-11-11-9-----9--11----|
A|-------------------10----------------------10----|-------------------10----------------10-------10-|
F|----9-----9-----------------9-----9--------------|----9-----9--------------------------------------|
C|-------------------------------------------------|-------------------------------------------------|
G|-0-----0-----------------0-----0-----------------|-0-----0-----------------------------------------|
D|-------------------------------------------------|-------------------------------------------------|


D|-------------11----------------------11----------|-------------11----------11-11-11-9-----9--11----|
A|-------------------10----------------------10----|-------------------10----------------10-------10-|
F|----9-----9-----------------9-----9--------------|----9-----9--------------------------------------|
C|-------------------------------------------------|-------------------------------------------------|
G|-0-----0-----------------0-----0-----------------|-0-----0-----------------------------------------|
D|-------------------------------------------------|-------------------------------------------------|


D|-------------15----------------------15----------|-------------15--------------------------------|
A|-------------18----------------------18----------|-------------18-------18--18-18-18-18-18-17-18-|
F|-------------------14----------------------14----|-------------------14--------------------------|
C|----14----14----------------14----14-------------|----14----14-----------------------------------|
G|-0-----0-----------------0-----0-----------------|-0-----0---------------------------------------|
D|-------------------------------------------------|-----------------------------------------------|


D|-------------11----------------------11----------|-------------11----------11-11-11-9-----9--11----|
A|-------------------10----------------------10----|-------------------10----------------10-------10-|
F|----9-----9-----------------9-----9--------------|----9-----9--------------------------------------|
C|-------------------------------------------------|-------------------------------------------------|
G|-0-----0-----------------0-----0-----------------|-0-----0-----------------------------------------|
D|-------------------------------------------------|-------------------------------------------------|


D|--------|--------|--------|--------|-------------12----------14-14-14-14---------|
A|--------|--------|--------|--------|-------------------14----------------17------|
F|--------|--------|--------|--------|-------12-14---------------------------------|
C|--------|--------|--------|--------|----13---------------------------------------|
G|--------|--------|--------|--------|-12------------------------------------------|
D|--------|--------|--------|--------|---------------------------------------------|


D|-14-14-14-14---------14-14-14----------------|-------------12----------14-14-14-14-15------|
A|-------------17---------------17-------------|-------------------14------------------------|
F|---------------------------------13-14-------|-------12-14---------------------------------|
C|---------------------------------------13----|----13---------------------------------------|
G|------------------------------------------16-|-12------------------------------------------|
D|---------------------------------------------|---------------------------------------------|


D|-14-14-14-14-15------14-14-14----------------|-------------11----------------------11----------|
A|------------------------------17-16-17-------|-------------------10----------------------10----|
F|---------------------------------------11----|----9-----9-----------------9-----9--------------|
C|------------------------------------------14-|-7-----------------------7-----------------------|
G|---------------------------------------------|-0-----0-----------------0-----0-----------------|
D|---------------------------------------------|-------------------------------------------------|


D|-------------11----------11-11-11-9-----9--11----|-------------11----------------------11----------|
A|-------------------10----------------10-------10-|-------------------10----------------------10----|
F|----9-----9--------------------------------------|----9-----9-----------------9-----9--------------|
C|-7-----------------------------------------------|-7-----------------------7-----------------------|
G|-0-----0-----------------------------------------|-0-----0-----------------0-----0-----------------|
D|-------------------------------------------------|-------------------------------------------------|


D|-------------11----------11-11-11-9-----9--11----|-------------11----------------------11----------|
A|-------------------10----------------10-------10-|-------8--10-------10----------8--10-------10----|
F|----9-----9--------------------------------------|----8-----------------------8--------------------|
C|-7-----------------------------------------------|-------------------------------------------------|
G|-0-----0-----------------------------------------|-0-----------------------0-----------------------|
D|-------------------------------------------------|-------------------------------------------------|


D|-------------11----------11-11-11-9-----9--11----|-------------11----------------------11----------|
A|-------8--10-------10----------------10-------10-|-------8--10-------10----------8--10-------10----|
F|----8--------------------------------------------|----8-----------------------8--------------------|
C|-------------------------------------------------|-------------------------------------------------|
G|-0-----------------------------------------------|-0-----------------------0-----------------------|
D|-------------------------------------------------|-------------------------------------------------|


D|-------------11----------11-11-11-9-----9--11----|---------------------------|-----------------------------------------|
A|-------8--10-------10----------------10-------10-|---------------------------|-----------------------------------------|
F|----8--------------------------------------------|---------------------------|-9--9---9--9--9---9--9--9---9--9--9---9--|
C|-------------------------------------------------|-10---14------9----7-------|-7--7---7--7--7---7--7--7---7--7--7---7--|
G|-0-----------------------------------------------|-0----0-------0----0-------|-6--0---0--6--0---0--6--0---0--6--0---0--|
D|-------------------------------------------------|---------------------------|-----------------------------------------|


D|---------------------------|-----------------------------------------|---------------------------|
A|---------------------------|-----------------------------------------|---------------------------|
F|---------------------------|-9--9---9--9--9---9--9--9---9--9--9---9--|---------------------------|
C|-10---14------9----7-------|-7--7---7--7--7---7--7--7---7--7--7---7--|-10---14------9----7-------|
G|-0----0-------0----0-------|-6--0---0--6--0---0--6--0---0--6--0---0--|-0----0-------0----0-------|
D|---------------------------|-----------------------------------------|---------------------------|


D|-----------------------------------------|---------------------------|-----------------------------------------|
A|-----------------------------------------|---------------------------|-----------------------------------------|
F|-9--9---9--9--9---9--9--9---9--9--9---9--|---------------------------|-9--9---9--9--9---9--9--9---9--9--9---9--|
C|-7--7---7--7--7---7--7--7---7--7--7---7--|-10---14------9----7-------|-7--7---7--7--7---7--7--7---7--7--7---7--|
G|-6--0---0--6--0---0--6--0---0--6--0---0--|-0----0-------0----0-------|-6--0---0--6--0---0--6--0---0--6--0---0--|
D|-----------------------------------------|---------------------------|-----------------------------------------|


D|--------|--------|--------|--------|--------|--------|--------|--------|--------|
A|--------|--------|--------|--------|--------|--------|--------|--------|--------|
F|-9------|-9------|-9------|-9------|--------|--------|--------|--------|--------|
C|-7------|-7------|-7------|-7------|--------|--------|--------|--------|--------|
G|-0------|-0------|-0------|-0------|--------|--------|--------|--------|--------|
D|--------|--------|--------|--------|--------|--------|--------|--------|--------|


D|--------|--------|--------|--------|--------|--------|--------|--------|--------|
A|--------|--------|--------|--------|--------|--------|--------|--------|--------|
F|--------|--------|--------|--------|--------|--------|--------|--------|--------|
C|--------|--------|--------|--------|--------|--------|--------|--------|--------|
G|--------|--------|--------|--------|--------|--------|--------|--------|--------|
D|--------|--------|--------|--------|--------|--------|--------|--------|--------|


D|--------|--------|--------|--------|--------|--------|--------|--------|--------|
A|--------|--------|--------|--------|--------|--------|--------|--------|--------|
F|--------|--------|--------|--------|--------|--------|--------|--------|--------|
C|--------|--------|--------|--------|--------|--------|--------|--------|--------|
G|--------|--------|--------|--------|--------|--------|--------|--------|--------|
D|--------|--------|--------|--------|--------|--------|--------|--------|--------|


D|--------|--------|--------|--------|--------|--------|--------|--------|-----------------------------------------|
A|--------|--------|--------|--------|--------|--------|--------|--------|-----------------------------------------|
F|--------|--------|--------|--------|--------|--------|--------|--------|-9--9---9--9--9---9--9--9---9--9--9---9--|
C|--------|--------|--------|--------|--------|--------|--------|--------|-7--7---7--7--7---7--7--7---7--7--7---7--|
G|--------|--------|--------|--------|--------|--------|--------|--------|-6--0---0--6--0---0--6--0---0--6--0---0--|
D|--------|--------|--------|--------|--------|--------|--------|--------|-----------------------------------------|


D|--------|--------|-------------------------------------------------|-------------------------------------------------|
A|--------|--------|-------------------------------------------------|-------------------------------------------------|
F|--------|--------|-11-11-11-11-12-12-12-12-14-14-14-14-16-16-16-16-|-11-11-11-11-12-12-12-12-14-14-14-14-16-16-16-16-|
C|--------|--------|-------------------------------------------------|-------------------------------------------------|
G|--------|--------|-9--9--9--9--10-10-10-10-12-12-12-12-14-14-14-14-|-9--9--9--9--10-10-10-10-12-12-12-12-14-14-14-14-|
D|--------|--------|-------------------------------------------------|-------------------------------------------------|


D|-------------------------------------------------|-------------------------------------------------|
A|-------------------------------------------------|-------------------------------------------------|
F|-11-11-11-11-12-12-12-12-14-14-14-14-16-16-16-16-|-11-11-11-11-12-12-12-12-14-14-14-14-16-16-16-16-|
C|-------------------------------------------------|-------------------------------------------------|
G|-9--9--9--9--10-10-10-10-12-12-12-12-14-14-14-14-|-9--9--9--9--10-10-10-10-12-12-12-12-14-14-14-14-|
D|-------------------------------------------------|-------------------------------------------------|


D|-------------------------------------------------|-------------------------------------------------|
A|-------------------------------------------------|-------------------------------------------------|
F|-11-11-11-11-12-12-12-12-14-14-14-14-16-16-16-16-|-11-11-11-11-12-12-12-12-14-14-14-14-16-16-16-16-|
C|-------------------------------------------------|-------------------------------------------------|
G|-9--9--9--9--10-10-10-10-12-12-12-12-14-14-14-14-|-9--9--9--9--10-10-10-10-12-12-12-12-14-14-14-14-|
D|-------------------------------------------------|-------------------------------------------------|


D|-------------------------------------------------|-------------------------------------------------|
A|-------------------------------------------------|-------------------------------------------------|
F|-11-11-11-11-12-12-12-12-14-14-14-14-16-16-16-16-|-11-11-11-11-12-12-12-12-14-14-14-14-16-16-16-16-|
C|-------------------------------------------------|-------------------------------------------------|
G|-9--9--9--9--10-10-10-10-12-12-12-12-14-14-14-14-|-9--9--9--9--10-10-10-10-12-12-12-12-14-14-14-14-|
D|-------------------------------------------------|-------------------------------------------------|


D|-------------------------------------------------|-------------------------------------------------|
A|-------------------------------------------------|-------------------------------------------------|
F|-11-11-11-11-12-12-12-12-14-14-14-14-16-16-16-16-|-11-11-11-11-12-12-12-12-14-14-14-14-16-16-16-16-|
C|-------------------------------------------------|-------------------------------------------------|
G|-9--9--9--9--10-10-10-10-12-12-12-12-14-14-14-14-|-9--9--9--9--10-10-10-10-12-12-12-12-14-14-14-14-|
D|-------------------------------------------------|-------------------------------------------------|


D|-------------------------------------------------|-------------------------------------------------|
A|-------------------------------------------------|-------------------------------------------------|
F|-11-11-11-11-12-12-12-12-14-14-14-14-16-16-16-16-|-11-11-11-11-12-12-12-12-14-14-14-14-16-16-16-16-|
C|-------------------------------------------------|-------------------------------------------------|
G|-9--9--9--9--10-10-10-10-12-12-12-12-14-14-14-14-|-9--9--9--9--10-10-10-10-12-12-12-12-14-14-14-14-|
D|-------------------------------------------------|-------------------------------------------------|


D|-------------------------------------------------|-------------------------------------------------|
A|-------------------------------------------------|-------------------------------------------------|
F|-11-11-11-11-12-12-12-12-14-14-14-14-16-16-16-16-|-11-11-11-11-12-12-12-12-14-14-14-14-16-16-16-16-|
C|-------------------------------------------------|-------------------------------------------------|
G|-9--9--9--9--10-10-10-10-12-12-12-12-14-14-14-14-|-9--9--9--9--10-10-10-10-12-12-12-12-14-14-14-14-|
D|-------------------------------------------------|-------------------------------------------------|


D|--------|--------|-----------------------------------------|-----------------------------------------|
A|--------|--------|-7--8------8--7------7--8--10-9----------|-7--8------8--7------7--8--10-9----------|
F|--------|--------|--------9---------9--------------8-------|--------9---------9--------------8-------|
C|--------|--------|------------------------------------7----|-----------------------------------------|
G|--------|--------|-----------------------------------------|-----------------------------------------|
D|--------|--------|-----------------------------------------|-----------------------------------------|





Track 3: Heavy guitar 3

D|--------|--------|--------|--------|--------|--------|--------|--------|--------|
A|--------|--------|--------|--------|--------|--------|--------|--------|--------|
F|--------|--------|--------|--------|--------|--------|--------|--------|--------|
C|--------|--------|--------|--------|--------|--------|--------|--------|--------|
G|--------|--------|--------|--------|--------|--------|--------|--------|--------|
D|--------|--------|--------|--------|--------|--------|--------|--------|--------|


D|--------|--------|--------|--------|--------|--------|--------|--------|--------|
A|--------|--------|--------|--------|--------|--------|--------|--------|--------|
F|--------|--------|--------|--------|--------|--------|--------|--------|--------|
C|--------|--------|--------|--------|--------|--------|--------|--------|--------|
G|--------|--------|--------|--------|--------|--------|--------|--------|--------|
D|--------|--------|--------|--------|--------|--------|--------|--------|--------|


D|--------|--------|--------|--------|--------|--------|--------|--------|--------|
A|--------|--------|--------|--------|--------|--------|--------|--------|--------|
F|--------|--------|--------|--------|--------|--------|--------|--------|--------|
C|--------|--------|--------|--------|--------|--------|--------|--------|--------|
G|--------|--------|--------|--------|--------|--------|--------|--------|--------|
D|--------|--------|--------|--------|--------|--------|--------|--------|--------|


D|--------|--------|--------|--------|--------|--------|--------|--------|--------|
A|--------|--------|--------|--------|--------|--------|--------|--------|--------|
F|--------|--------|--------|--------|--------|--------|--------|--------|--------|
C|--------|--------|--------|--------|--------|--------|--------|--------|--------|
G|--------|--------|--------|--------|--------|--------|--------|--------|--------|
D|--------|--------|--------|--------|--------|--------|--------|--------|--------|


D|--------|--------|--------|--------|--------|--------|--------|--------|--------|
A|--------|--------|--------|--------|--------|--------|--------|--------|--------|
F|--------|--------|--------|--------|--------|--------|--------|--------|--------|
C|--------|--------|--------|--------|--------|--------|--------|--------|--------|
G|--------|--------|--------|--------|--------|--------|--------|--------|--------|
D|--------|--------|--------|--------|--------|--------|--------|--------|--------|


D|--------|--------|--------|--------|--------|--------|--------|--------|--------|
A|--------|--------|--------|--------|--------|--------|--------|--------|--------|
F|--------|--------|--------|--------|--------|--------|--------|--------|--------|
C|--------|--------|--------|--------|--------|--------|--------|--------|--------|
G|--------|--------|--------|--------|--------|--------|--------|--------|--------|
D|--------|--------|--------|--------|--------|--------|--------|--------|--------|


D|-14-15--0--15-14--0--14-15---------------|-14-15--0--15-14--0--14-15---------------|
A|---------------------------13-12---------|---------------------------13-12---------|
F|-----------------------------------------|-----------------------------------------|
C|---------------------------------13------|---------------------------------13------|
G|------------------------------------16---|------------------------------------16---|
D|-----------------------------------------|-----------------------------------------|


D|--------|--------|--------|--------|--------|--------|--------|--------|--------|
A|--------|--------|--------|--------|--------|--------|--------|--------|--------|
F|--------|--------|--------|--------|--------|--------|--------|--------|--------|
C|--------|--------|--------|--------|--------|--------|--------|--------|--------|
G|--------|--------|--------|--------|--------|--------|--------|--------|--------|
D|--------|--------|--------|--------|--------|--------|--------|--------|--------|


D|--------|--------|--------|--------|--------|--------|--------|--------|--------|
A|--------|--------|--------|--------|--------|--------|--------|--------|--------|
F|--------|--------|--------|--------|--------|--------|--------|--------|--------|
C|--------|--------|--------|--------|--------|--------|--------|--------|--------|
G|--------|--------|--------|--------|--------|--------|--------|--------|--------|
D|--------|--------|--------|--------|--------|--------|--------|--------|--------|


D|--------|--------|--------|--------|--------|--------|--------|--------|--------|
A|--------|--------|--------|--------|--------|--------|--------|--------|--------|
F|--------|--------|--------|--------|--------|--------|--------|--------|--------|
C|--------|--------|--------|--------|--------|--------|--------|--------|--------|
G|--------|--------|--------|--------|--------|--------|--------|--------|--------|
D|--------|--------|--------|--------|--------|--------|--------|--------|--------|


D|--------|--------|--------|--------|--------|--------|--------|--------|--------|
A|--------|--------|--------|--------|--------|--------|--------|--------|--------|
F|--------|--------|--------|--------|--------|--------|--------|--------|--------|
C|--------|--------|--------|--------|--------|--------|--------|--------|--------|
G|--------|--------|--------|--------|--------|--------|--------|--------|--------|
D|--------|--------|--------|--------|--------|--------|--------|--------|--------|


D|--------|--------|--------|--------|--------|--------|--------|--------|--------|
A|--------|--------|--------|--------|--------|--------|--------|--------|--------|
F|--------|--------|--------|--------|--------|--------|--------|--------|--------|
C|--------|--------|--------|--------|--------|--------|--------|--------|--------|
G|--------|--------|--------|--------|--------|--------|--------|--------|--------|
D|--------|--------|--------|--------|--------|--------|--------|--------|--------|


D|--------|--------|--------|--------|--------|--------|--------|--------|--------|
A|--------|--------|--------|--------|--------|--------|--------|--------|--------|
F|--------|--------|--------|--------|--------|--------|--------|--------|--------|
C|--------|--------|--------|--------|--------|--------|--------|--------|--------|
G|--------|--------|--------|--------|--------|--------|--------|--------|--------|
D|--------|--------|--------|--------|--------|--------|--------|--------|--------|


D|--------|--------|--------|--------|--------|--------|--------|--------|--------|
A|--------|--------|--------|--------|--------|--------|--------|--------|--------|
F|--------|--------|--------|--------|--------|--------|--------|--------|--------|
C|--------|--------|--------|--------|--------|--------|--------|--------|--------|
G|--------|--------|--------|--------|--------|--------|--------|--------|--------|
D|--------|--------|--------|--------|--------|--------|--------|--------|--------|


D|--------|--------|--------|--------|--------|--------|--------|--------|--------|
A|--------|--------|--------|--------|--------|--------|--------|--------|--------|
F|--------|--------|--------|--------|--------|--------|--------|--------|--------|
C|--------|--------|--------|--------|--------|--------|--------|--------|--------|
G|--------|--------|--------|--------|--------|--------|--------|--------|--------|
D|--------|--------|--------|--------|--------|--------|--------|--------|--------|


D|--------|--------|--------|--------|--------|--------|--------|--------|--------|
A|--------|--------|--------|--------|--------|--------|--------|--------|--------|
F|--------|--------|--------|--------|--------|--------|--------|--------|--------|
C|--------|--------|--------|--------|--------|--------|--------|--------|--------|
G|--------|--------|--------|--------|--------|--------|--------|--------|--------|
D|--------|--------|--------|--------|--------|--------|--------|--------|--------|


D|--------|--------|--------|--------|--------|--------|--------|--------|--------|
A|--------|--------|--------|--------|--------|--------|--------|--------|--------|
F|--------|--------|--------|--------|--------|--------|--------|--------|--------|
C|--------|--------|--------|--------|--------|--------|--------|--------|--------|
G|--------|--------|--------|--------|--------|--------|--------|--------|--------|
D|--------|--------|--------|--------|--------|--------|--------|--------|--------|


D|-14-15--0--15-14--0--14-15---------------|-14-15--0--15-14--0--14-15---------------|
A|---------------------------13-12---------|---------------------------13-12---------|
F|-----------------------------------------|-----------------------------------------|
C|---------------------------------13------|---------------------------------13------|
G|------------------------------------16---|-----------------------------------------|
D|-----------------------------------------|-----------------------------------------|





Track 4: Wolf guitar 1

D|--------|--------|--------|--------|--------|--------|--------|--------|--------|
A|--------|--------|--------|--------|--------|--------|--------|--------|--------|
F|--------|--------|--------|--------|--------|--------|--------|--------|--------|
C|--------|--------|--------|--------|--------|--------|--------|--------|--------|
G|--------|--------|--------|--------|--------|--------|--------|--------|--------|
D|--------|--------|--------|--------|--------|--------|--------|--------|--------|


D|--------|--------|--------|--------|--------|--------|--------|--------|--------|
A|--------|--------|--------|--------|--------|--------|--------|--------|--------|
F|--------|--------|--------|--------|--------|--------|--------|--------|--------|
C|--------|--------|--------|--------|--------|--------|--------|--------|--------|
G|--------|--------|--------|--------|--------|--------|--------|--------|--------|
D|--------|--------|--------|--------|--------|--------|--------|--------|--------|


D|--------|--------|--------|--------|--------|--------|--------|--------|--------|
A|--------|--------|--------|--------|--------|--------|--------|--------|--------|
F|--------|--------|--------|--------|--------|--------|--------|--------|--------|
C|--------|--------|--------|--------|--------|--------|--------|--------|--------|
G|--------|--------|--------|--------|--------|--------|--------|--------|--------|
D|--------|--------|--------|--------|--------|--------|--------|--------|--------|


D|--------|--------|--------|--------|--------|--------|--------|--------|--------|
A|--------|--------|--------|--------|--------|--------|--------|--------|--------|
F|--------|--------|--------|--------|--------|--------|--------|--------|--------|
C|--------|--------|--------|--------|--------|--------|--------|--------|--------|
G|--------|--------|--------|--------|--------|--------|--------|--------|--------|
D|--------|--------|--------|--------|--------|--------|--------|--------|--------|


D|--------|--------|--------|--------|--------|--------|--------|--------|--------|
A|--------|--------|--------|--------|--------|--------|--------|--------|--------|
F|--------|--------|--------|--------|--------|--------|--------|--------|--------|
C|--------|--------|--------|--------|--------|--------|--------|--------|--------|
G|--------|--------|--------|--------|--------|--------|--------|--------|--------|
D|--------|--------|--------|--------|--------|--------|--------|--------|--------|


D|--------|--------|--------|--------|--------|--------|--------|--------|--------|
A|--------|--------|--------|--------|--------|--------|--------|--------|--------|
F|--------|--------|--------|--------|--------|--------|--------|--------|--------|
C|--------|--------|--------|--------|--------|--------|--------|--------|--------|
G|--------|--------|--------|--------|--------|--------|--------|--------|--------|
D|--------|--------|--------|--------|--------|--------|--------|--------|--------|


D|--------|--------|--------|--------|--------|--------|--------|--------|--------|
A|--------|--------|--------|--------|--------|--------|--------|--------|--------|
F|--------|--------|--------|--------|--------|--------|--------|--------|--------|
C|--------|--------|--------|--------|--------|--------|--------|--------|--------|
G|--------|--------|--------|--------|--------|--------|--------|--------|--------|
D|--------|--------|--------|--------|--------|--------|--------|--------|--------|


D|--------|--------|--------|--------|--------|--------|--------|--------|--------|
A|--------|--------|--------|--------|--------|--------|--------|--------|--------|
F|--------|--------|--------|--------|--------|--------|--------|--------|--------|
C|--------|--------|--------|--------|--------|--------|--------|--------|--------|
G|--------|--------|--------|--------|--------|--------|--------|--------|--------|
D|--------|--------|--------|--------|--------|--------|--------|--------|--------|


D|--------|--------|--------|--------|--------|--------|--------|--------|--------|
A|--------|--------|--------|--------|--------|--------|--------|--------|--------|
F|--------|--------|--------|--------|--------|--------|--------|--------|--------|
C|--------|--------|--------|--------|--------|--------|--------|--------|--------|
G|--------|--------|--------|--------|--------|--------|--------|--------|--------|
D|--------|--------|--------|--------|--------|--------|--------|--------|--------|


D|--------|--------|--------|--------|--------|--------|--------|--------|--------|
A|--------|--------|--------|--------|--------|--------|--------|--------|--------|
F|--------|--------|--------|--------|--------|--------|--------|--------|--------|
C|--------|--------|--------|--------|--------|--------|--------|--------|--------|
G|--------|--------|--------|--------|--------|--------|--------|--------|--------|
D|--------|--------|--------|--------|--------|--------|--------|--------|--------|


D|--------|--------|--------|--------|--------|--------|-----------------|-----------------|
A|--------|--------|--------|--------|--------|--------|------14---14----|-14----9----9----|
F|--------|--------|--------|--------|--------|--------|-----------------|-----------------|
C|--------|--------|--------|--------|--------|--------|-----------------|-----------------|
G|--------|--------|--------|--------|--------|--------|-----------------|-----------------|
D|--------|--------|--------|--------|--------|--------|-----------------|-----------------|


D|--------|--------|--------|--------|-8-----11--11--11---|------11--11---11----|-11---11---11---11---|
A|--------|--------|--------|--------|--------------------|---------------------|---------------------|
F|--------|--------|--------|--------|--------------------|---------------------|---------------------|
C|--------|--------|--------|--------|--------------------|---------------------|---------------------|
G|--------|--------|--------|--------|--------------------|---------------------|---------------------|
D|--------|--------|--------|--------|--------------------|---------------------|---------------------|


D|-11-----|-11---11-----|--------------|-------------------------------------------|
A|--------|-------------|--------------|-------------------------------------------|
F|--------|-------------|--------------|-------------------------------------------|
C|--------|-------------|--------7-----|----8------8--7------7------7-----7-----7--|
G|--------|-------------|--------------|-------------------------------------------|
D|--------|-------------|--------------|-------------------------------------------|


D|-------------------------------------------------|-----------------------------|
A|-------------------------------------------------|------------------------20---|
F|-----------------7--9-------7-----10----7--6--6--|-----------------------------|
C|-7-7-7-7-7-7-7-7---------------------------------|-7----9-----7----------------|
G|-------------------------------------------------|-----------------------------|
D|-------------------------------------------------|-----------------------------|


D|-------------------------------|--------|-16--16--16--18--18--18--------------|-------20------------|
A|-20---20-----------------------|--------|-------------------------------------|---------------------|
F|-------------------------------|--------|-------------------------------------|---------------------|
C|-----------7------7--8--7--0---|-0------|-------------------------7-----7--8--|-7--------------8----|
G|-------------------------------|--------|-------------------------------------|---------------------|
D|-------------------------------|--------|-------------------------------------|---------------------|


D|-------16----16--|-16-----|-16-----|-17---17-17------------------|-15----15----|
A|-----------------|--------|--------|----------------17---17------|-18----18----|
F|-----------------|--------|--------|-----------------------------|-------------|
C|-----------------|--------|--------|-----------------------------|-------------|
G|-----------------|--------|--------|-----------------------------|-------------|
D|-----------------|--------|--------|-----------------------------|-------------|


D|-17---17-17------------------|-------15---15---|-17---17-17------------------|--------------15---15---|
A|----------------17---17------|-------18---18---|----------------17---17------|-20---17------18---18---|
F|-----------------------------|-----------------|-----------------------------|------------------------|
C|-----------------------------|-----------------|-----------------------------|------------------------|
G|-----------------------------|-----------------|-----------------------------|------------------------|
D|-----------------------------|-----------------|-----------------------------|------------------------|


D|-17---17-17------------------|------------------------------|-17---17-17------------------|
A|----------------17---17------|-17---17--16--16--14--14------|----------------17---17------|
F|-----------------------------|------------------------------|-----------------------------|
C|-----------------------------|------------------------------|-----------------------------|
G|-----------------------------|------------------------------|-----------------------------|
D|-----------------------------|------------------------------|-----------------------------|


D|--------|--------|--------|--------|--------|--------|--------|--------|--------|
A|--------|--------|--------|--------|--------|--------|--------|--------|--------|
F|--------|--------|--------|--------|--------|--------|--------|--------|--------|
C|--------|--------|--------|--------|--------|--------|--------|--------|--------|
G|--------|--------|--------|--------|--------|--------|--------|--------|--------|
D|--------|--------|--------|--------|--------|--------|--------|--------|--------|


D|--------|--------|--------|--------|--------|--------|--------|--------|--------|
A|--------|--------|--------|--------|--------|--------|--------|--------|--------|
F|--------|--------|--------|--------|--------|--------|--------|--------|--------|
C|--------|--------|--------|--------|--------|--------|--------|--------|--------|
G|--------|--------|--------|--------|--------|--------|--------|--------|--------|
D|--------|--------|--------|--------|--------|--------|--------|--------|--------|


D|--------|--------|--------|
A|--------|--------|--------|
F|--------|--------|--------|
C|--------|--------|--------|
G|--------|--------|--------|
D|--------|--------|--------|





Track 5: Wolf guitar 2

D|--------|--------|--------|--------|--------|--------|--------|--------|--------|
A|--------|--------|--------|--------|--------|--------|--------|--------|--------|
F|--------|--------|--------|--------|--------|--------|--------|--------|--------|
C|--------|--------|--------|--------|--------|--------|--------|--------|--------|
G|--------|--------|--------|--------|--------|--------|--------|--------|--------|
D|--------|--------|--------|--------|--------|--------|--------|--------|--------|


D|--------|--------|--------|--------|--------|--------|--------|--------|--------|
A|--------|--------|--------|--------|--------|--------|--------|--------|--------|
F|--------|--------|--------|--------|--------|--------|--------|--------|--------|
C|--------|--------|--------|--------|--------|--------|--------|--------|--------|
G|--------|--------|--------|--------|--------|--------|--------|--------|--------|
D|--------|--------|--------|--------|--------|--------|--------|--------|--------|


D|--------|--------|--------|--------|--------|--------|--------|--------|--------|
A|--------|--------|--------|--------|--------|--------|--------|--------|--------|
F|--------|--------|--------|--------|--------|--------|--------|--------|--------|
C|--------|--------|--------|--------|--------|--------|--------|--------|--------|
G|--------|--------|--------|--------|--------|--------|--------|--------|--------|
D|--------|--------|--------|--------|--------|--------|--------|--------|--------|


D|--------|--------|--------|--------|--------|--------|--------|--------|--------|
A|--------|--------|--------|--------|--------|--------|--------|--------|--------|
F|--------|--------|--------|--------|--------|--------|--------|--------|--------|
C|--------|--------|--------|--------|--------|--------|--------|--------|--------|
G|--------|--------|--------|--------|--------|--------|--------|--------|--------|
D|--------|--------|--------|--------|--------|--------|--------|--------|--------|


D|--------|--------|--------|--------|--------|--------|--------|--------|--------|
A|--------|--------|--------|--------|--------|--------|--------|--------|--------|
F|--------|--------|--------|--------|--------|--------|--------|--------|--------|
C|--------|--------|--------|--------|--------|--------|--------|--------|--------|
G|--------|--------|--------|--------|--------|--------|--------|--------|--------|
D|--------|--------|--------|--------|--------|--------|--------|--------|--------|


D|--------|--------|--------|--------|--------|--------|--------|--------|--------|
A|--------|--------|--------|--------|--------|--------|--------|--------|--------|
F|--------|--------|--------|--------|--------|--------|--------|--------|--------|
C|--------|--------|--------|--------|--------|--------|--------|--------|--------|
G|--------|--------|--------|--------|--------|--------|--------|--------|--------|
D|--------|--------|--------|--------|--------|--------|--------|--------|--------|


D|--------|--------|--------|--------|--------|--------|--------|--------|--------|
A|--------|--------|--------|--------|--------|--------|--------|--------|--------|
F|--------|--------|--------|--------|--------|--------|--------|--------|--------|
C|--------|--------|--------|--------|--------|--------|--------|--------|--------|
G|--------|--------|--------|--------|--------|--------|--------|--------|--------|
D|--------|--------|--------|--------|--------|--------|--------|--------|--------|


D|--------|--------|--------|--------|--------|--------|--------|--------|--------|
A|--------|--------|--------|--------|--------|--------|--------|--------|--------|
F|--------|--------|--------|--------|--------|--------|--------|--------|--------|
C|--------|--------|--------|--------|--------|--------|--------|--------|--------|
G|--------|--------|--------|--------|--------|--------|--------|--------|--------|
D|--------|--------|--------|--------|--------|--------|--------|--------|--------|


D|--------|--------|--------|--------|--------|--------|--------|--------|--------|
A|--------|--------|--------|--------|--------|--------|--------|--------|--------|
F|--------|--------|--------|--------|--------|--------|--------|--------|--------|
C|--------|--------|--------|--------|--------|--------|--------|--------|--------|
G|--------|--------|--------|--------|--------|--------|--------|--------|--------|
D|--------|--------|--------|--------|--------|--------|--------|--------|--------|


D|--------|--------|--------|--------|--------|--------|--------|--------|--------|
A|--------|--------|--------|--------|--------|--------|--------|--------|--------|
F|--------|--------|--------|--------|--------|--------|--------|--------|--------|
C|--------|--------|--------|--------|--------|--------|--------|--------|--------|
G|--------|--------|--------|--------|--------|--------|--------|--------|--------|
D|--------|--------|--------|--------|--------|--------|--------|--------|--------|


D|--------|--------|--------|--------|--------|--------|----------------|--------|
A|--------|--------|--------|--------|--------|--------|-17--17-----17--|--------|
F|--------|--------|--------|--------|--------|--------|----------------|--------|
C|--------|--------|--------|--------|--------|--------|----------------|--------|
G|--------|--------|--------|--------|--------|--------|----------------|--------|
D|--------|--------|--------|--------|--------|--------|----------------|--------|


D|----------------|--------|--------|--------|--------|--------|--------|--------|
A|-17--17-----17--|--------|--------|--------|--------|--------|--------|--------|
F|----------------|--------|--------|--------|--------|--------|--------|--------|
C|----------------|--------|--------|--------|--------|--------|--------|--------|
G|----------------|--------|--------|--------|--------|--------|--------|--------|
D|----------------|--------|--------|--------|--------|--------|--------|--------|


D|--------|--------|--------|--------|--------|--------|--------|--------|--------|
A|--------|--------|--------|--------|--------|--------|--------|--------|--------|
F|--------|--------|--------|--------|--------|--------|--------|--------|--------|
C|--------|--------|--------|--------|--------|--------|--------|--------|--------|
G|--------|--------|--------|--------|--------|--------|--------|--------|--------|
D|--------|--------|--------|--------|--------|--------|--------|--------|--------|


D|--------|--------|--------|--------|--------|--------|--------|--------|--------|
A|--------|--------|--------|--------|--------|--------|--------|--------|--------|
F|--------|--------|--------|--------|--------|--------|--------|--------|--------|
C|--------|--------|--------|--------|--------|--------|--------|--------|--------|
G|--------|--------|--------|--------|--------|--------|--------|--------|--------|
D|--------|--------|--------|--------|--------|--------|--------|--------|--------|


D|--------|-------15---15---|--------|--------|--------|--------|--------|--------|
A|--------|-------18---18---|--------|--------|--------|--------|--------|--------|
F|--------|-----------------|--------|--------|--------|--------|--------|--------|
C|--------|-----------------|--------|--------|--------|--------|--------|--------|
G|--------|-----------------|--------|--------|--------|--------|--------|--------|
D|--------|-----------------|--------|--------|--------|--------|--------|--------|


D|--------|--------|--------|--------|--------|--------|--------|--------|--------|
A|--------|--------|--------|--------|--------|--------|--------|--------|--------|
F|--------|--------|--------|--------|--------|--------|--------|--------|--------|
C|--------|--------|--------|--------|--------|--------|--------|--------|--------|
G|--------|--------|--------|--------|--------|--------|--------|--------|--------|
D|--------|--------|--------|--------|--------|--------|--------|--------|--------|


D|--------|--------|--------|--------|--------|--------|--------|
A|--------|--------|--------|--------|--------|--------|--------|
F|--------|--------|--------|--------|--------|--------|--------|
C|--------|--------|--------|--------|--------|--------|--------|
G|--------|--------|--------|--------|--------|--------|--------|
D|--------|--------|--------|--------|--------|--------|--------|





Track 6: Mandolin

D|--------|--------|--------|--------|--------|--------|--------|--------|--------|
A|--------|--------|--------|--------|--------|--------|--------|--------|--------|
F|--------|--------|--------|--------|--------|--------|--------|--------|--------|
C|--------|--------|--------|--------|--------|--------|--------|--------|--------|
G|--------|--------|--------|--------|--------|--------|--------|--------|--------|
D|--------|--------|--------|--------|--------|--------|--------|--------|--------|


D|--------|--------|--------|--------|--------|--------|--------|--------|--------|
A|--------|--------|--------|--------|--------|--------|--------|--------|--------|
F|--------|--------|--------|--------|--------|--------|--------|--------|--------|
C|--------|--------|--------|--------|--------|--------|--------|--------|--------|
G|--------|--------|--------|--------|--------|--------|--------|--------|--------|
D|--------|--------|--------|--------|--------|--------|--------|--------|--------|


D|--------|--------|--------|--------|--------|--------|--------|--------|--------|
A|--------|--------|--------|--------|--------|--------|--------|--------|--------|
F|--------|--------|--------|--------|--------|--------|--------|--------|--------|
C|--------|--------|--------|--------|--------|--------|--------|--------|--------|
G|--------|--------|--------|--------|--------|--------|--------|--------|--------|
D|--------|--------|--------|--------|--------|--------|--------|--------|--------|


D|--------|--------|--------|--------|--------|--------|--------|--------|--------|
A|--------|--------|--------|--------|--------|--------|--------|--------|--------|
F|--------|--------|--------|--------|--------|--------|--------|--------|--------|
C|--------|--------|--------|--------|--------|--------|--------|--------|--------|
G|--------|--------|--------|--------|--------|--------|--------|--------|--------|
D|--------|--------|--------|--------|--------|--------|--------|--------|--------|


D|--------|--------|--------|--------|--------|--------|--------|--------|--------|
A|--------|--------|--------|--------|--------|--------|--------|--------|--------|
F|--------|--------|--------|--------|--------|--------|--------|--------|--------|
C|--------|--------|--------|--------|--------|--------|--------|--------|--------|
G|--------|--------|--------|--------|--------|--------|--------|--------|--------|
D|--------|--------|--------|--------|--------|--------|--------|--------|--------|


D|--------|--------|--------|--------|--------|--------|--------|--------|--------|
A|--------|--------|--------|--------|--------|--------|--------|--------|--------|
F|--------|--------|--------|--------|--------|--------|--------|--------|--------|
C|--------|--------|--------|--------|--------|--------|--------|--------|--------|
G|--------|--------|--------|--------|--------|--------|--------|--------|--------|
D|--------|--------|--------|--------|--------|--------|--------|--------|--------|


D|--------|--------|--------|--------|--------|--------|--------|--------|--------|
A|--------|--------|--------|--------|--------|--------|--------|--------|--------|
F|--------|--------|--------|--------|--------|--------|--------|--------|--------|
C|--------|--------|--------|--------|--------|--------|--------|--------|--------|
G|--------|--------|--------|--------|--------|--------|--------|--------|--------|
D|--------|--------|--------|--------|--------|--------|--------|--------|--------|


D|--------|--------|--------|--------|--------|--------|--------|--------|--------|
A|--------|--------|--------|--------|--------|--------|--------|--------|--------|
F|--------|--------|--------|--------|--------|--------|--------|--------|--------|
C|--------|--------|--------|--------|--------|--------|--------|--------|--------|
G|--------|--------|--------|--------|--------|--------|--------|--------|--------|
D|--------|--------|--------|--------|--------|--------|--------|--------|--------|


D|--------|--------|--------|--------|--------|--------|--------|--------|--------|
A|--------|--------|--------|--------|--------|--------|--------|--------|--------|
F|--------|--------|--------|--------|--------|--------|--------|--------|--------|
C|--------|--------|--------|--------|--------|--------|--------|--------|--------|
G|--------|--------|--------|--------|--------|--------|--------|--------|--------|
D|--------|--------|--------|--------|--------|--------|--------|--------|--------|


D|--------|--------|--------|--------|--------|--------|--------|--------|--------|
A|--------|--------|--------|--------|--------|--------|--------|--------|--------|
F|--------|--------|--------|--------|--------|--------|--------|--------|--------|
C|--------|--------|--------|--------|--------|--------|--------|--------|--------|
G|--------|--------|--------|--------|--------|--------|--------|--------|--------|
D|--------|--------|--------|--------|--------|--------|--------|--------|--------|


D|--------|--------|--------|--------|--------|--------|--------|--------|--------|
A|--------|--------|--------|--------|--------|--------|--------|--------|--------|
F|--------|--------|--------|--------|--------|--------|--------|--------|--------|
C|--------|--------|--------|--------|--------|--------|--------|--------|--------|
G|--------|--------|--------|--------|--------|--------|--------|--------|--------|
D|--------|--------|--------|--------|--------|--------|--------|--------|--------|


D|--------|-17----20----19--|-14----------|-8-----11----|-5-----------|-17----20----19--|
A|--------|-----------------|-------------|-------------|-------------|-----------------|
F|--------|-----------------|-------------|-------------|-------------|-----------------|
C|--------|-----------------|-------------|-------------|-------------|-----------------|
G|--------|-----------------|-------------|-------------|-------------|-----------------|
D|--------|-----------------|-------------|-------------|-------------|-----------------|


D|-14----------|-8-----11----|-5-----------|----------------|--------|--------|--------|
A|-------------|-------------|-------------|----------------|--------|--------|--------|
F|-------------|-------------|-------------|----------------|--------|--------|--------|
C|-------------|-------------|-------------|----------------|--------|--------|--------|
G|-------------|-------------|-------------|----------------|--------|--------|--------|
D|-------------|-------------|-------------|----------------|--------|--------|--------|


D|--------|--------|--------|--------|--------|--------|--------|--------|--------|
A|--------|--------|--------|--------|--------|--------|--------|--------|--------|
F|--------|--------|--------|--------|--------|--------|--------|--------|--------|
C|--------|--------|--------|--------|--------|--------|--------|--------|--------|
G|--------|--------|--------|--------|--------|--------|--------|--------|--------|
D|--------|--------|--------|--------|--------|--------|--------|--------|--------|


D|--------|--------|--------|--------|--------|--------|--------|--------|--------|
A|--------|--------|--------|--------|--------|--------|--------|--------|--------|
F|--------|--------|--------|--------|--------|--------|--------|--------|--------|
C|--------|--------|--------|--------|--------|--------|--------|--------|--------|
G|--------|--------|--------|--------|--------|--------|--------|--------|--------|
D|--------|--------|--------|--------|--------|--------|--------|--------|--------|


D|--------|--------|--------|--------|--------|--------|--------|--------|--------|
A|--------|--------|--------|--------|--------|--------|--------|--------|--------|
F|--------|--------|--------|--------|--------|--------|--------|--------|--------|
C|--------|--------|--------|--------|--------|--------|--------|--------|--------|
G|--------|--------|--------|--------|--------|--------|--------|--------|--------|
D|--------|--------|--------|--------|--------|--------|--------|--------|--------|


D|--------|--------|--------|--------|--------|--------|--------|--------|--------|
A|--------|--------|--------|--------|--------|--------|--------|--------|--------|
F|--------|--------|--------|--------|--------|--------|--------|--------|--------|
C|--------|--------|--------|--------|--------|--------|--------|--------|--------|
G|--------|--------|--------|--------|--------|--------|--------|--------|--------|
D|--------|--------|--------|--------|--------|--------|--------|--------|--------|





Track 7: Heavy guitar 1

D|--------|--------|--------|--------|--------|--------|--------|--------|--------|
A|--------|--------|--------|--------|--------|--------|--------|--------|--------|
F|--------|--------|--------|--------|--------|--------|--------|--------|--------|
C|--------|--------|--------|--------|--------|--------|--------|--------|--------|
G|--------|--------|--------|--------|--------|--------|--------|--------|--------|
D|--------|--------|--------|--------|--------|--------|--------|--------|--------|


D|--------|--------|--------|--------|--------|--------|--------|--------|--------|
A|--------|--------|--------|--------|--------|--------|--------|--------|--------|
F|--------|--------|--------|--------|--------|--------|--------|--------|--------|
C|--------|--------|--------|--------|--------|--------|--------|--------|--------|
G|--------|--------|--------|--------|--------|--------|--------|--------|--------|
D|--------|--------|--------|--------|--------|--------|--------|--------|--------|


D|--------|--------|--------|--------|--------|--------|--------|--------|--------|
A|--------|--------|--------|--------|--------|--------|--------|--------|--------|
F|--------|--------|--------|--------|--------|--------|--------|--------|--------|
C|--------|--------|--------|--------|--------|--------|--------|--------|--------|
G|--------|--------|--------|--------|--------|--------|--------|--------|--------|
D|--------|--------|--------|--------|--------|--------|--------|--------|--------|


D|--------|--------|--------|--------|--------|--------|--------|--------|--------|
A|--------|--------|--------|--------|--------|--------|--------|--------|--------|
F|--------|--------|--------|--------|--------|--------|--------|--------|--------|
C|--------|--------|--------|--------|--------|--------|--------|--------|--------|
G|--------|--------|--------|--------|--------|--------|--------|--------|--------|
D|--------|--------|--------|--------|--------|--------|--------|--------|--------|


D|--------|--------|--------|--------|--------|--------|--------|--------|--------|
A|--------|--------|--------|--------|--------|--------|--------|--------|--------|
F|--------|--------|--------|--------|--------|--------|--------|--------|--------|
C|--------|--------|--------|--------|--------|--------|--------|--------|--------|
G|--------|--------|--------|--------|--------|--------|--------|--------|--------|
D|--------|--------|--------|--------|--------|--------|--------|--------|--------|


D|--------|--------|--------|--------|--------|--------|--------|--------|--------|
A|--------|--------|--------|--------|--------|--------|--------|--------|--------|
F|--------|--------|--------|--------|--------|--------|--------|--------|--------|
C|--------|--------|--------|--------|--------|--------|--------|--------|--------|
G|--------|--------|--------|--------|--------|--------|--------|--------|--------|
D|--------|--------|--------|--------|--------|--------|--------|--------|--------|


D|--------|--------|--------|--------|--------|--------|--------|--------|--------|
A|--------|--------|--------|--------|--------|--------|--------|--------|--------|
F|--------|--------|--------|--------|--------|--------|--------|--------|--------|
C|--------|--------|--------|--------|--------|--------|--------|--------|--------|
G|--------|--------|--------|--------|--------|--------|--------|--------|--------|
D|--------|--------|--------|--------|--------|--------|--------|--------|--------|


D|--------|--------|--------|--------|--------|--------|--------|--------|--------|
A|--------|--------|--------|--------|--------|--------|--------|--------|--------|
F|--------|--------|--------|--------|--------|--------|--------|--------|--------|
C|--------|--------|--------|--------|--------|--------|--------|--------|--------|
G|--------|--------|--------|--------|--------|--------|--------|--------|--------|
D|--------|--------|--------|--------|--------|--------|--------|--------|--------|


D|--------|--------|--------|--------|--------|--------|--------|--------|--------|
A|--------|--------|--------|--------|--------|--------|--------|--------|--------|
F|--------|--------|--------|--------|--------|--------|--------|--------|--------|
C|--------|--------|--------|--------|--------|--------|--------|--------|--------|
G|--------|--------|--------|--------|--------|--------|--------|--------|--------|
D|--------|--------|--------|--------|--------|--------|--------|--------|--------|


D|--------|--------|--------|--------|--------|--------|--------|--------|--------|
A|--------|--------|--------|--------|--------|--------|--------|--------|--------|
F|--------|--------|--------|--------|--------|--------|--------|--------|--------|
C|--------|--------|--------|--------|--------|--------|--------|--------|--------|
G|--------|--------|--------|--------|--------|--------|--------|--------|--------|
D|--------|--------|--------|--------|--------|--------|--------|--------|--------|


D|--------|--------|--------|--------|--------|--------|--------|--------|--------|
A|--------|--------|--------|--------|--------|--------|--------|--------|--------|
F|--------|--------|--------|--------|--------|--------|--------|--------|--------|
C|--------|--------|--------|--------|--------|--------|--------|--------|--------|
G|--------|--------|--------|--------|--------|--------|--------|--------|--------|
D|--------|--------|--------|--------|--------|--------|--------|--------|--------|


D|--------|--------|--------|--------|--------|--------|--------|--------|--------|
A|--------|--------|--------|--------|--------|--------|--------|--------|--------|
F|--------|--------|--------|--------|--------|--------|--------|--------|--------|
C|--------|--------|--------|--------|--------|--------|--------|--------|--------|
G|--------|--------|--------|--------|--------|--------|--------|--------|--------|
D|--------|--------|--------|--------|--------|--------|--------|--------|--------|


D|--------|--------|--------|--------|--------|--------|--------|--------|--------|
A|--------|--------|--------|--------|--------|--------|--------|--------|--------|
F|--------|--------|--------|--------|--------|--------|--------|--------|--------|
C|--------|--------|--------|--------|--------|--------|--------|--------|--------|
G|--------|--------|--------|--------|--------|--------|--------|--------|--------|
D|--------|--------|--------|--------|--------|--------|--------|--------|--------|


D|--------|--------|--------|--------|--------|--------|--------|--------|--------|
A|--------|--------|--------|--------|--------|--------|--------|--------|--------|
F|--------|--------|--------|--------|--------|--------|--------|--------|--------|
C|--------|--------|--------|--------|--------|--------|--------|--------|--------|
G|--------|--------|--------|--------|--------|--------|--------|--------|--------|
D|--------|--------|--------|--------|--------|--------|--------|--------|--------|


D|--------|--------|--------|--------|--------|--------|--------|--------|--------|
A|--------|--------|--------|--------|--------|--------|--------|--------|--------|
F|--------|--------|--------|--------|--------|--------|--------|--------|--------|
C|--------|--------|--------|--------|--------|--------|--------|--------|--------|
G|--------|--------|--------|--------|--------|--------|--------|--------|--------|
D|--------|--------|--------|--------|--------|--------|--------|--------|--------|


D|--------|--------|--------|--------|--------|--------|--------|--------|--------|
A|--------|--------|--------|--------|--------|--------|--------|--------|--------|
F|--------|--------|--------|--------|--------|--------|--------|--------|--------|
C|--------|--------|--------|--------|--------|--------|--------|--------|--------|
G|--------|--------|--------|--------|--------|--------|--------|--------|--------|
D|--------|--------|--------|--------|--------|--------|--------|--------|--------|


D|--------|--------|--------|--------|
A|--------|--------|--------|--------|
F|--------|--------|--------|--------|
C|--------|--------|--------|--------|
G|--------|--------|--------|--------|
D|--------|--------|--------|--------|





Track 8: Heavy guitar 1

D|--------|--------|--------|--------|--------|--------|--------|--------|--------|
A|--------|--------|--------|--------|--------|--------|--------|--------|--------|
F|--------|--------|--------|--------|--------|--------|--------|--------|--------|
C|--------|--------|--------|--------|--------|--------|--------|--------|--------|
G|--------|--------|--------|--------|--------|--------|--------|--------|--------|
D|--------|--------|--------|--------|--------|--------|--------|--------|--------|


D|--------|--------|--------|--------|--------|--------|--------|--------|--------|
A|--------|--------|--------|--------|--------|--------|--------|--------|--------|
F|--------|--------|--------|--------|--------|--------|--------|--------|--------|
C|--------|--------|--------|--------|--------|--------|--------|--------|--------|
G|--------|--------|--------|--------|--------|--------|--------|--------|--------|
D|--------|--------|--------|--------|--------|--------|--------|--------|--------|


D|--------|--------|--------|--------|--------|--------|--------|--------|--------|
A|--------|--------|--------|--------|--------|--------|--------|--------|--------|
F|--------|--------|--------|--------|--------|--------|--------|--------|--------|
C|--------|--------|--------|--------|--------|--------|--------|--------|--------|
G|--------|--------|--------|--------|--------|--------|--------|--------|--------|
D|--------|--------|--------|--------|--------|--------|--------|--------|--------|


D|--------|--------|--------|--------|--------|--------|--------|--------|--------|
A|--------|--------|--------|--------|--------|--------|--------|--------|--------|
F|--------|--------|--------|--------|--------|--------|--------|--------|--------|
C|--------|--------|--------|--------|--------|--------|--------|--------|--------|
G|--------|--------|--------|--------|--------|--------|--------|--------|--------|
D|--------|--------|--------|--------|--------|--------|--------|--------|--------|


D|--------|--------|--------|--------|--------|--------|--------|--------|--------|
A|--------|--------|--------|--------|--------|--------|--------|--------|--------|
F|--------|--------|--------|--------|--------|--------|--------|--------|--------|
C|--------|--------|--------|--------|--------|--------|--------|--------|--------|
G|--------|--------|--------|--------|--------|--------|--------|--------|--------|
D|--------|--------|--------|--------|--------|--------|--------|--------|--------|


D|--------|--------|--------|--------|--------|--------|--------|--------|--------|
A|--------|--------|--------|--------|--------|--------|--------|--------|--------|
F|--------|--------|--------|--------|--------|--------|--------|--------|--------|
C|--------|--------|--------|--------|--------|--------|--------|--------|--------|
G|--------|--------|--------|--------|--------|--------|--------|--------|--------|
D|--------|--------|--------|--------|--------|--------|--------|--------|--------|


D|--------|--------|--------|--------|--------|--------|--------|--------|--------|
A|--------|--------|--------|--------|--------|--------|--------|--------|--------|
F|--------|--------|--------|--------|--------|--------|--------|--------|--------|
C|--------|--------|--------|--------|--------|--------|--------|--------|--------|
G|--------|--------|--------|--------|--------|--------|--------|--------|--------|
D|--------|--------|--------|--------|--------|--------|--------|--------|--------|


D|--------|--------|--------|--------|--------|--------|--------|--------|--------|
A|--------|--------|--------|--------|--------|--------|--------|--------|--------|
F|--------|--------|--------|--------|--------|--------|--------|--------|--------|
C|--------|--------|--------|--------|--------|--------|--------|--------|--------|
G|--------|--------|--------|--------|--------|--------|--------|--------|--------|
D|--------|--------|--------|--------|--------|--------|--------|--------|--------|


D|--------|--------|--------|--------|--------|--------|--------|--------|--------|
A|--------|--------|--------|--------|--------|--------|--------|--------|--------|
F|--------|--------|--------|--------|--------|--------|--------|--------|--------|
C|--------|--------|--------|--------|--------|--------|--------|--------|--------|
G|--------|--------|--------|--------|--------|--------|--------|--------|--------|
D|--------|--------|--------|--------|--------|--------|--------|--------|--------|


D|--------|--------|--------|--------|--------|--------|--------|--------|--------|
A|--------|--------|--------|--------|--------|--------|--------|--------|--------|
F|--------|--------|--------|--------|--------|--------|--------|--------|--------|
C|--------|--------|--------|--------|--------|--------|--------|--------|--------|
G|--------|--------|--------|--------|--------|--------|--------|--------|--------|
D|--------|--------|--------|--------|--------|--------|--------|--------|--------|


D|--------|--------|--------|--------|--------|--------|--------|--------|--------|
A|--------|--------|--------|--------|--------|--------|--------|--------|--------|
F|--------|--------|--------|--------|--------|--------|--------|--------|--------|
C|--------|--------|--------|--------|--------|--------|--------|--------|--------|
G|--------|--------|--------|--------|--------|--------|--------|--------|--------|
D|--------|--------|--------|--------|--------|--------|--------|--------|--------|


D|--------|--------|--------|--------|--------|--------|--------|--------|--------|
A|--------|--------|--------|--------|--------|--------|--------|--------|--------|
F|--------|--------|--------|--------|--------|--------|--------|--------|--------|
C|--------|--------|--------|--------|--------|--------|--------|--------|--------|
G|--------|--------|--------|--------|--------|--------|--------|--------|--------|
D|--------|--------|--------|--------|--------|--------|--------|--------|--------|


D|--------|--------|--------|--------|--------|--------|--------|--------|--------|
A|--------|--------|--------|--------|--------|--------|--------|--------|--------|
F|--------|--------|--------|--------|--------|--------|--------|--------|--------|
C|--------|--------|--------|--------|--------|--------|--------|--------|--------|
G|--------|--------|--------|--------|--------|--------|--------|--------|--------|
D|--------|--------|--------|--------|--------|--------|--------|--------|--------|


D|--------|--------|--------|--------|--------|--------|--------|--------|-------------|
A|--------|--------|--------|--------|--------|--------|--------|--------|-------------|
F|--------|--------|--------|--------|--------|--------|--------|--------|-------------|
C|--------|--------|--------|--------|--------|--------|--------|--------|-------------|
G|--------|--------|--------|--------|--------|--------|--------|--------|-------------|
D|--------|--------|--------|--------|--------|--------|--------|--------|-------------|


D|--------|--------|--------|--------|--------|--------|--------|--------|--------|
A|--------|--------|--------|--------|--------|--------|--------|--------|--------|
F|--------|--------|--------|--------|--------|--------|--------|--------|--------|
C|--------|--------|--------|--------|--------|--------|--------|--------|--------|
G|--------|--------|--------|--------|--------|--------|--------|--------|--------|
D|--------|--------|--------|--------|--------|--------|--------|--------|--------|


D|--------|--------|--------|--------|--------|--------|--------|--------|--------|
A|--------|--------|--------|--------|--------|--------|--------|--------|--------|
F|--------|--------|--------|--------|--------|--------|--------|--------|--------|
C|--------|--------|--------|--------|--------|--------|--------|--------|--------|
G|--------|--------|--------|--------|--------|--------|--------|--------|--------|
D|--------|--------|--------|--------|--------|--------|--------|--------|--------|


D|--------|--------|--------|--------|
A|--------|--------|--------|--------|
F|--------|--------|--------|--------|
C|--------|--------|--------|--------|
G|--------|--------|--------|--------|
D|--------|--------|--------|--------|





Track 9: Bass Guitar

G|-2-----------------------------------------|-------------------------------------------|
D|-------------------------------------------|-------------------------------------------|
A|-4---------4---------4-----4-----4---------|-4---------4---------4-----4-----4---------|
E|----3---3-----3---3-----3-----3-----3---3--|----3---3-----3---3-----3-----3-----3---3--|


G|---------------------------------------------|---------------------------------------------|
D|---------------------------------------------|---------------------------------------------|
A|---------------------------------------------|---------------------------------------------|
E|-1--3--3--3------3-----1--3--3--3------3-----|-1--3--3--3------3-----1--3--3--3------3-----|


G|-------------------------------------------------|-------------------------------------------------|
D|-5--5--5--5--------------5--5--5--5--------------|-5--5--5--5--------5--3--5--5--5--5--------------|
A|-------------------------------------------------|-------------------------------------------------|
E|-------------3--3--3--3--------------3--3--3--3--|-------------3--3--------------------3--3--3--3--|


G|-------------------------------------------|-------------------------------------------|
D|-------------------------------------------|-------------------------------------------|
A|-4---------4---------4-----4-----4---------|-4---------4---------4-----4-----4---------|
E|----3---3-----3---3-----3-----3-----3---3--|----3---3-----3---3-----3-----3-----3---3--|


G|---------------------------------------------|---------------------------------------------|
D|---------------------------------------------|---------------------------------------------|
A|---------------------------------------------|---------------------------------------------|
E|-3--3--3--3------3-----3--3--3--3------3-----|-3--3--3--3------3-----3--3--3--3------3-----|


G|---------------------------------------------|---------------------------------------------|
D|---------------------------------------------|---------------------------------------------|
A|---------------------------------------------|---------------------------------------------|
E|-3--3--3--3------3-----3--3--3--3------3-----|-3--3--3--3------3-----3--3--3--3------3-----|


G|---------------------------------------------|---------------------------------------------|
D|---------------------------------------------|---------------------------------------------|
A|---------------------------------------------|---------------------------------------------|
E|-3--3--3--3------3-----3--3--3--3------3-----|-3--3--3--3------3-----3--3--3--3------3-----|


G|---------------------------------------------|---------------------------------------------|
D|---------------------------------------------|---------------------------------------------|
A|---------------------------------------------|---------------------------------------------|
E|-3--3--3--3------3-----3--3--3--3------3-----|-3--3--3--3------3-----3--3--3--3------3-----|


G|---------------------------------------------|---------------------------------------------|
D|---------------------------------------------|---------------------------------------------|
A|---------------------------------------------|---------------------------------------------|
E|-3--3--3--3------3-----3--3--3--3------3-----|-3--3--3--3------3-----3--3--3--3------3-----|


G|---------------------------------------------|---------------------------------------------|
D|---------------------------------------------|---------------------------------------------|
A|---------------------------------------------|---------------------------------------------|
E|-3--3--3--3------3-----3--3--3--3------3-----|-3--3--3--3------3-----3--3--3--3------3-----|


G|----------------------------------------|----------------------------------------|
D|----------------------------------------|----------------------------------------|
A|----------------------------------------|----------------------------------------|
E|-3--3--3--3------3-----3--3--3--3-------|-3--3--3--3-------3--3--3--3------3-----|


G|----------------------------------------|----------------------------------------|
D|----------------------------------------|----------------------------------------|
A|----------------------------------------|----------------------------------------|
E|-3--3--3--3------3-----3--3--3--3-------|-3--3--3--3-------3--3--3--3------3-----|


G|---------------------------------------------|---------------------------------------------|
D|---------------------------------------------|---------------------------------------------|
A|---------------------------------------------|---------------------------------------------|
E|-3--3--3--3------3-----3--3--3--3------3-----|-3--3--3--3------3-----3--3--3--3------3-----|


G|---------------------------------------------|---------------------------------------------|
D|---------------------------------------------|---------------------------------------------|
A|---------------------------------------------|---------------------------------------------|
E|-3--3--3--3------3-----3--3--3--3------3-----|-3--3--3--3------3-----3--3--3--3------3-----|


G|---------------------------------------------|---------------------------------------------|
D|---------------------------------------------|---------------------------------------------|
A|---------------------------------------------|---------------------------------------------|
E|-3--3--3--3------3-----3--3--3--3------3-----|-3--3--3--3------3-----3--3--3--3------3-----|


G|---------------------------------------------|---------------------------------------------|
D|---------------------------------------------|---------------------------------------------|
A|---------------------------------------------|---------------------------------------------|
E|-3--3--3--3------3-----3--3--3--3------3-----|-3--3--3--3------3-----3--3--3--3------3-----|


G|-----------------------------------|----------------------------------------|-----------------------------------|
D|-----------------------------------|----------------------------------------|-----------------------------------|
A|-----------------------------------|----------------------------------------|-----------------------------------|
E|-3--3--3--3-------3--3--3--3-------|-3--3--3--3-------3--3--3--3------3-----|-3--3--3--3-------3--3--3--3-------|


G|----------------------------------------|-----------------------------------|----------------------------------------|
D|----------------------------------------|-----------------------------------|----------------------------------------|
A|----------------------------------------|-----------------------------------|----------------------------------------|
E|-3--3--3--3-------3--3--3--3------3-----|-3--3--3--3-------3--3--3--3-------|-3--3--3--3-------3--3--3--3------3-----|


G|-----------------------------------|----------------------------------------|-------------------------------|
D|-----------------------------------|----------------------------------------|-------------------------------|
A|-----------------------------------|----------------------------------------|-------------------------------|
E|-3--3--3--3-------3--3--3--3-------|-3--3--3--3-------3--3--3--3------3-----|-3--3--3--------3--3--3--------|


G|-----------------------------------------|-------------------------------|-----------------------------------------|
D|-----------------------------------------|-------------------------------|-----------------------------------------|
A|-4---------4---------4---------4---------|-------------------------------|-4---------4---------4---------4---------|
E|----3---3-----3---3-----3---3-----3---3--|-3--3--3--------3--3--3--------|----3---3-----3---3-----3---3-----3---3--|


G|-------------------------------|-----------------------------------------|-------------------------------|
D|-------------------------------|-----------------------------------------|-------------------------------|
A|-------------------------------|-4---------4---------4---------4---------|-------------------------------|
E|-3--3--3--------3--3--3--------|----3---3-----3---3-----3---3-----3---3--|-3--3--3--------3--3--3--------|


G|-----------------------------------------|---------------------------------------------|
D|-----------------------------------------|---------------------------------------------|
A|-4---------4---------4---------4---------|---------------------------------------------|
E|----3---3-----3---3-----3---3-----3---3--|-1--3--3--3------3-----1--3--3--3------3-----|


G|---------------------------------------------|-------------------------------------------------|
D|---------------------------------------------|-5--5--5--5--------------5--5--5--5--------------|
A|---------------------------------------------|-------------------------------------------------|
E|-1--3--3--3------3-----1--3--3--3------3-----|-------------3--3--3--3--------------3--3--3--3--|


G|-------------------------------------------------|-------------------------------------------|
D|-5--5--5--5--------5--3--5--5--5--5--------------|-------------------------------------------|
A|-------------------------------------------------|-4---------4---------4-----4-----4---------|
E|-------------3--3--------------------3--3--3--3--|----3---3-----3---3-----3-----3-----3---3--|


G|-------------------------------------------|-------------------------------------------|
D|-------------------------------------------|-------------------------------------------|
A|-4---------4---------4-----4-----4---------|-4---------4---------4-----4-----4---------|
E|----3---3-----3---3-----3-----3-----3---3--|----3---3-----3---3-----3-----3-----3---3--|


G|-------------------------------------------|---------------------------------------------|
D|-------------------------------------------|---------------------------------------------|
A|-4---------4---------4-----4-----4---------|---------------------------------------------|
E|----3---3-----3---3-----3-----3-----3---3--|-3--3--3--3------3-----3--3--3--3------3-----|


G|---------------------------------------------|---------------------------------------------|
D|---------------------------------------------|---------------------------------------------|
A|---------------------------------------------|---------------------------------------------|
E|-3--3--3--3------3-----3--3--3--3------3-----|-3--3--3--3------3-----3--3--3--3------3-----|


G|---------------------------------------------|---------------------------------------------|
D|---------------------------------------------|---------------------------------------------|
A|---------------------------------------------|---------------------------------------------|
E|-3--3--3--3------3-----3--3--3--3------3-----|-3--3--3--3------3-----3--3--3--3------3-----|


G|---------------------------------------------|---------------------------------------------|
D|---------------------------------------------|---------------------------------------------|
A|---------------------------------------------|---------------------------------------------|
E|-3--3--3--3------3-----3--3--3--3------3-----|-3--3--3--3------3-----3--3--3--3------3-----|


G|---------------------------------------------|---------------------------------------------|
D|---------------------------------------------|---------------------------------------------|
A|---------------------------------------------|---------------------------------------------|
E|-3--3--3--3------3-----3--3--3--3------3-----|-3--3--3--3------3-----3--3--3--3------3-----|


G|---------------------------------------------|---------------------------------------------|
D|---------------------------------------------|---------------------------------------------|
A|---------------------------------------------|---------------------------------------------|
E|-3--3--3--3------3-----3--3--3--3------3-----|-3--3--3--3------3-----3--3--3--3------3-----|


G|---------------------------------------------|-----------------------------------|
D|---------------------------------------------|-----------------------------------|
A|---------------------------------------------|-----------------------------------|
E|-3--3--3--3------3-----3--3--3--3------3-----|-3--3--3--3-------3--3--3--3-------|


G|----------------------------------------|-----------------------------------|----------------------------------------|
D|----------------------------------------|-----------------------------------|----------------------------------------|
A|----------------------------------------|-----------------------------------|----------------------------------------|
E|-3--3--3--3-------3--3--3--3------3-----|-3--3--3--3-------3--3--3--3-------|-3--3--3--3-------3--3--3--3------3-----|


G|-----------------------------------|----------------------------------------|-----------------------------------|
D|-----------------------------------|----------------------------------------|-----------------------------------|
A|-----------------------------------|----------------------------------------|-----------------------------------|
E|-3--3--3--3-------3--3--3--3-------|-3--3--3--3-------3--3--3--3------3-----|-3--3--3--3-------3--3--3--3-------|


G|----------------------------------------|---------------------------------------------|
D|----------------------------------------|---------------------------------------------|
A|----------------------------------------|---------------------------------------------|
E|-3--3--3--3-------3--3--3--3------3-----|-3--3--3--3------3-----3--3--3--3------3-----|


G|---------------------------------------------|---------------------------------------------|
D|---------------------------------------------|---------------------------------------------|
A|---------------------------------------------|---------------------------------------------|
E|-3--3--3--3------3-----3--3--3--3------3-----|-3--3--3--3------3-----3--3--3--3------3-----|


G|---------------------------------------------|---------------------------------------------|
D|---------------------------------------------|---------------------------------------------|
A|---------------------------------------------|---------------------------------------------|
E|-3--3--3--3------3-----3--3--3--3------3-----|-3--3--3--3------3-----3--3--3--3------3-----|


G|---------------------------------------------|---------------------------------------------|
D|---------------------------------------------|---------------------------------------------|
A|---------------------------------------------|---------------------------------------------|
E|-3--3--3--3------3-----3--3--3--3------3-----|-3--3--3--3------3-----3--3--3--3------3-----|


G|---------------------------------------------|-------------------------------|-----------------------------------------|
D|---------------------------------------------|-------------------------------|-----------------------------------------|
A|---------------------------------------------|-------------------------------|-4---------4---------4---------4---------|
E|-3--3--3--3------3-----3--3--3--3------3-----|-3--3--3--------3--3--3--------|----3---3-----3---3-----3---3-----3---3--|


G|-------------------------------|-----------------------------------------|-------------------------------|
D|-------------------------------|-----------------------------------------|-------------------------------|
A|-------------------------------|-4---------4---------4---------4---------|-------------------------------|
E|-3--3--3--------3--3--3--------|----3---3-----3---3-----3---3-----3---3--|-3--3--3--------3--3--3--------|


G|-----------------------------------------|-------------------------------|-----------------------------------------|
D|-----------------------------------------|-------------------------------|-----------------------------------------|
A|-4---------4---------4---------4---------|-------------------------------|-4---------4---------4---------4---------|
E|----3---3-----3---3-----3---3-----3---3--|-3--3--3--------3--3--3--------|----3---3-----3---3-----3---3-----3---3--|


G|---------------------------|----------------|---------------------------|----------------|
D|---------------------------|----------------|---------------------------|----------------|
A|---------------------------|----------------|---------------------------|----------------|
E|-3----3-------3----3-------|-3----3---------|-3----3-------3----3-------|-3----3---------|


G|---------------------------|----------------|---------------------------|----------------|
D|---------------------------|----------------|---------------------------|----------------|
A|---------------------------|----------------|---------------------------|----------------|
E|-3----3-------3----3-------|-3----3---------|-3----3-------3----3-------|-3----3---------|


G|---------------------------|----------------|---------------------------|----------------|
D|---------------------------|----------------|---------------------------|----------------|
A|---------------------------|----------------|---------------------------|----------------|
E|-3----3-------3----3-------|-3----3---------|-3----3-------3----3-------|-3----3---------|


G|---------------------------|----------------|---------------------------|----------------|
D|---------------------------|----------------|---------------------------|----------------|
A|---------------------------|----------------|---------------------------|----------------|
E|-3----3-------3----3-------|-3----3---------|-3----3-------3----3-------|-3----3---------|


G|---------------------------|----------------|---------------------------|----------------|
D|---------------------------|----------------|---------------------------|----------------|
A|---------------------------|----------------|---------------------------|----------------|
E|-3----3-------3----3-------|-3----3---------|-3----3-------3----3-------|-3----3---------|


G|---------------------------|----------------|---------------------------|----------------|
D|---------------------------|----------------|---------------------------|----------------|
A|---------------------------|----------------|---------------------------|----------------|
E|-3----3-------3----3-------|-3----3---------|-3----3-------3----3-------|-3----3---------|


G|---------------------------|----------------|---------------------------|---------------------------|
D|---------------------------|----------------|---------------------------|---------------------------|
A|---------------------------|----------------|---------------------------|---------------------------|
E|-3----3-------3----3-------|-3----3---------|-3----3-------3----3-------|-3----3-------3----3-------|


G|---------------------------|---------------------------|---------------------------|
D|---------------------------|---------------------------|---------------------------|
A|---------------------------|---------------------------|---------------------------|
E|-3----3-------3----3-------|-3----3-------3----3-------|-3----3-------3----3-------|


G|---------------------------|---------------------------|---------------------------|
D|---------------------------|---------------------------|---------------------------|
A|---------------------------|---------------------------|---------------------------|
E|-3----3-------3----3-------|-3----3-------3----3-------|-3----3-------3----3-------|


G|---------------------------|-----------------------------------------|---------------------------------------------|
D|---------------------------|-3---------------------------------------|---------------------------------------------|
A|---------------------------|-----------5---------4---------2---------|---------------------------------------------|
E|-3----3-------3----3-------|----3---3-----3---3-----3---3-----3---3--|-1--3--3--3------3-----1--3--3--3------3-----|


G|---------------------------------------------|---------------------------------------------|
D|-----------------5--3------------------------|---------------------------------------------|
A|---------------------------------------------|---------------------------------------------|
E|-1--3--3--3------------1--3--3--3------3-----|-1--3--3--3------3-----1--3--3--3------3-----|


G|---------------------------------------------|---------------------------------------------|
D|-----------------5--3------------------------|---------------------------------------------|
A|---------------------------------------------|---------------------------------------------|
E|-1--3--3--3------------1--3--3--3------3-----|-1--3--3--3------3-----1--3--3--3------3-----|


G|---------------------------------------------|---------------------------------------------|
D|-----------------5--3------------------------|---------------------------------------------|
A|---------------------------------------------|---------------------------------------------|
E|-1--3--3--3------------1--3--3--3------3-----|-1--3--3--3------3-----1--3--3--3------3-----|


G|---------------------------------------------|---------------------------------------------|
D|-----------------5--3------------------------|---------------------------------------------|
A|---------------------------------------------|---------------------------------------------|
E|-1--3--3--3------------1--3--3--3------3-----|-1--3--3--3------3-----1--3--3--3------3-----|


G|---------------------------------------------|---------------------------------------------|
D|-----------------5--3------------------------|---------------------------------------------|
A|---------------------------------------------|---------------------------------------------|
E|-1--3--3--3------------1--3--3--3------3-----|-1--3--3--3------3-----1--3--3--3------3-----|


G|---------------------------------------------|---------------------------------------------|
D|-----------------5--3------------------------|---------------------------------------------|
A|---------------------------------------------|---------------------------------------------|
E|-1--3--3--3------------1--3--3--3------3-----|-1--3--3--3------3-----1--3--3--3------3-----|


G|---------------------------------------------|---------------------------------------------|
D|-----------------5--3------------------------|---------------------------------------------|
A|---------------------------------------------|---------------------------------------------|
E|-1--3--3--3------------1--3--3--3------3-----|-1--3--3--3------3-----1--3--3--3------3-----|


G|---------------------------------------------|-------------------------------------------|
D|-----------------5--3------------------------|-------------------------------------------|
A|---------------------------------------------|-4---------4---------4-----4-----4---------|
E|-1--3--3--3------------1--3--3--3------3-----|----3---3-----3---3-----3-----3-----3---3--|


G|-------------------------------------------|-------------------------------------------|
D|-------------------------------------------|-------------------------------------------|
A|-4---------4---------4-----4-----4---------|-4---------4---------4-----4-----4---------|
E|----3---3-----3---3-----3-----3-----3---3--|----3---3-----3---3-----3-----3-----3---3--|


G|-----------------------------------------|
D|-----------------------------------------|
A|-4---------4---------4-----4-----4-------|
E|----3---3-----3---3-----3-----3----------|