Site menu:

    

Browse: 0-9 A B C D E F G H I J K L N O P Q R S T U V W X Y Z

queens of the stone age - no one knows ukulele arrangement:



Title: No One Knows (Ukulele Arrangement)
Artist: 
Album: 
Author: Josh Homme, Nick Oliveri, Mark Lanegan


Track 1: Untitled

E|--------|--------|--------|--------|--------|--------|--------|--------|--------|
B|--------|--------|--------|--------|--------|--------|--------|--------|--------|
G|--------|--------|--------|--------|--------|--------|--------|--------|--------|
D|--------|--------|--------|--------|--------|--------|--------|--------|--------|
A|--------|--------|--------|--------|--------|--------|--------|--------|--------|
E|--------|--------|--------|--------|--------|--------|--------|--------|--------|


E|--------|--------|--------|--------|--------|--------|--------|--------|--------|
B|--------|--------|--------|--------|--------|--------|--------|--------|--------|
G|--------|--------|--------|--------|--------|--------|--------|--------|--------|
D|--------|--------|--------|--------|--------|--------|--------|--------|--------|
A|--------|--------|--------|--------|--------|--------|--------|--------|--------|
E|--------|--------|--------|--------|--------|--------|--------|--------|--------|


E|--------|--------|--------|--------|--------|--------|--------|--------|--------|
B|--------|--------|--------|--------|--------|--------|--------|--------|--------|
G|--------|--------|--------|--------|--------|--------|--------|--------|--------|
D|--------|--------|--------|--------|--------|--------|--------|--------|--------|
A|--------|--------|--------|--------|--------|--------|--------|--------|--------|
E|--------|--------|--------|--------|--------|--------|--------|--------|--------|


E|--------|--------|--------|--------|--------|--------|--------|--------|--------|
B|--------|--------|--------|--------|--------|--------|--------|--------|--------|
G|--------|--------|--------|--------|--------|--------|--------|--------|--------|
D|--------|--------|--------|--------|--------|--------|--------|--------|--------|
A|--------|--------|--------|--------|--------|--------|--------|--------|--------|
E|--------|--------|--------|--------|--------|--------|--------|--------|--------|


E|--------|--------|--------|--------|--------|--------|--------|--------|--------|
B|--------|--------|--------|--------|--------|--------|--------|--------|--------|
G|--------|--------|--------|--------|--------|--------|--------|--------|--------|
D|--------|--------|--------|--------|--------|--------|--------|--------|--------|
A|--------|--------|--------|--------|--------|--------|--------|--------|--------|
E|--------|--------|--------|--------|--------|--------|--------|--------|--------|


E|--------|--------|--------|--------|--------|--------|--------|--------|--------|
B|--------|--------|--------|--------|--------|--------|--------|--------|--------|
G|--------|--------|--------|--------|--------|--------|--------|--------|--------|
D|--------|--------|--------|--------|--------|--------|--------|--------|--------|
A|--------|--------|--------|--------|--------|--------|--------|--------|--------|
E|--------|--------|--------|--------|--------|--------|--------|--------|--------|


E|--------|--------|--------|--------|--------|--------|--------|--------|--------|
B|--------|--------|--------|--------|--------|--------|--------|--------|--------|
G|--------|--------|--------|--------|--------|--------|--------|--------|--------|
D|--------|--------|--------|--------|--------|--------|--------|--------|--------|
A|--------|--------|--------|--------|--------|--------|--------|--------|--------|
E|--------|--------|--------|--------|--------|--------|--------|--------|--------|


E|--------|--------|--------|--------|--------|--------|--------|--------|--------|
B|--------|--------|--------|--------|--------|--------|--------|--------|--------|
G|--------|--------|--------|--------|--------|--------|--------|--------|--------|
D|--------|--------|--------|--------|--------|--------|--------|--------|--------|
A|--------|--------|--------|--------|--------|--------|--------|--------|--------|
E|--------|--------|--------|--------|--------|--------|--------|--------|--------|


E|--------|--------|--------|--------|--------|--------|--------|--------|--------|
B|--------|--------|--------|--------|--------|--------|--------|--------|--------|
G|--------|--------|--------|--------|--------|--------|--------|--------|--------|
D|--------|--------|--------|--------|--------|--------|--------|--------|--------|
A|--------|--------|--------|--------|--------|--------|--------|--------|--------|
E|--------|--------|--------|--------|--------|--------|--------|--------|--------|


E|--------|--------|--------|--------|--------|--------|--------|--------|--------|
B|--------|--------|--------|--------|--------|--------|--------|--------|--------|
G|--------|--------|--------|--------|--------|--------|--------|--------|--------|
D|--------|--------|--------|--------|--------|--------|--------|--------|--------|
A|--------|--------|--------|--------|--------|--------|--------|--------|--------|
E|--------|--------|--------|--------|--------|--------|--------|--------|--------|


E|--------|--------|--------|--------|--------|--------|--------|--------|--------|
B|--------|--------|--------|--------|--------|--------|--------|--------|--------|
G|--------|--------|--------|--------|--------|--------|--------|--------|--------|
D|--------|--------|--------|--------|--------|--------|--------|--------|--------|
A|--------|--------|--------|--------|--------|--------|--------|--------|--------|
E|--------|--------|--------|--------|--------|--------|--------|--------|--------|


E|--------|--------|--------|--------|--------|--------|--------|--------|--------|
B|--------|--------|--------|--------|--------|--------|--------|--------|--------|
G|--------|--------|--------|--------|--------|--------|--------|--------|--------|
D|--------|--------|--------|--------|--------|--------|--------|--------|--------|
A|--------|--------|--------|--------|--------|--------|--------|--------|--------|
E|--------|--------|--------|--------|--------|--------|--------|--------|--------|


E|--------|--------|--------|--------|--------|--------|--------|--------|--------|
B|--------|--------|--------|--------|--------|--------|--------|--------|--------|
G|--------|--------|--------|--------|--------|--------|--------|--------|--------|
D|--------|--------|--------|--------|--------|--------|--------|--------|--------|
A|--------|--------|--------|--------|--------|--------|--------|--------|--------|
E|--------|--------|--------|--------|--------|--------|--------|--------|--------|


E|--------|--------|--------|--------|--------|--------|--------|--------|--------|
B|--------|--------|--------|--------|--------|--------|--------|--------|--------|
G|--------|--------|--------|--------|--------|--------|--------|--------|--------|
D|--------|--------|--------|--------|--------|--------|--------|--------|--------|
A|--------|--------|--------|--------|--------|--------|--------|--------|--------|
E|--------|--------|--------|--------|--------|--------|--------|--------|--------|


E|--------|--------|--------|--------|--------|--------|--------|--------|--------|
B|--------|--------|--------|--------|--------|--------|--------|--------|--------|
G|--------|--------|--------|--------|--------|--------|--------|--------|--------|
D|--------|--------|--------|--------|--------|--------|--------|--------|--------|
A|--------|--------|--------|--------|--------|--------|--------|--------|--------|
E|--------|--------|--------|--------|--------|--------|--------|--------|--------|


E|--------|--------|--------|--------|--------|--------|--------|--------|--------|
B|--------|--------|--------|--------|--------|--------|--------|--------|--------|
G|--------|--------|--------|--------|--------|--------|--------|--------|--------|
D|--------|--------|--------|--------|--------|--------|--------|--------|--------|
A|--------|--------|--------|--------|--------|--------|--------|--------|--------|
E|--------|--------|--------|--------|--------|--------|--------|--------|--------|


E|--------|--------|--------|--------|--------|--------|--------|--------|--------|
B|--------|--------|--------|--------|--------|--------|--------|--------|--------|
G|--------|--------|--------|--------|--------|--------|--------|--------|--------|
D|--------|--------|--------|--------|--------|--------|--------|--------|--------|
A|--------|--------|--------|--------|--------|--------|--------|--------|--------|
E|--------|--------|--------|--------|--------|--------|--------|--------|--------|


E|--------|--------|--------|--------|--------|--------|--------|--------|--------|
B|--------|--------|--------|--------|--------|--------|--------|--------|--------|
G|--------|--------|--------|--------|--------|--------|--------|--------|--------|
D|--------|--------|--------|--------|--------|--------|--------|--------|--------|
A|--------|--------|--------|--------|--------|--------|--------|--------|--------|
E|--------|--------|--------|--------|--------|--------|--------|--------|--------|


E|--------|--------|--------|--------|--------|--------|--------|--------|--------|
B|--------|--------|--------|--------|--------|--------|--------|--------|--------|
G|--------|--------|--------|--------|--------|--------|--------|--------|--------|
D|--------|--------|--------|--------|--------|--------|--------|--------|--------|
A|--------|--------|--------|--------|--------|--------|--------|--------|--------|
E|--------|--------|--------|--------|--------|--------|--------|--------|--------|


E|--------|--------|--------|--------|--------|--------|--------|--------|--------|
B|--------|--------|--------|--------|--------|--------|--------|--------|--------|
G|--------|--------|--------|--------|--------|--------|--------|--------|--------|
D|--------|--------|--------|--------|--------|--------|--------|--------|--------|
A|--------|--------|--------|--------|--------|--------|--------|--------|--------|
E|--------|--------|--------|--------|--------|--------|--------|--------|--------|





Track 2: Guitar Arr. For Ukulele

A|-3---------3---------|-3---------3---------|------8----8---6--------|-8----8---6-------------|
E|-3---------3---------|-3---------3---------|-------------------8----|--------------8---------|
C|-3---------3---------|-3---------3----10---|-0----------------------|-------------------10---|
G|-5---------5---------|-5---------5---------|------------------------|------------------------|


A|------8----8---6--------|-8----8---6-------------|------8----8---6--------|-8----8---10--8---------|
E|-------------------8----|--------------8---------|-------------------8----|------------------------|
C|-0----------------------|-------------------10---|-0----------------------|-------------------10---|
G|------------------------|------------------------|------------------------|------------------------|


A|------8----8---6--------|-6----10-----|------10--------10---|------10--------10--8---|
E|-------------------8----|-8----11-----|------8---------8----|------8---------8---8---|
C|-0----------------------|-------------|-0---------0---------|-0---------0------------|
G|------------------------|-------------|---------------------|------------------------|


A|-10---10--------10---|------10--------10--8---|-10---10--------10---|------10--------10--8---|
E|-8----8---------8----|------8---------8---8---|-8----8---------8----|------8---------8---8---|
C|-----------0---------|-0---------0------------|-----------0---------|-0---------0------------|
G|---------------------|------------------------|---------------------|------------------------|


A|-10---10--------10---|------10--------10--8---|-2----2----2----2----|-2----2----2---2---2---2---|
E|-8----8---------8----|------8---------8---8---|-3----3----3----3----|-3----3----3---3---3---3---|
C|-----------0---------|-0---------0------------|-2----2----2----2----|-2----2----2---2---2---2---|
G|---------------------|------------------------|-0----0----0----0----|-0----0----0---0---0---0---|


A|-2----2----2----2----|-2----2----2---2---2---2---|------8----8---6--------|-8----8---6-------------|
E|-2----2----2----2----|-2----2----2---2---2---2---|-------------------8----|--------------8---------|
C|-3----3----3----3----|-3----3----3---3---3---3---|-0----------------------|-------------------10---|
G|-4----4----4----4----|-4----4----4---4---4---4---|------------------------|------------------------|


A|------8----8---6--------|-8----10-----|------10--------10---|------10--------10--8---|
E|-------------------8----|-10---8------|------8---------8----|------8---------8---8---|
C|-0----------------------|------0------|-0---------0---------|-0---------0------------|
G|------------------------|-------------|---------------------|------------------------|


A|-10---10--------10---|------10--------10--8---|-10---10--------10---|------10--------10--8---|
E|-8----8---------8----|------8---------8---8---|-8----8---------8----|------8---------8---8---|
C|-----------0---------|-0---------0------------|-----------0---------|-0---------0------------|
G|---------------------|------------------------|---------------------|------------------------|


A|-10---10--------10---|------10--------10--8---|------8---------8----|------8----8-------8-------|
E|-8----8---------8----|------8---------8---8---|-3----3----3----3----|-3----3----3---3---3---3---|
C|-----------0---------|-0---------0------------|-2----2----2----2----|-2----2----2---2---2---2---|
G|---------------------|------------------------|-0----0----0----0----|-0----0----0---0---0---0---|


A|-2----2----2----2----|-2----2----2---2---2---2---|------8----8---6--------|-8----8---------------------------|
E|-2----2----2----2----|-2----2----2---2---2---2---|-------------------8----|------------------6---8---6-------|
C|-3----3----3----3----|-3----3----3---3---3---3---|-0----------------------|----------5---7---------------7---|
G|-4----4----4----4----|-4----4----4---4---4---4---|------------------------|----------------------------------|


A|------8----8---6--------|-8----8---6-------------|------8---------8----|------8----8-------8-------|
E|-------------------8----|--------------8---------|-3----3----3----3----|-3----3----3---3---3---3---|
C|-0----------------------|-------------------10---|-2----2----2----2----|-2----2----2---2---2---2---|
G|------------------------|------------------------|-0----0----0----0----|-0----0----0---0---0---0---|


A|-2----2----2----2----|-2----2----2---2---2---2---|------8----8---6--------|-8----8---6----------------|
E|-2----2----2----2----|-2----2----2---2---2---2---|-------------------8----|--------------3---8--------|
C|-3----3----3----3----|-3----3----3---3---3---3---|-0----------------------|----------------------0----|
G|-4----4----4----4----|-4----4----4---4---4---4---|------------------------|---------------------------|


A|------8----8---6--------|-8----8---6-------------|-3----5----6----5----|-8----6----10---8----|
E|-------------------8----|--------------8---------|---------------------|---------------------|
C|-0----------------------|-------------------0----|-0----2----3----2----|-5----3----7----5----|
G|------------------------|------------------------|---------------------|---------------------|


A|-----2-------2-------2-------2---|-----2-------2-------2-------2---|-3----5----6----5----|
E|-----3-------3-------3-------3---|-----3-------3-------3-------3---|---------------------|
C|-2---2---2---2---2---2---2---2---|-2---2---2---2---2---2---2---2---|-0----2----3----2----|
G|-0---0---0---0---0---0---0---0---|-0---0---0---0---0---0---0---0---|---------------------|


A|-8----6----10---8----|-----2-------2-------2-------2---|-----2-------2-------2-------2---|
E|---------------------|-----3-------3-------3-------3---|-----3-------3-------3-------3---|
C|-5----3----7----5----|-2---2---2---2---2---2---2---2---|-2---2---2---2---2---2---2---2---|
G|---------------------|-0---0---0---0---0---0---0---0---|-0---0---0---0---0---0---0---0---|


A|-6----5----3----1----|-3----5----6----5----|-----2-------2-------2-------2---|-----2-------2-------2-------2---|
E|---------------------|---------------------|-----3-------3-------3-------3---|-----3-------3-------3-------3---|
C|-3----2----0---------|-0----2----3----2----|-2---2---2---2---2---2---2---2---|-2---2---2---2---2---2---2---2---|
G|---------------------|---------------------|-0---0---0---0---0---0---0---0---|-0---0---0---0---0---0---0---0---|


A|-3----5----6----5----|-8----6----10---8----|-----2-------2-------2-------2---|-----2-------2-------2-------2---|
E|---------------------|---------------------|-----3-------3-------3-------3---|-----3-------3-------3-------3---|
C|-0----2----3----2----|-5----3----7----5----|-2---2---2---2---2---2---2---2---|-2---2---2---2---2---2---2---2---|
G|---------------------|---------------------|-0---0---0---0---0---0---0---0---|-0---0---0---0---0---0---0---0---|


A|------8----8---6--------|-8----8---6-------------|------8----8---6--------|-8----10-----|
E|-------------------8----|--------------8---------|-------------------8----|-10---8------|
C|-0----------------------|-------------------10---|-0----------------------|------0------|
G|------------------------|------------------------|------------------------|-------------|


A|------10--------10---|------10--------10--8---|-10---10--------10---|------10--------10--8---|
E|------8---------8----|------8---------8---8---|-8----8---------8----|------8---------8---8---|
C|-0---------0---------|-0---------0------------|-----------0---------|-0---------0------------|
G|---------------------|------------------------|---------------------|------------------------|


A|-10---10--------10---|------10--------10--8---|-10---10--------10--8---|-10---10--8---10--8---10--8---|
E|-8----8---------8----|------8---------8---8---|-8----8---------8---8---|-8----8---8---8---8---8---8---|
C|-----------0---------|-0---------0------------|-----------0------------|------------------------------|
G|---------------------|------------------------|------------------------|------------------------------|


A|------8---------8----|------8----8-------8-------|-2----2----2----2----|-2----2----2---2---2---2---|
E|-3----3----3----3----|-3----3----3---3---3---3---|-2----2----2----2----|-2----2----2---2---2---2---|
C|-2----2----2----2----|-2----2----2---2---2---2---|-3----3----3----3----|-3----3----3---3---3---3---|
G|-0----0----0----0----|-0----0----0---0---0---0---|-4----4----4----4----|-4----4----4---4---4---4---|


A|------8----8---6--------|-8----8---------------------------|------8----8---6--------|
E|-------------------8----|------------------6---8---6-------|-------------------8----|
C|-0----------------------|----------5---7---------------7---|-0----------------------|
G|------------------------|----------------------------------|------------------------|


A|-6----10-----|------10--------10---|------10--------10--8---|-10---10--------10---|
E|-8----11-----|------8---------8----|------8---------8---8---|-8----8---------8----|
C|-------------|-0---------0---------|-0---------0------------|-----------0---------|
G|-------------|---------------------|------------------------|---------------------|


A|------10--------10--8---|-10---10--------10---|------10--------10--8---|-10---10--------10---|
E|------8---------8---8---|-8----8---------8----|------8---------8---8---|-8----8---------8----|
C|-0---------0------------|-----------0---------|-0---------0------------|-----------0---------|
G|------------------------|---------------------|------------------------|---------------------|


A|------10--------10--8---|------8---------8----|------8----8-------8-------|-2----2----2----2----|
E|------8---------8---8---|-3----3----3----3----|-3----3----3---3---3---3---|-2----2----2----2----|
C|-0---------0------------|-2----2----2----2----|-2----2----2---2---2---2---|-3----3----3----3----|
G|------------------------|-0----0----0----0----|-0----0----0---0---0---0---|-4----4----4----4----|


A|-2----2----2---2---2---2---|------8----8---6--------|-8----8---6-------------|------8----8---6--------|
E|-2----2----2---2---2---2---|-------------------8----|--------------8---------|-------------------8----|
C|-3----3----3---3---3---3---|-0----------------------|-------------------10---|-0----------------------|
G|-4----4----4---4---4---4---|------------------------|------------------------|------------------------|


A|-8----8---6-------------|------8---------8----|------8----8-------8-------|-2----2----2----2---2---|
E|--------------8---------|-3----3----3----3----|-3----3----3---3---3---3---|-2----2----2----2---2---|
C|-------------------0----|-2----2----2----2----|-2----2----2---2---2---2---|-3----3----3----3---3---|
G|------------------------|-0----0----0----0----|-0----0----0---0---0---0---|-4----4----4----4---4---|


A|-2----2---2---2----2---2---|------8----8---6--------|-8----8---6----------------|
E|-2----2---2---2----2---2---|-------------------8----|--------------3---8--------|
C|-3----3---3---3----3---3---|-0----------------------|----------------------0----|
G|-4----4---4---4----4---4---|------------------------|---------------------------|


A|------8----8---6--------|-8----8---6-------------|-3----5----6----5----|-8----6----10---8----|
E|-------------------8----|--------------8---------|---------------------|---------------------|
C|-0----------------------|-------------------0----|-0----2----3----2----|-5----3----7----5----|
G|------------------------|------------------------|---------------------|---------------------|


A|-----2-------2-------2-------2---|-----2-------2-------2-------2---|-3----5----6----5----|
E|-----3-------3-------3-------3---|-----3-------3-------3-------3---|---------------------|
C|-2---2---2---2---2---2---2---2---|-2---2---2---2---2---2---2---2---|-0----2----3----2----|
G|-0---0---0---0---0---0---0---0---|-0---0---0---0---0---0---0---0---|---------------------|


A|-8----6----10---8----|-----2-------2-------2-------2---|-----2-------2-------2-------2---|
E|---------------------|-----3-------3-------3-------3---|-----3-------3-------3-------3---|
C|-5----3----7----5----|-2---2---2---2---2---2---2---2---|-2---2---2---2---2---2---2---2---|
G|---------------------|-0---0---0---0---0---0---0---0---|-0---0---0---0---0---0---0---0---|


A|-6----5----3----1----|-3----5----6----5----|-----2-------2-------2-------2---|-----2-------2-------2-------2---|
E|---------------------|---------------------|-----3-------3-------3-------3---|-----3-------3-------3-------3---|
C|-3----2----0---------|-0----2----3----2----|-2---2---2---2---2---2---2---2---|-2---2---2---2---2---2---2---2---|
G|---------------------|---------------------|-0---0---0---0---0---0---0---0---|-0---0---0---0---0---0---0---0---|


A|-3----5----6----5----|-8----6----10---8----|-----2-------2-------2-------2---|-----2-------2-------2-------2---|
E|---------------------|---------------------|-----3-------3-------3-------3---|-----3-------3-------3-------3---|
C|-0----2----3----2----|-5----3----7----5----|-2---2---2---2---2---2---2---2---|-2---2---2---2---2---2---2---2---|
G|---------------------|---------------------|-0---0---0---0---0---0---0---0---|-0---0---0---0---0---0---0---0---|


A|-----3-------3-------3-------3---|-----3-------3-------3-------3---|-----3-------3-------3-------3---|
E|-3---3---3---3---3---3---3---3---|-3---3---3---3---3---3---3---3---|-3---3---3---3---3---3---3---3---|
C|-0---0---0---0---0---0---0---0---|-0---0---0---0---0---0---0---0---|-0---0---0---0---0---0---0---0---|
G|-5---5---5---5---5---5---5---5---|-5---5---5---5---5---5---5---5---|-5---5---5---5---5---5---5---5---|


A|-----------9-------------------|-----3-------3-------3-------3---|-----3-------3-------3-------3---|
E|-10---11---7----10---8----10---|-3---3---3---3---3---3---3---3---|-3---3---3---3---3---3---3---3---|
C|-7----8---------7----5----7----|-0---0---0---0---0---0---0---0---|-0---0---0---0---0---0---0---0---|
G|-------------------------------|-5---5---5---5---5---5---5---5---|-5---5---5---5---5---5---5---5---|


A|-----3-------3-------3-------3---|-----------9-------------------|-----------9-------------------|
E|-3---3---3---3---3---3---3---3---|-10---11---7----10---8----10---|-10---11---7----10---8----10---|
C|-0---0---0---0---0---0---0---0---|-7----8---------7----5----7----|-7----8---------7----5----7----|
G|-5---5---5---5---5---5---5---5---|-------------------------------|-------------------------------|


A|-----------9-------------------|-----------9-------------------|-10----------|--------|
E|-10---11---7----10---8----10---|-10---11---7----10---8----10---|-8-----------|--------|
C|-7----8---------7----5----7----|-7----8---------7----5----7----|-------------|--------|
G|-------------------------------|-------------------------------|-------------|--------|


A|--------|--------|-3---5-------5---6-------6---8-------8---10------|-10----10--15---13--|
E|--------|--------|-------------------------------------------------|--------------------|
C|--------|--------|---------0-----------0-----------0-----------0---|--------------------|
G|--------|--------|-------------------------------------------------|--------------------|


A|-13--17---13--13---15--13--|-6---10--10----8---10--8---|-8-----6---8---6---6----|
E|---------------------------|---------------------------|------------------------|
C|---------------------------|---------------------------|------------------------|
G|---------------------------|---------------------------|------------------------|


A|-6----5---6---5---5-----|-5---6---5---5---10--10----|----------------------|----------------------|
E|------------------------|---------------------------|----------------------|----------------------|
C|------------------------|---------------------------|-0----3----7----10----|-0----3----7----10----|
G|------------------------|---------------------------|----------------------|----------------------|


A|----------------------|-5---1-------------------5---1-------------------|-5---1-------------------5---1-------------------|
E|----------------------|---------3-----------------------3---------------|---------3-----------------------3---------------|
C|-0----3----7----10----|-------------5---3---2---------------5---3---2---|-------------5---3---2---------------5---3---2---|
G|----------------------|-------------------------------------------------|-------------------------------------------------|


A|-3-----------|--------|--------|--------|--------|--------|--------|-------10--------|
E|-------------|--------|--------|--------|--------|--------|--------|-------11--------|
C|-0-----------|--------|--------|--------|--------|--------|--------|------------10---|
G|-------------|--------|--------|--------|--------|--------|--------|-----------------|


A|------10--------10---|------10--------10--8---|-10---10--------10---|------10--------10---|
E|------8---------8----|------8---------8---8---|-8----8---------8----|------8---------8----|
C|-0---------0---------|-0---------0------------|-----------0---------|-0---------0---------|
G|---------------------|------------------------|---------------------|---------------------|


A|------8---------8----|------8----8-------8-------|-2----2----2----2----|-2----2----2---2---2---2---|
E|-3----3----3----3----|-3----3----3---3---3---3---|-2----2----2----2----|-2----2----2---2---2---2---|
C|-2----2----2----2----|-2----2----2---2---2---2---|-3----3----3----3----|-3----3----3---3---3---3---|
G|-0----0----0----0----|-0----0----0---0---0---0---|-4----4----4----4----|-4----4----4---4---4---4---|


A|------8----8---6--------|-8----8---6--------10---|------8----8---6--------|-8----8---6-------------|
E|-------------------8----|--------------8----8----|-------------------8----|--------------8---------|
C|-0----------------------|------------------------|-0----------------------|-------------------0----|
G|------------------------|------------------------|------------------------|------------------------|


A|-2----2----2----2----|-2----2----2---2---2---2---|-2----2----2----2----|-2----2----2----2----|
E|-3----3----3----3----|-3----3----3---3---3---3---|-2----2----2----2----|-2----2----2----2----|
C|-2----2----2----2----|-2----2----2---2---2---2---|-3----3----3----3----|-3----3----3----3----|
G|-0----0----0----0----|-0----0----0---0---0---0---|-4----4----4----4----|-4----4----4----4----|


A|-3---------3---------|-3---------3---------|-3-----------|
E|-3---------3---------|-3---------3---------|-3-----------|
C|-3---------3---------|-3---------3---------|-3-----------|
G|-5---------5---------|-5---------5---------|-5-----------|





Track 3: Bass Arr. For Ukulele

A|---------------------|---------------------|---------------------|---------------------|
E|---------------------|---------------------|------8---------8----|------8--------------|
C|-0---------0---------|-0---------0----12---|-0---------0---------|-0---------0----12---|
G|---------------------|---------------------|---------------------|---------------------|


A|---------------------|---------------------|---------------------|---------------------|
E|------8---------8----|------8--------------|------8---------8----|------8--------------|
C|-0---------0---------|-0---------0----12---|-0---------0---------|-0---------0----12---|
G|---------------------|---------------------|---------------------|---------------------|


A|------------------------|----------------6----|---------------------|------------------------|
E|------8---------8-------|-----------6---------|------8---------8----|------8-----------------|
C|-0---------0--------0---|-5----7--------------|-0---------0---------|-0---------0----5---3---|
G|------------------------|---------------------|---------------------|------------------------|


A|---------------------|------------------------|---------------------|------------------------|
E|------8---------8----|------8-----------------|------8---------8----|------8-----------------|
C|-0---------0---------|-0---------0----5---3---|-0---------0---------|-0---------0----5---3---|
G|---------------------|------------------------|---------------------|------------------------|


A|------------------------|----------------6----|---------------------|---------------------|
E|------8---------8-------|-----------6---------|---------------------|---------------------|
C|-0---------0--------0---|-5----7--------------|-7----7----7----7----|-7----7----7----7----|
G|------------------------|---------------------|---------------------|---------------------|


A|---------------------|---------------------|---------------------|---------------------|
E|-7----7----7----7----|-7----6----7----7----|------8---------8----|------8--------------|
C|---------------------|---------------------|-0---------0---------|-0---------0----12---|
G|---------------------|---------------------|---------------------|---------------------|


A|------------------------|----------------6----|---------------------|------------------------|
E|------8---------8-------|-----------6---------|------8---------8----|------8-----------------|
C|-0---------0--------0---|-5----7--------------|-0---------0---------|-0---------0----5---3---|
G|------------------------|---------------------|---------------------|------------------------|


A|---------------------|------------------------|---------------------|------------------------|
E|------8---------8----|------8-----------------|------8---------8----|------8-----------------|
C|-0---------0---------|-0---------0----5---3---|-0---------0---------|-0---------0----5---3---|
G|---------------------|------------------------|---------------------|------------------------|


A|---------------------|---------------------|---------------------|---------------------|
E|------8---------8----|------8---------8----|---------------------|---------------------|
C|-0---------0---------|-0---------0---------|-7----7----7----7----|-7----7----7----7----|
G|---------------------|---------------------|---------------------|---------------------|


A|---------------------|---------------------|---------------------|---------------------|
E|-7----7----7----7----|-7----6----7----7----|------8---------8----|------8--------------|
C|---------------------|---------------------|-0---------0---------|-0---------0----12---|
G|---------------------|---------------------|---------------------|---------------------|


A|---------------------|---------------------|---------------------|---------------------|
E|------8---------8----|------8---------8----|---------------------|---------------------|
C|-0---------0---------|-0---------0---------|-7----7----7----7----|-7----7----7----7----|
G|---------------------|---------------------|---------------------|---------------------|


A|---------------------|---------------------|---------------------|---------------------|
E|-7----7----7----7----|-7----6----7----7----|------8---------8----|------8--------------|
C|---------------------|---------------------|-0---------0---------|-0---------0----12---|
G|---------------------|---------------------|---------------------|---------------------|


A|---------------------|---------------------|---------------------|---------------------|
E|------8---------8----|------8--------------|---------------------|---------------------|
C|-0---------0---------|-0---------0----12---|-0----2----3----2----|-5----3----7----5----|
G|---------------------|---------------------|---------------------|---------------------|


A|---------------------|---------------------|---------------------|---------------------|
E|---------------------|---------------------|---------------------|---------------------|
C|-7----7----7----7----|-7----7----7----7----|-0----2----3----2----|-5----3----7----5----|
G|---------------------|---------------------|---------------------|---------------------|


A|---------------------|---------------------|---------------------|------------------------------|
E|---------------------|---------------------|-8----8----6----6----|-8---6------------------------|
C|-7----7----7----7----|-7----7----7----7----|---------------------|---------7---5---7---5---3----|
G|---------------------|---------------------|---------------------|------------------------------|


A|---------------------|---------------------|-------------------------------------------------|
E|---------------------|---------------------|-8---8---8---8---8---8---10--10--10--10--10--10--|
C|-7----7----7----7----|-7----7----7----7----|-------------------------------------------------|
G|---------------------|---------------------|-------------------------------------------------|


A|-------------------------------------------------|---------------------|---------------------|
E|-11--11--11--11--11--11--13--13--13--13--13--13--|---------------------|---------------------|
C|-------------------------------------------------|-7----7----7----7----|-7----7----7----7----|
G|-------------------------------------------------|---------------------|---------------------|


A|---------------------|---------------------|------------------------|----------------6----|
E|------8---------8----|------8--------------|------8---------8-------|-----------6---------|
C|-0---------0---------|-0---------0----12---|-0---------0--------0---|-5----7--------------|
G|---------------------|---------------------|------------------------|---------------------|


A|---------------------|------------------------|---------------------|------------------------|
E|------8---------8----|------8-----------------|------8---------8----|------8-----------------|
C|-0---------0---------|-0---------0----5---3---|-0---------0---------|-0---------0----5---3---|
G|---------------------|------------------------|---------------------|------------------------|


A|---------------------|------------------------|---------------------|---------------------|
E|------8---------8----|------8-----------------|------8---------8----|-15---13---10---10---|
C|-0---------0---------|-0---------0----5---3---|-0---------0---------|---------------------|
G|---------------------|------------------------|---------------------|---------------------|


A|---------------------|---------------------|---------------------|---------------------|
E|---------------------|---------------------|-7----7----7----7----|-7----6----7----7----|
C|-7----7----7----7----|-7----7----7----7----|---------------------|---------------------|
G|---------------------|---------------------|---------------------|---------------------|


A|---------------------|---------------------|------------------------|----------------6----|
E|------8---------8----|------8--------------|------8---------8-------|-----------6---------|
C|-0---------0---------|-0---------0----12---|-0---------0--------0---|-5----7--------------|
G|---------------------|---------------------|------------------------|---------------------|


A|---------------------|------------------------|---------------------|------------------------|
E|------8---------8----|------8-----------------|------8---------8----|------8-----------------|
C|-0---------0---------|-0---------0----5---3---|-0---------0---------|-0---------0----5---3---|
G|---------------------|------------------------|---------------------|------------------------|


A|---------------------|------------------------|---------------------|-8----6----10---8----|
E|------8---------8----|------8-----------------|------8---------8----|---------------------|
C|-0---------0---------|-0---------0----5---3---|-0---------0---------|---------------------|
G|---------------------|------------------------|---------------------|---------------------|


A|---------------------|------10---8---------|---------------------|---------------------|
E|---------------------|----------------10---|-7----7----7----7----|-8----6--------------|
C|-7----7----7----7----|-7-------------------|---------------------|-----------7----5----|
G|---------------------|---------------------|---------------------|---------------------|


A|---------------------|---------------------|------------------------|----------------6----|
E|------8---------8----|------8--------------|------8---------8-------|-----------6---------|
C|-0---------0---------|-0---------0----12---|-0---------0--------0---|-5----7--------------|
G|---------------------|---------------------|------------------------|---------------------|


A|---------------------|---------------------|---------------------|---------------------|
E|---------------------|---------------------|-7----7----7----7----|-7----6----7----7----|
C|-7----7----7----7----|-7----7----7----7----|---------------------|---------------------|
G|---------------------|---------------------|---------------------|---------------------|


A|---------------------|---------------------|------------------------|----------------6----|
E|------8---------8----|------8--------------|------8---------8-------|-----------6---------|
C|-0---------0---------|-0---------0----12---|-0---------0--------0---|-5----7--------------|
G|---------------------|---------------------|------------------------|---------------------|


A|---------------------|---------------------|---------------------|---------------------|
E|---------------------|---------------------|---------------------|---------------------|
C|-0----2----3----2----|-5----3----7----5----|-7----7----7----7----|-7----7----7----7----|
G|---------------------|---------------------|---------------------|---------------------|


A|---------------------|---------------------|---------------------|---------------------|
E|---------------------|---------------------|---------------------|---------------------|
C|-0----2----3----2----|-5----3----7----5----|-7----7----7----7----|-7----7----7----7----|
G|---------------------|---------------------|---------------------|---------------------|


A|---------------------|------------------------------|---------------------|---------------------|
E|-8----8----6----6----|-8---6------------------------|---------------------|---------------------|
C|---------------------|---------7---5---7---5---3----|-7----7----7----7----|-7----7----7----7----|
G|---------------------|------------------------------|---------------------|---------------------|


A|-------------|-------------|---------------------|---------------------|-----------------------------------|
E|-8-----6-----|-------------|---------------------|---------------------|------8---8---8--------8---8---8---|
C|-------------|-7-----5-----|-7----7----7----7----|-7----7----7----7----|-0----------------0----------------|
G|-------------|-------------|---------------------|---------------------|-----------------------------------|


A|-----------------------------------|-----------------------------------|-------------------------------|
E|------8---8---8--------8---8---8---|------8---8---8--------8---8---8---|-----------7-------------------|
C|-0----------------0----------------|-0----------------0----------------|-7----8---------7----5----7----|
G|-----------------------------------|-----------------------------------|-------------------------------|


A|-----------------------------------|-----------------------------------|-----------------------------------|
E|------8---8---8--------8---8---8---|------8---8---8--------8---8---8---|------8---8---8--------8---8---8---|
C|-0----------------0----------------|-0----------------0----------------|-0----------------0----------------|
G|-----------------------------------|-----------------------------------|-----------------------------------|


A|-------------------------------|-------------------------------|-------------------------------|
E|-----------7-------------------|-----------7-------------------|-----------7-------------------|
C|-7----8---------7----5----7----|-7----8---------7----5----7----|-7----8---------7----5----7----|
G|-------------------------------|-------------------------------|-------------------------------|


A|-------------------------------|-------------------------------------|-------------------------------------|
E|-----------7-------------------|-6---8---8---8---8---8---8---8---8---|-6---8---8---8---8---8---8---8---8---|
C|-7----8---------7----5----7----|-------------------------------------|-------------------------------------|
G|-------------------------------|-------------------------------------|-------------------------------------|


A|---------------------6---8---8---8---8---|-----------------------------------------|
E|-6---8---8---8---8-----------------------|-6---8---8---8---8-----------------------|
C|-----------------------------------------|---------------------5---7---7---7---7---|
G|-----------------------------------------|-----------------------------------------|


A|-------------------------------------|-------------------------------------|---------------------6---8---8---8---8---|
E|-6---8---8---8---8---8---8---8---8---|-6---8---8---8---8---8---8---8---8---|-6---8---8---8---8-----------------------|
C|-------------------------------------|-------------------------------------|-----------------------------------------|
G|-------------------------------------|-------------------------------------|-----------------------------------------|


A|-----------------------------------------|-------------------------------------|
E|-6---8---8---8---8-----------------------|-6---8---8---8---8---8---8---8---8---|
C|---------------------5---7---7---7---7---|-------------------------------------|
G|-----------------------------------------|-------------------------------------|


A|-------------------------------------|-----------------------------------------|
E|-6---8---8---8---8---8---8---8---8---|-6---8---8---8---8---6---8---8---8---8---|
C|-------------------------------------|-----------------------------------------|
G|-------------------------------------|-----------------------------------------|


A|-------------6---8---8---------------------------|-------------------------------------|
E|-6---8---8---------------6---8---8---------------|-6---8---8---8---8---8---8---8---8---|
C|-------------------------------------5---7---7---|-------------------------------------|
G|-------------------------------------------------|-------------------------------------|


A|-------------------------------------|-------------6---8---8---------------------------|
E|-6---8---8---8---8---8---8---8---8---|-6---8---8---------------6---8---8---------------|
C|-------------------------------------|-------------------------------------5---7---7---|
G|-------------------------------------|-------------------------------------------------|


A|-------------6---8---8---------------------------|---------------------|---------------------|
E|-6---8---8---------------6---8---8---------------|------8---------8----|------8---------8----|
C|-------------------------------------5---7---7---|-0---------0---------|-0---------0---------|
G|-------------------------------------------------|---------------------|---------------------|


A|---------------------|---------------------|---------------------|---------------------|
E|------8---------8----|------8---------8----|------8---------8----|------8---------8----|
C|-0---------0---------|-0---------0---------|-0---------0---------|-0---------0---------|
G|---------------------|---------------------|---------------------|---------------------|


A|---------------------|---------------------|---------------------|---------------------|
E|------8---------8----|------8--------------|------8---------8----|------8---------8----|
C|-0---------0---------|-0---------0----12---|-0---------0---------|-0---------0---------|
G|---------------------|---------------------|---------------------|---------------------|


A|------------------------|----------------6----|---------------------|------10---8---------|
E|------8---------8-------|-----------6---------|---------------------|----------------10---|
C|-0---------0--------0---|-5----7--------------|-7----7----7----7----|-7-------------------|
G|------------------------|---------------------|---------------------|---------------------|


A|---------------------|---------------------|---------------------|---------------------|
E|-7----7----7----7----|-8----6--------------|------8---------8----|------8---------8----|
C|---------------------|-----------7----5----|-0---------0---------|-0---------0---------|
G|---------------------|---------------------|---------------------|---------------------|


A|---------------------|-8----6----10---8----|---------------------|---------------------|
E|------8---------8----|---------------------|---------------------|---------------------|
C|-0---------0---------|---------------------|-7----7----7----7----|-7----7----7----7----|
G|---------------------|---------------------|---------------------|---------------------|


A|---------------------|---------------------|---------------------|---------------------|
E|-7----7----7----7----|-7----7----7----7----|---------------------|---------------------|
C|---------------------|---------------------|-0---------0---------|-0---------0---------|
G|---------------------|---------------------|---------------------|---------------------|


A|-------------|
E|-------------|
C|-0-----------|
G|-------------|