Site menu:

    

Browse: 0-9 A B C D E F G H I J K L N O P Q R S T U V W X Y Z

queens of the stone age - mosquito song ukulele arrangement:



Title: Mosquito Song (Ukulele Arrangement)
Artist: 
Album: 
Author: Josh Homme, Nick Oliveri & Michael Melchiondo


Track 1: Guitar

A|---------8-------10-11-6--8------------|-----6---3---1-----------3---1---|---------8-------10-11-6--8------------|
E|-----8-------8---------------6--8--6---|-4-------4---3-------0---0---0---|-----8-------8---------------6--8--6---|
C|-5-------------------------------------|-------------3---0---------------|-5-------------------------------------|
G|---------------------------------------|---------------------------------|---------------------------------------|


A|-----6---3---1-----------3---1---|---------8-------10-11-6--8------------|-----6---3---1-----------3---1---|
E|-4-------4---3-------0---0---0---|-----8-------8---------------6--8--6---|-4-------4---3-------0---0---0---|
C|-------------3---0---------------|-5-------------------------------------|-------------3---0---------------|
G|---------------------------------|---------------------------------------|---------------------------------|


A|---------8-------10-11-6--8------------|-----6---3---1-----------3---1---|---------8-------10-11-6--8------------|
E|-----8-------8---------------6--8--6---|-4-------4---3-------0---0---0---|-----8-------8---------------6--8--6---|
C|-5-------------------------------------|-------------3---0---------------|-5-------------------------------------|
G|---------------------------------------|---------------------------------|---------------------------------------|


A|-----6---3---1-----------3---1---|---------8-------10-11-6--8------------|-----6---3---1-----------3---1---|
E|-4-------4---3-------0---0---0---|-----8-------8---------------6--8--6---|-4-------4---3-------0---0---0---|
C|-------------3---0---------------|-5-------------------------------------|-------------3---0---------------|
G|---------------------------------|---------------------------------------|---------------------------------|


A|---------8-------10-11-6--8------------|-----6---3---1-----------3---1---|---------8-------10-11-6--8------------|
E|-----8-------8---------------6--8--6---|-4-------4---3-------0---0---0---|-----8-------8---------------6--8--6---|
C|-5-------------------------------------|-------------3---0---------------|-5-------------------------------------|
G|---------------------------------------|---------------------------------|---------------------------------------|


A|-----6---3---1-----------3---1---|---------8-------10-11-6--8------------|-----6---3---1-----------3---1---|
E|-4-------4---3-------0---0---0---|-----8-------8---------------6--8--6---|-4-------4---3-------0---0---0---|
C|-------------3---0---------------|-5-------------------------------------|-------------3---0---------------|
G|---------------------------------|---------------------------------------|---------------------------------|


A|---------8-------10-11-6--8------------|-----6---3---1-----------3---1---|-13---13--13--13--13--13--13--|
E|-----8-------8---------------6--8--6---|-4-------4---3-------0---0---0---|-9----9---9---9---9---9---9---|
C|-5-------------------------------------|-------------3---0---------------|-10---10--10--10--10--10--10--|
G|---------------------------------------|---------------------------------|------------------------------|


A|-8--------11--10-11-6--8------------|-3----3---3---3---3-------3---|-8----8---8---8---8---8---8---|
E|-8----8-------------------6--8--6---|-0----0---0---0---0-------0---|-8----8---8---8---8---8---8---|
C|-5----------------------------------|-0----0---------------0---0---|-5----5---------------5---5---|
G|------------------------------------|-5----5---------------5-------|------------------------------|


A|-13---13--13--13--13--13--13--|-8----8---8---8---8---8---8---|-3------|-3------|
E|-9----9---9---9---9---13--9---|-8----8---8---8---8---8---8---|-0------|-0------|
C|-10---10--10--10--10--10--10--|-5----5---------------5---5---|-0------|-0------|
G|------------------------------|------------------------------|-5------|-5------|


A|---------8-------10-11-6--8------------|-----6---3---1-----------3---1---|---------8-------10-11-6--8------------|
E|-----8-------8---------------6--8--6---|-4-------4---3-------0---0---0---|-----8-------8---------------6--8--6---|
C|-5-------------------------------------|-------------3---0---------------|-5-------------------------------------|
G|---------------------------------------|---------------------------------|---------------------------------------|


A|-----6---3---1-----------3---1---|---------8-------10-11-6--8------------|-----6---3---1-----------3---1---|
E|-4-------4---3-------0---0---0---|-----8-------8---------------6--8--6---|-4-------4---3-------0---0---0---|
C|-------------3---0---------------|-5-------------------------------------|-------------3---0---------------|
G|---------------------------------|---------------------------------------|---------------------------------|


A|---------8-------10-11-6--8------------|-----6---3---1-----------3---1---|---------8-------10-11-6--8------------|
E|-----8-------8---------------6--8--6---|-4-------4---3-------0---0---0---|-----8-------8---------------6--8--6---|
C|-5-------------------------------------|-------------3---0---------------|-5-------------------------------------|
G|---------------------------------------|---------------------------------|---------------------------------------|


A|-----6---3---1-----------3---1---|---------8-------10-11-6--8------------|-----6---3---1-----------3---1---|
E|-4-------4---3-------0---0---0---|-----8-------8---------------6--8--6---|-4-------4---3-------0---0---0---|
C|-------------3---0---------------|-5-------------------------------------|-------------3---0---------------|
G|---------------------------------|---------------------------------------|---------------------------------|


A|---------8-------10-11-6--8------------|-----6---3---1-----------3---1---|---------8-------10-11-6--8------------|
E|-----8-------8---------------6--8--6---|-4-------4---3-------0---0---0---|-----8-------8---------------6--8--6---|
C|-5-------------------------------------|-------------3---0---------------|-5-------------------------------------|
G|---------------------------------------|---------------------------------|---------------------------------------|


A|-----6---3---1-----------3---1---|---------8-------10-11-6--8------------|-----6---3---1-----------3---1---|
E|-4-------4---3-------0---0---0---|-----8-------8---------------6--8--6---|-4-------4---3-------0---0---0---|
C|-------------3---0---------------|-5-------------------------------------|-------------3---0---------------|
G|---------------------------------|---------------------------------------|---------------------------------|


A|---------8-------10-11-6--8------------|-----6---3---1-----------3---1---|-13---13--13--13--13--13--13--|
E|-----8-------8---------------6--8--6---|-4-------4---3-------0---0---0---|-13---13--13--13--13--13--13--|
C|-5-------------------------------------|-------------3---0---------------|-10---10--10--10--10--10--10--|
G|---------------------------------------|---------------------------------|------------------------------|


A|-8--------11--10-11-6--8------------|-3----3---3---3---3-------3---|-8----8---8---8---8---8---8---|
E|-8----8-------------------6--8--6---|-0----0---0---0---0-------0---|-8----8---8---8---8---8---8---|
C|-5----------------------------------|-0----0---------------0---0---|-5----5---------------5---5---|
G|------------------------------------|-5----5---------------5-------|------------------------------|


A|-13---13--13--13--13--13--13--|-8----8---8---8---8---8---8---|-3------|-3------|
E|-13---13--13--13--13--13--13--|-8----8---8---8---8---8---8---|-0------|-0------|
C|-10---10--10--10--10--10--10--|-5----5---------------5---5---|-0------|-0------|
G|------------------------------|------------------------------|-5------|-5------|


A|--------|---------8---------------8-------|-----------8---------------8-------|-----5---11--5-------5---11--5---|
E|--------|-----8-------8-------8-------8---|-----7--8------8-------8-------8---|-----7-------7-------7-------7---|
C|--------|-5---8-------8---5---8-------8---|-5-------------8---5---8-------8---|-5---------------5---------------|
G|--------|---------------------------------|-----------------------------------|---------------------------------|


A|-----------11--5-------5---11--5---|-----5---11--5-------5---11--5---|-----------11--5-------5---11--5---|
E|-----6--7------7-------7-------7---|-----7-------7-------7-------7---|-----9--10-----7-------7-------7---|
C|-5-----------------5---------------|-7---------------7---------------|-7-----------------7---------------|
G|-----------------------------------|---------------------------------|-----------------------------------|


A|-----8---13--8-------8---13--8---|-----------13--8-------8---13--8---|-----11--15--11------11--15--11--|
E|-----9-------9-------9-------9---|-----12-13-----9-------9-------9---|-----13------13------13------13--|
C|-10--------------10--------------|-10----------------10--------------|-12--------------12--------------|
G|---------------------------------|-----------------------------------|---------------------------------|


A|-----------15--11------11--15--11--|-----15--20--15------15--20--15--|-----14-15-20--15------15--20--15--|
E|-----12-13-----13------13------13--|-----16------16------16------16--|---------------16------16------16--|
C|-12----------------12--------------|-12--------------12--------------|-12----------------12--------------|
G|-----------------------------------|---------------------------------|-----------------------------------|


A|-----14--20--14------14--20--14--|-----13-14-20--14------14--20--14--|---------23--20------23--20------23--20------|
E|-----15------15------15------15--|---------------15------15------15--|-----16----------20----------20----------20--|
C|-11--------------11--------------|-11----------------11--------------|-17------------------------------------------|
G|---------------------------------|-----------------------------------|---------------------------------------------|


A|-23-22-20----23-22-20----23-22-20----23-22-20-20-|-20-----|---------8-------10-11-6--8------------|
E|----------20----------20----------20----------21-|-21-----|-----8-------8---------------6--8--6---|
C|----------------------------------------------20-|-20-----|-5-------------------------------------|
G|----------------------------------------------16-|-16-----|---------------------------------------|


A|-----6---3---1-----------3---1---|---------8-------10-11-6--8------------|-----6---3---1-----------3---1---|
E|-4-------4---3-------0---0---0---|-----8-------8---------------6--8--6---|-4-------4---3-------0---0---0---|
C|-------------3---0---------------|-5-------------------------------------|-------------3---0---------------|
G|---------------------------------|---------------------------------------|---------------------------------|


A|---------8-------10-11-6--8------------|-----6---3---1-----------3---1---|---------8-------10-11-6--8------------|
E|-----8-------8---------------6--8--6---|-4-------4---3-------0---0---0---|-----8-------8---------------6--8--6---|
C|-5-------------------------------------|-------------3---0---------------|-5-------------------------------------|
G|---------------------------------------|---------------------------------|---------------------------------------|


A|-----6---3---1---3-----|---------8-------10-11-6--8------------|-----6---3---1-----------3---1---|
E|-4-------4---3---0-----|-----8-------8---------------6--8--6---|-4-------4---3-------0---0---0---|
C|-------------3---0-----|-5-------------------------------------|-------------3---0---------------|
G|-----------------5-----|---------------------------------------|---------------------------------|


A|---------8-------10-11-6--8------------|-----6---3---1-----------3---1---|---------8-------10-11-6--8------------|
E|-----8-------8---------------6--8--6---|-4-------4---3-------0---0---0---|-----8-------8---------------6--8--6---|
C|-5-------------------------------------|-------------3---0---------------|-5-------------------------------------|
G|---------------------------------------|---------------------------------|---------------------------------------|


A|-----6---3---1-----------3---1---|---------8-------10-11-6--8------------|-----6---3---1-----------3---1---|
E|-4-------4---3-------0---0---0---|-----8-------8---------------6--8--6---|-4-------4---3-------0---0---0---|
C|-------------3---0---------------|-5-------------------------------------|-------------3---0---------------|
G|---------------------------------|---------------------------------------|---------------------------------|


A|-8-------10------8-------15----|-16---15-----------------------|-------------------------|
E|-----8-------8-------8---------|-18---16-18-16-15--------------|-----------11-13-11------|
C|-------------------------------|------------------17-18--14----|---------------------10--|
G|-------------------------------|-------------------------------|-------------------------|


A|--------------------11--|-10--8---8---11--10--8---8---16--|-15--13--13--16--15--13--13--11--|
E|--------------------8---|-8---8---8---8---8---8---8---13--|-13--13--13--13--13--13--13--8---|
C|-12----8---7------------|---------------------------------|---------------------------------|
G|------------------------|---------------------------------|---------------------------------|


A|-10--8---8---11--10--8---8---16--|-15--13--15--16-----------11-10-|-8---11-8--10--13-10-11--15-11-13--16-13-|
E|-8---8---8---8---8---8---8---13--|-13--13--13--13--15-------------|-----------------------------------------|
C|---------------------------------|--------------------------------|-----------------------------------------|
G|---------------------------------|--------------------------------|-----------------------------------------|


A|-15--15-11-13--13-10-11--11-10------|-----11------13------15------16--|-----15------13------11-10---------|
E|-16--------15--------13--------12---|-13------15------16------18------|-16------15------12--------13-12---|
C|------------------------------------|---------------------------------|-----------------------------------|
G|------------------------------------|---------------------------------|-----------------------------------|


A|------------------|-----------------------|------------------|-6-----------10----11-10-|
E|------------------|-------6--7--8---------|------------6--8--|-------6--8--------------|
C|-5----------5--7--|-8-----------------4---|-5----------------|-------------------------|
G|------------------|-----------------------|------------------|-------------------------|


A|-8-----------|-----6---3---1-----------3---1---|---------8-------10-11-6--8------------|
E|-8-----------|-4-------4---3-------0---0---0---|-----8-------8---------------6--8--6---|
C|-8-----------|-------------3---0---------------|-5-------------------------------------|
G|-------------|---------------------------------|---------------------------------------|


A|-----6---3---1-----------3---1---|---------8-------10-11-6--8------------|-----6---3---1-----------3---1---|
E|-4-------4---3-------0---0---0---|-----8-------8---------------6--8--6---|-4-------4---3-------0---0---0---|
C|-------------3---0---------------|-5-------------------------------------|-------------3---0---------------|
G|---------------------------------|---------------------------------------|---------------------------------|


A|---------8-------10-11-6--8------------|-----6---3---1-----------3---1---|---------8-------10-11-6--8------------|
E|-----8-------8---------------6--8--6---|-4-------4---3-------0---0---0---|-----8-------8---------------6--8--6---|
C|-5-------------------------------------|-------------3---0---------------|-5-------------------------------------|
G|---------------------------------------|---------------------------------|---------------------------------------|


A|-----6---3---1-----------3---1---|---------8-------10-11-6--8------------|-----6---3---1-----------3---1---|
E|-4-------4---3-------0---0---0---|-----8-------8---------------6--8--6---|-4-------4---3-------0---0---0---|
C|-------------3---0---------------|-5-------------------------------------|-------------3---0---------------|
G|---------------------------------|---------------------------------------|---------------------------------|


A|---------8-------10-11-6--8------------|-----6---3---1-----------3---1---|---------8-------10-11-6--8------------|
E|-----8-------8---------------6--8--6---|-4-------4---3-------0---0---0---|-----8-------8---------------6--8--6---|
C|-5-------------------------------------|-------------3---0---------------|-5-------------------------------------|
G|---------------------------------------|---------------------------------|---------------------------------------|


A|-----6---3---1-----------3---1---|---------8-------10-11-6--8------------|-----6---3---1-----------3---1---|
E|-4-------4---3-------0---0---0---|-----8-------8---------------6--8--6---|-4-------4---3-------0---0---0---|
C|-------------3---0---------------|-5-------------------------------------|-------------3---0---------------|
G|---------------------------------|---------------------------------------|---------------------------------|


A|-13---13--13--13--13--13--13--|-8--------11--10-11-6--8------------|-3----3---3---3---3-------3---|
E|-13---13--13--13--13--13--13--|-8----8-------------------6--8--6---|-0----0---0---0---0-------0---|
C|-10---10--10--10--10--10--10--|-5----------------------------------|-0----0---------------0---0---|
G|------------------------------|------------------------------------|-5----5---------------5-------|


A|-8----8---8---8---8---8---8---|-13---13--13--13--13--13--13--|-8----8---8---8---8---8---8---|
E|-8----8---8---8---8---8---8---|-13---13--13--13--13--13--13--|-8----8---8---8---8---8---8---|
C|-5----5---------------5---5---|-10---10--10--10--10--10--10--|-5----5---------------5---5---|
G|------------------------------|------------------------------|------------------------------|


A|-3------|-3------|
E|-0------|-0------|
C|-0------|-0------|
G|-5------|-5------|





Track 2: Extra parts

A|--------|--------|--------|--------|--------|--------|--------|--------|--------|
E|--------|--------|--------|--------|--------|--------|--------|--------|--------|
C|--------|--------|--------|--------|--------|--------|--------|--------|--------|
G|--------|--------|--------|--------|--------|--------|--------|--------|--------|


A|--------|--------|--------|--------|--------|--------|--------|--------|--------|
E|--------|--------|--------|--------|--------|--------|--------|--------|--------|
C|--------|--------|--------|--------|--------|--------|--------|--------|--------|
G|--------|--------|--------|--------|--------|--------|--------|--------|--------|


A|--------|--------|--------|--------|--------|--------|--------|--------|--------|
E|--------|--------|--------|--------|--------|--------|--------|--------|--------|
C|--------|--------|--------|--------|--------|--------|--------|--------|--------|
G|--------|--------|--------|--------|--------|--------|--------|--------|--------|


A|--------|--------|--------|--------|--------|--------|--------|--------|--------|
E|--------|--------|--------|--------|--------|--------|--------|--------|--------|
C|--------|--------|--------|--------|--------|--------|--------|--------|--------|
G|--------|--------|--------|--------|--------|--------|--------|--------|--------|


A|--------|--------|--------|--------|--------|--------|--------|--------|--------|
E|--------|--------|--------|--------|--------|--------|--------|--------|--------|
C|--------|--------|--------|--------|--------|--------|--------|--------|--------|
G|--------|--------|--------|--------|--------|--------|--------|--------|--------|


A|--------|--------|--------|--------|--------|--------|--------|--------|--------|
E|--------|--------|--------|--------|--------|--------|--------|--------|--------|
C|--------|--------|--------|--------|--------|--------|--------|--------|--------|
G|--------|--------|--------|--------|--------|--------|--------|--------|--------|


A|--------|--------|--------|--------|--------|--------|--------|--------|--------|
E|--------|--------|--------|--------|--------|--------|--------|--------|--------|
C|--------|--------|--------|--------|--------|--------|--------|--------|--------|
G|--------|--------|--------|--------|--------|--------|--------|--------|--------|


A|--------|--------|--------|--------|--------|--------|--------|--------|--------|
E|--------|--------|--------|--------|--------|--------|--------|--------|--------|
C|--------|--------|--------|--------|--------|--------|--------|--------|--------|
G|--------|--------|--------|--------|--------|--------|--------|--------|--------|


A|--------|--------|-0------0---------|-3-----------3---------|-0------0---------|
E|--------|--------|-1------1---4--4--|-4-----0--0--0---------|-1------1---4--4--|
C|--------|--------|-5------5---0--0--|-0-----0--0--0-----0---|-5------5---0--0--|
G|--------|--------|------------------|-1-----------5---------|------------------|


A|-3-----------3---------|-0------0---------|-3-----------3---------|-0------0---------|
E|-4-----0--0--0---------|-1------1---4--4--|-4-----0--0--0---------|-1------1---4--4--|
C|-0-----0--0--0-----0---|-5------5---0--0--|-0-----0--0--0-----0---|-5------5---0--0--|
G|-1-----------5---------|------------------|-1-----------5---------|------------------|


A|-3---------3-----|-----0-------0-------0-------0---|-3-----3-----|-----0-------0-------0-------0---|
E|-4-----0---0-----|-----1-------1-------1-------1---|-4-----0-----|-----1-------1-------1-------1---|
C|-0-----0---0-----|-5-------0-------5-------0-------|-0-----0-----|-5-------0-------5-------0-------|
G|-1---------5-----|---------------------------------|-1-----5-----|---------------------------------|


A|-3-----3-----|-----0-------0-------0-------0---|-3-----3-----|-----0-------0-------0-------0---|
E|-4-----0-----|-----1-------1-------1-------1---|-4-----0-----|-----1-------1-------1-------1---|
C|-0-----0-----|-5-------0-------5-------0-------|-0-----0-----|-5-------0-------5-------0-------|
G|-1-----5-----|---------------------------------|-1-----5-----|---------------------------------|


A|-3-----3-----|---------8-------10-11-6--8------------|-----6---3---1-----------3---1---|
E|-4-----0-----|-----8-------8---------------6--8--6---|-4-------4---3-------0---0---0---|
C|-0-----0-----|-5-------------------------------------|-------------3---0---------------|
G|-1-----5-----|---------------------------------------|---------------------------------|


A|---------8-------10-11-6--8------------|-----6---3---1-----------3---1---|---------8-------10-11-6--8------------|
E|-----8-------8---------------6--8--6---|-4-------4---3-------0---0---0---|-----8-------8---------------6--8--6---|
C|-5-------------------------------------|-------------3---0---------------|-5-------------------------------------|
G|---------------------------------------|---------------------------------|---------------------------------------|


A|-----6---3---1-----------3---1---|---------8-------10-11-6--8------------|-----6---3---1-----------3---1---|
E|-4-------4---3-------0---0---0---|-----8-------8---------------6--8--6---|-4-------4---3-------0---0---0---|
C|-------------3---0---------------|-5-------------------------------------|-------------3---0---------------|
G|---------------------------------|---------------------------------------|---------------------------------|


A|---------8-------10-11-6--8------------|-----6---3---1-----------3---1---|---------8-------10-11-6--8------------|
E|-----8-------8---------------6--8--6---|-4-------4---3-------0---0---0---|-----8-------8---------------6--8--6---|
C|-5-------------------------------------|-------------3---0---------------|-5-------------------------------------|
G|---------------------------------------|---------------------------------|---------------------------------------|


A|-----6---3---1-----------3---1---|---------8-------10-11-6--8------------|-----6---3---1-----------3---1---|
E|-4-------4---3-------0---0---0---|-----8-------8---------------6--8--6---|-4-------4---3-------0---0---0---|
C|-------------3---0---------------|-5-------------------------------------|-------------3---0---------------|
G|---------------------------------|---------------------------------------|---------------------------------|


A|---------8-------10-11-6--8------------|-----6---3---1-----------3---1---|---------8-------10-11-6--8------------|
E|-----8-------8---------------6--8--6---|-4-------4---3-------0---0---0---|-----8-------8---------------6--8--6---|
C|-5-------------------------------------|-------------3---0---------------|-5-------------------------------------|
G|---------------------------------------|---------------------------------|---------------------------------------|


A|-----6---3---1-----------3---1---|--------|--------|--------|--------|--------|--------|
E|-4-------4---3-------0---0---0---|--------|--------|--------|--------|--------|--------|
C|-------------3---0---------------|--------|--------|--------|--------|--------|--------|
G|---------------------------------|--------|--------|--------|--------|--------|--------|


A|--------|--------|--------|--------|--------|--------|--------|--------|--------|
E|--------|--------|--------|--------|--------|--------|--------|--------|--------|
C|--------|--------|--------|--------|--------|--------|--------|--------|--------|
G|--------|--------|--------|--------|--------|--------|--------|--------|--------|


A|--------|--------|--------|--------|--------|--------|--------|--------|--------|
E|--------|--------|--------|--------|--------|--------|--------|--------|--------|
C|--------|--------|--------|--------|--------|--------|--------|--------|--------|
G|--------|--------|--------|--------|--------|--------|--------|--------|--------|





Track 3: Untitled

G|--------|--------|--------|--------|--------|--------|--------|--------|--------|
D|--------|--------|--------|--------|--------|--------|--------|--------|--------|
A|--------|--------|--------|--------|--------|--------|--------|--------|--------|
E|--------|--------|--------|--------|--------|--------|--------|--------|--------|


G|--------|--------|--------|--------|--------|--------|--------|--------|--------|
D|--------|--------|--------|--------|--------|--------|--------|--------|--------|
A|--------|--------|--------|--------|--------|--------|--------|--------|--------|
E|--------|--------|--------|--------|--------|--------|--------|--------|--------|


G|--------|--------|--------|--------|--------|--------|--------|--------|--------|
D|--------|--------|--------|--------|--------|--------|--------|--------|--------|
A|--------|--------|--------|--------|--------|--------|--------|--------|--------|
E|--------|--------|--------|--------|--------|--------|--------|--------|--------|


G|--------|--------|--------|--------|--------|--------|--------|--------|--------|
D|--------|--------|--------|--------|--------|--------|--------|--------|--------|
A|--------|--------|--------|--------|--------|--------|--------|--------|--------|
E|--------|--------|--------|--------|--------|--------|--------|--------|--------|


G|--------|--------|--------|--------|--------|--------|--------|--------|--------|
D|--------|--------|--------|--------|--------|--------|--------|--------|--------|
A|--------|--------|--------|--------|--------|--------|--------|--------|--------|
E|--------|--------|--------|--------|--------|--------|--------|--------|--------|


G|--------|--------|--------|--------|--------|--------|--------|--------|--------|
D|--------|--------|--------|--------|--------|--------|--------|--------|--------|
A|--------|--------|--------|--------|--------|--------|--------|--------|--------|
E|--------|--------|--------|--------|--------|--------|--------|--------|--------|


G|--------|--------|--------|--------|--------|--------|--------|--------|--------|
D|--------|--------|--------|--------|--------|--------|--------|--------|--------|
A|--------|--------|--------|--------|--------|--------|--------|--------|--------|
E|--------|--------|--------|--------|--------|--------|--------|--------|--------|


G|--------|--------|--------|--------|--------|--------|--------|--------|--------|
D|--------|--------|--------|--------|--------|--------|--------|--------|--------|
A|--------|--------|--------|--------|--------|--------|--------|--------|--------|
E|--------|--------|--------|--------|--------|--------|--------|--------|--------|


G|--------|--------|--------|--------|--------|--------|--------|--------|--------|
D|--------|--------|--------|--------|--------|--------|--------|--------|--------|
A|--------|--------|--------|--------|--------|--------|--------|--------|--------|
E|--------|--------|--------|--------|--------|--------|--------|--------|--------|


G|--------|--------|--------|--------|--------|--------|--------|--------|--------|
D|--------|--------|--------|--------|--------|--------|--------|--------|--------|
A|--------|--------|--------|--------|--------|--------|--------|--------|--------|
E|--------|--------|--------|--------|--------|--------|--------|--------|--------|


G|--------|--------|--------|--------|--------|--------|--------|--------|--------|
D|--------|--------|--------|--------|--------|--------|--------|--------|--------|
A|--------|--------|--------|--------|--------|--------|--------|--------|--------|
E|--------|--------|--------|--------|--------|--------|--------|--------|--------|


G|--------|--------|--------|--------|--------|--------|--------|--------|--------|
D|--------|--------|--------|--------|--------|--------|--------|--------|--------|
A|--------|--------|--------|--------|--------|--------|--------|--------|--------|
E|--------|--------|--------|--------|--------|--------|--------|--------|--------|


G|--------|--------|--------|--------|--------|--------|--------|--------|--------|
D|--------|--------|--------|--------|--------|--------|--------|--------|--------|
A|--------|--------|--------|--------|--------|--------|--------|--------|--------|
E|--------|--------|--------|--------|--------|--------|--------|--------|--------|


G|--------|--------|--------|--------|--------|--------|--------|--------|--------|
D|--------|--------|--------|--------|--------|--------|--------|--------|--------|
A|--------|--------|--------|--------|--------|--------|--------|--------|--------|
E|--------|--------|--------|--------|--------|--------|--------|--------|--------|


G|--------|--------|--------|--------|--------|--------|
D|--------|--------|--------|--------|--------|--------|
A|--------|--------|--------|--------|--------|--------|
E|--------|--------|--------|--------|--------|--------|