Site menu:

    

Browse: 0-9 A B C D E F G H I J K L N O P Q R S T U V W X Y Z

queens of the stone age - hangin tree:



Title: Hangin' Tree
Artist: 
Album: Songs for the Deaf
Author: Queens of the Stone Age


Track 1: Main Riff

E|--------|--------|-----------------------|---------------------------------|---------------------------------|
B|--------|--------|-----------------------|---------------------------------|---------------------------------|
G|--------|--------|-----------------------|---------------------------------|---------------------------------|
D|--------|--------|-----------------------|---------------------------------|---------------------------------|
A|--------|--------|-------3---0---0---3---|-0---0---3---0---5-------3---0---|-0---3---0---0---3---0---5-------|
E|--------|--------|-------5---5---5---5---|-5---5---5---5---5-------5---5---|-5---5---5---5---5---5---5-------|


E|---------------------------------|---------------------------------|---------------------------------|
B|---------------------------------|---------------------------------|---------------------------------|
G|---------------------------------|---------------------------------|---------------------------------|
D|---------------------------------|---------------------------------|---------------------------------|
A|-3---0---0---3---0---0---3---0---|-5-------3---0---0---3---0---0---|-3---0---5-------3---0---0---3---|
E|-5---5---5---5---5---5---5---5---|-5-------5---5---5---5---5---5---|-5---5---5-------5---5---5---5---|


E|---------------------------------|---------------------------------|---------------------------------|
B|---------------------------------|---------------------------------|---------------------------------|
G|---------------------------------|---------------------------------|---------------------------------|
D|---------------------------------|---------------------------------|---------------------------------|
A|-0---0---3---0---5-------3---0---|-0---3---0---0---3---0---5-------|-3---0---0---3---0---0---3---0---|
E|-5---5---5---5---5-------5---5---|-5---5---5---5---5---5---5-------|-5---5---5---5---5---5---5---5---|


E|---------------------------------|---------------------------------|---------------------------------|
B|---------------------------------|---------------------------------|---------------------------------|
G|---------------------------------|---------------------------------|---------------------------------|
D|---------------------------------|---------------------------------|---------------------------------|
A|-5-------3---0---0---3---0---0---|-3---0---5-------3---0---0---3---|-0---0---3---0---3---0---3---0---|
E|-5-------5---5---5---5---5---5---|-5---5---5-------5---5---5---5---|-5---5---5---5---5---5---5---5---|


E|---------------------------------|---------------------------------|---------------------------------|
B|---------------------------------|---------------------------------|---------------------------------|
G|---------------------------------|---------------------------------|---------------------------------|
D|---------------------------------|---------------------------------|---------------------------------|
A|-0---3---0---0---3---0---3---0---|-3---0---0---3---0---0---3---0---|-3---0---3---0---0---3---0---0---|
E|-5---5---5---5---5---5---5---5---|-5---5---5---5---5---5---5---5---|-5---5---5---5---5---5---5---5---|


E|---------------------------------|---------------------------------|---------------------------------|
B|---------------------------------|---------------------------------|---------------------------------|
G|---------------------------------|---------------------------------|---------------------------------|
D|---------------------------------|---------------------------------|---------------------------------|
A|-3---0---3---0---3---0---0---3---|-0---0---3---0---3---0---3---0---|-0---3---0---0---3---0---3---0---|
E|-5---5---5---5---1---1---1---1---|-1---1---1---1---1---1---1---1---|-1---1---1---1---1---1---1---1---|


E|---------------------------------|---------------------------------|---------------------------------|
B|---------------------------------|---------------------------------|---------------------------------|
G|---------------------------------|---------------------------------|---------------------------------|
D|---------------------------------|---------------------------------|---------------------------------|
A|-3---0---0---3---0---0---3---0---|-3---0---6---6---6---6---6---6---|-6---6---6---6---3---0---0---3---|
E|-0---0---0---0---0---0---0---0---|-0---0---7---7---7---7---7---7---|-7---7---7---7---5---5---5---5---|


E|---------------------------------|---------------------------------|---------------------------------|
B|---------------------------------|---------------------------------|---------------------------------|
G|---------------------------------|---------------------------------|---------------------------------|
D|---------------------------------|---------------------------------|---------------------------------|
A|-0---0---3---0---3---0---3---0---|-0---3---0---0---3---0---3---0---|-3---0---0---3---0---0---3---0---|
E|-5---5---5---5---5---5---5---5---|-5---5---5---5---5---5---5---5---|-5---5---5---5---5---5---5---5---|


E|---------------------------------|---------------------------------|---------------------------------|
B|---------------------------------|---------------------------------|---------------------------------|
G|---------------------------------|---------------------------------|---------------------------------|
D|---------------------------------|---------------------------------|---------------------------------|
A|-3---0---3---0---0---3---0---0---|-3---0---3---0---3---0---0---3---|-0---0---3---0---3---0---3---0---|
E|-5---5---5---5---5---5---5---5---|-5---5---5---5---1---1---1---1---|-1---1---1---1---1---1---1---1---|


E|---------------------------------|---------------------------------|---------------------------------|
B|---------------------------------|---------------------------------|---------------------------------|
G|---------------------------------|---------------------------------|---------------------------------|
D|---------------------------------|---------------------------------|---------------------------------|
A|-0---3---0---0---3---0---3---0---|-3---0---0---3---0---0---3---0---|-3---0---6---6---6---6---6---6---|
E|-1---1---1---1---1---1---1---1---|-0---0---0---0---0---0---0---0---|-0---0---7---7---7---7---7---7---|


E|---------------------------------|---------------------------------|---------------------------------|
B|---------------------------------|---------------------------------|---------------------------------|
G|---------------------------------|---------------------------------|---------------------------------|
D|---------------------------------|---------------------------------|---------------------------------|
A|-6---6---6---6---3---0---0---3---|-0---0---3---0---3---0---3---0---|-0---3---0---0---3---0---3---0---|
E|-7---7---7---7---5---5---5---5---|-5---5---5---5---5---5---5---5---|-5---5---5---5---5---5---5---5---|


E|---------------------------------|---------------------------------|---------------------------------|
B|---------------------------------|---------------------------------|---------------------------------|
G|---------------------------------|---------------------------------|---------------------------------|
D|-7---7---7---7---7---7---7---7---|-7---7---6---6---6---6---6---6---|-6---6---6---6---9---9---9---9---|
A|---------------------------------|---------------------------------|---------------------------------|
E|-8---8---8---8---8---8---8---8---|-8---8---7---7---7---7---7---7---|-7---7---7---7---10--10--10--10--|


E|---------------------------------|---------------------------------|---------------------------------|
B|---------------------------------|---------------------------------|---------------------------------|
G|---------------------------------|---------------------------------|---------------------------------|
D|-9---9---9---9---9---9---7---7---|-7---7---7---7---7---7---7---7---|-7---7---7---7---7---7---7---7---|
A|---------------------------------|---------------------------------|---------------------------------|
E|-10--10--10--10--10--10--9---9---|-9---9---9---9---9---9---9---9---|-8---8---8---8---8---8---8---8---|


E|---------------------------------|---------------------------------|---------------------------------|
B|---------------------------------|---------------------------------|---------------------------------|
G|---------------------------------|---------------------------------|---------------------------------|
D|-7---7---6---6---6---6---6---6---|-6---6---6---6---9---9---9---9---|-9---9---9---9---9---9---7---7---|
A|---------------------------------|---------------------------------|---------------------------------|
E|-8---8---7---7---7---7---7---7---|-7---7---7---7---10--10--10--10--|-10--10--10--10--10--10--9---9---|


E|---------------------------------|---------------------------------|---------------------------------|
B|---------------------------------|---------------------------------|---------------------------------|
G|---------------------------------|---------------------------------|---------------------------------|
D|-7---7---7---7---7---7---7---7---|-7---7---7---7---7---7---7---7---|-7---7---6---6---6---6---6---6---|
A|---------------------------------|---------------------------------|---------------------------------|
E|-9---9---9---9---9---9---9---9---|-8---8---8---8---8---8---8---8---|-8---8---7---7---7---7---7---7---|


E|---------------------------------|---------------------------------|---------------------------------|
B|---------------------------------|---------------------------------|---------------------------------|
G|---------------------------------|---------------------------------|---------------------------------|
D|-6---6---6---6---9---9---9---9---|-9---9---9---9---9---9---7---7---|-7---7---7---7---7---7---7---7---|
A|---------------------------------|---------------------------------|---------------------------------|
E|-7---7---7---7---10--10--10--10--|-10--10--10--10--10--10--9---9---|-9---9---9---9---9---9---9---9---|


E|---------------------------------|---------------------------------|---------------------------------|
B|---------------------------------|---------------------------------|---------------------------------|
G|---------------------------------|---------------------------------|---------------------------------|
D|-7---7---7---7---7---7---7---7---|-7---7---6---6---6---6---6---6---|-6---6---6---6---9---9---9---9---|
A|---------------------------------|---------------------------------|---------------------------------|
E|-8---8---8---8---8---8---8---8---|-8---8---7---7---7---7---7---7---|-7---7---7---7---10--10--10--10--|


E|---------------------------------|---------------------------------|---------------------------------|
B|---------------------------------|---------------------------------|---------------------------------|
G|---------------------------------|---------------------------------|---------------------------------|
D|-9---9---9---9---9---9---7---7---|-7---7---7---7---7---7---7---7---|-7---7---7---7---7---7---7---7---|
A|---------------------------------|---------------------------------|---------------------------------|
E|-10--10--10--10--10--10--9---9---|-9---9---9---9---9---9---9---9---|-8---8---8---8---8---8---8---8---|


E|---------------------------------|---------------------------------|---------------------------------|
B|---------------------------------|---------------------------------|---------------------------------|
G|---------------------------------|---------------------------------|---------------------------------|
D|-7---7---7---7---7---7---7---7---|-7---7---7---7-------------------|---------------------------------|
A|---------------------------------|-----------------6---6---6---6---|-6---6---6---6---6---6---6---6---|
E|-8---8---8---8---8---8---8---8---|-8---8---8---8---7---7---7---7---|-7---7---7---7---7---7---7---7---|


E|---------------------------------|---------------------------------|---------------------------------|
B|---------------------------------|---------------------------------|---------------------------------|
G|---------------------------------|---------------------------------|---------------------------------|
D|---------------------------------|---------------------------------|---------------------------------|
A|-6---6---6---6---6---6---6---6---|-3---0---0---3---0---0---3---0---|-5-------3---0---0---3---0---0---|
E|-7---7---7---7---7---7---7---7---|-5---5---5---5---5---5---5---5---|-5-------5---5---5---5---5---5---|


E|---------------------------------|---------------------------------|---------------------------------|
B|---------------------------------|---------------------------------|---------------------------------|
G|---------------------------------|---------------------------------|---------------------------------|
D|---------------------------------|---------------------------------|---------------------------------|
A|-3---0---5-------3---0---0---3---|-0---0---3---0---5-------3---0---|-0---3---0---0---3---0---5-------|
E|-5---5---5-------5---5---5---5---|-5---5---5---5---5-------5---5---|-5---5---5---5---5---5---5-------|


E|---------------------------------|---------------------------------|---------------------------------|
B|---------------------------------|---------------------------------|---------------------------------|
G|---------------------------------|---------------------------------|---------------------------------|
D|---------------------------------|---------------------------------|---------------------------------|
A|-3---0---0---3---0---0---3---0---|-3---0---3---0---0---3---0---0---|-3---0---3---0---3---0---0---3---|
E|-5---5---5---5---5---5---5---5---|-5---5---5---5---5---5---5---5---|-5---5---5---5---5---5---5---5---|


E|---------------------------------|---------------------------------|---------------------------------|
B|---------------------------------|---------------------------------|---------------------------------|
G|---------------------------------|---------------------------------|---------------------------------|
D|---------------------------------|---------------------------------|---------------------------------|
A|-0---0---3---0---3---0---3---0---|-0---3---0---0---3---0---3---0---|-3---0---0---3---0---0---3---0---|
E|-5---5---5---5---5---5---5---5---|-5---5---5---5---5---5---5---5---|-1---1---1---1---1---1---1---1---|


E|---------------------------------|---------------------------------|---------------------------------|
B|---------------------------------|---------------------------------|---------------------------------|
G|---------------------------------|---------------------------------|---------------------------------|
D|---------------------------------|---------------------------------|---------------------------------|
A|-3---0---3---0---0---3---0---0---|-3---0---3---0---3---0---0---3---|-0---0---3---0---3---0---6---6---|
E|-1---1---1---1---1---1---1---1---|-1---1---1---1---0---0---0---0---|-0---0---0---0---0---0---7---7---|


E|---------------------------------|---------------------------------|---------------------------------|
B|---------------------------------|---------------------------------|---------------------------------|
G|---------------------------------|---------------------------------|---------------------------------|
D|---------------------------------|---------------------------------|---------------------------------|
A|-6---6---6---6---6---6---6---6---|-3---0---0---3---0---0---3---0---|-3---0---3---0---0---3---0---0---|
E|-7---7---7---7---7---7---7---7---|-5---5---5---5---5---5---5---5---|-5---5---5---5---5---5---5---5---|


E|---------------------------------|---------------------------------|---------------------------------|
B|---------------------------------|---------------------------------|---------------------------------|
G|---------------------------------|---------------------------------|---------------------------------|
D|---------------------------------|---------------------------------|---------------------------------|
A|-3---0---3---0---3---0---0---3---|-0---0---3---0---3---0---3---0---|-0---3---0---0---3---0---3---0---|
E|-5---5---5---5---5---5---5---5---|-5---5---5---5---5---5---5---5---|-5---5---5---5---5---5---5---5---|


E|---------------------------------|---------------------------------|---------------------------------|
B|---------------------------------|---------------------------------|---------------------------------|
G|---------------------------------|---------------------------------|---------------------------------|
D|---------------------------------|---------------------------------|---------------------------------|
A|-3---0---0---3---0---0---3---0---|-3---0---3---0---0---3---0---0---|-3---0---3---0---3---0---0---3---|
E|-1---1---1---1---1---1---1---1---|-1---1---1---1---1---1---1---1---|-1---1---1---1---0---0---0---0---|


E|---------------------------------|---------------------------------|---------------------------------|
B|---------------------------------|---------------------------------|---------------------------------|
G|---------------------------------|---------------------------------|---------------------------------|
D|---------------------------------|---------------------------------|---------------------------------|
A|-0---0---3---0---3---0---6---6---|-6---6---6---6---6---6---6---6---|-3---0---0---3---0---0---3---0---|
E|-0---0---0---0---0---0---7---7---|-7---7---7---7---7---7---7---7---|-5---5---5---5---5---5---5---5---|


E|---------------------------------|---------------------------------|---------------------------------|
B|---------------------------------|---------------------------------|---------------------------------|
G|---------------------------------|---------------------------------|---------------------------------|
D|---------------------------------|-----------------7---7---7---7---|-7---7---7---7---7---7---6---6---|
A|-3---0---3---0---0---3---0---0---|-3---0---3---0-------------------|---------------------------------|
E|-5---5---5---5---5---5---5---5---|-5---5---5---5---8---8---8---8---|-8---8---8---8---8---8---7---7---|


E|---------------------------------|---------------------------------|---------------------------------|
B|---------------------------------|---------------------------------|---------------------------------|
G|---------------------------------|---------------------------------|---------------------------------|
D|-6---6---6---6---6---6---6---6---|-9---9---9---9---9---9---9---9---|-9---9---7---7---7---7---7---7---|
A|---------------------------------|---------------------------------|---------------------------------|
E|-7---7---7---7---7---7---7---7---|-10--10--10--10--10--10--10--10--|-10--10--9---9---9---9---9---9---|


E|---------------------------------|---------------------------------|---------------------------------|
B|---------------------------------|---------------------------------|---------------------------------|
G|---------------------------------|---------------------------------|---------------------------------|
D|-7---7---7---7---7---7---7---7---|-7---7---7---7---7---7---6---6---|-6---6---6---6---6---6---6---6---|
A|---------------------------------|---------------------------------|---------------------------------|
E|-9---9---9---9---8---8---8---8---|-8---8---8---8---8---8---7---7---|-7---7---7---7---7---7---7---7---|


E|---------------------------------|---------------------------------|---------------------------------|
B|---------------------------------|---------------------------------|---------------------------------|
G|---------------------------------|---------------------------------|---------------------------------|
D|-9---9---9---9---9---9---9---9---|-9---9---7---7---7---7---7---7---|-7---7---7---7---7---7---7---7---|
A|---------------------------------|---------------------------------|---------------------------------|
E|-10--10--10--10--10--10--10--10--|-10--10--9---9---9---9---9---9---|-9---9---9---9---8---8---8---8---|


E|---------------------------------|---------------------------------|---------------------------------|
B|---------------------------------|---------------------------------|---------------------------------|
G|---------------------------------|---------------------------------|---------------------------------|
D|-7---7---7---7---7---7---6---6---|-6---6---6---6---6---6---6---6---|-9---9---9---9---9---9---9---9---|
A|---------------------------------|---------------------------------|---------------------------------|
E|-8---8---8---8---8---8---7---7---|-7---7---7---7---7---7---7---7---|-10--10--10--10--10--10--10--10--|


E|---------------------------------|---------------------------------|---------------------------------|
B|---------------------------------|---------------------------------|---------------------------------|
G|---------------------------------|---------------------------------|---------------------------------|
D|-9---9---7---7---7---7---7---7---|-7---7---7---7---7---7---7---7---|-7---7---7---7---7---7---6---6---|
A|---------------------------------|---------------------------------|---------------------------------|
E|-10--10--9---9---9---9---9---9---|-9---9---9---9---8---8---8---8---|-8---8---8---8---8---8---7---7---|


E|---------------------------------|---------------------------------|---------------------------------|
B|---------------------------------|---------------------------------|---------------------------------|
G|---------------------------------|---------------------------------|---------------------------------|
D|-6---6---6---6---6---6---6---6---|-9---9---9---9---9---9---9---9---|-9---9---7---7---7---7---7---7---|
A|---------------------------------|---------------------------------|---------------------------------|
E|-7---7---7---7---7---7---7---7---|-10--10--10--10--10--10--10--10--|-10--10--9---9---9---9---9---9---|


E|---------------------------------|---------------------------------|---------------------------------|
B|---------------------------------|---------------------------------|---------------------------------|
G|---------------------------------|---------------------------------|---------------------------------|
D|-7---7---7---7---7---7---7---7---|-7---7---7---7---7---7---7---7---|-7---7---7---7---7---7---7---7---|
A|---------------------------------|---------------------------------|---------------------------------|
E|-9---9---9---9---8---8---8---8---|-8---8---8---8---8---8---8---8---|-8---8---8---8---8---8---8---8---|


E|---------------------------------|---------------------------------|---------------------------------|
B|---------------------------------|---------------------------------|---------------------------------|
G|---------------------------------|---------------------------------|---------------------------------|
D|---------------------------------|---------------------------------|---------------------------------|
A|-6---6---6---6---6---6---6---6---|-6---6---6---6---6---6---6---6---|-6---6---6---6---3---0---0---3---|
E|-7---7---7---7---7---7---7---7---|-7---7---7---7---7---7---7---7---|-7---7---7---7---5---5---5---5---|


E|---------------------------------|---------------------------------|---------------------------------|
B|---------------------------------|---------------------------------|---------------------------------|
G|---------------------------------|---------------------------------|---------------------------------|
D|---------------------------------|---------------------------------|---------------------------------|
A|-0---0---3---0---5-------3---0---|-0---3---0---0---3---0---5-------|-3---0---0---3---0---0---3---0---|
E|-5---5---5---5---5-------5---5---|-5---5---5---5---5---5---5-------|-5---5---5---5---5---5---5---5---|


E|---------------------------------|-----------------------|--------|--------|--------|
B|---------------------------------|-----------------------|--------|--------|--------|
G|---------------------------------|-----------------------|--------|--------|--------|
D|---------------------------------|-----------------------|--------|--------|--------|
A|-5-------3---0---0---3---0---0---|-3---0---5-------------|--------|--------|--------|
E|-5-------5---5---5---5---5---5---|-5---5---5-------------|--------|--------|--------|


E|--------|--------|--------|--------|--------|--------|-----------------|------------------------------|
B|--------|--------|--------|--------|--------|--------|-----------------|------------------------------|
G|--------|--------|--------|--------|--------|--------|-----------------|------------------------------|
D|--------|--------|--------|--------|--------|--------|-----------------|------------------------------|
A|--------|--------|--------|--------|--------|--------|-------7-----3---|-----5---7-------7-------7----|
E|--------|--------|--------|--------|--------|--------|-------5-----5---|-----5---5-------5-------5----|


E|------------------------------|---------------------------------|---------------------------------|
B|------------------------------|---------------------------------|---------------------------------|
G|------------------------------|---------------------------------|---------------------------------|
D|------------------------------|-7---7---7---7---7---7---7---7---|-7---7---6---6---6---6---6---6---|
A|-----3----5---7-------7-------|---------------------------------|---------------------------------|
E|-----5----5---5-------5-------|-8---8---8---8---8---8---8---8---|-8---8---7---7---7---7---7---7---|


E|---------------------------------|---------------------------------|---------------------------------|
B|---------------------------------|---------------------------------|---------------------------------|
G|---------------------------------|---------------------------------|---------------------------------|
D|-6---6---6---6---9---9---9---9---|-9---9---9---9---9---9---7---7---|-7---7---7---7---7---7---7---7---|
A|---------------------------------|---------------------------------|---------------------------------|
E|-7---7---7---7---10--10--10--10--|-10--10--10--10--10--10--9---9---|-9---9---9---9---9---9---9---9---|


E|---------------------------------|---------------------------------|---------------------------------|
B|---------------------------------|---------------------------------|---------------------------------|
G|---------------------------------|---------------------------------|---------------------------------|
D|-7---7---7---7---7---7---7---7---|-7---7---6---6---6---6---6---6---|-6---6---6---6---9---9---9---9---|
A|---------------------------------|---------------------------------|---------------------------------|
E|-8---8---8---8---8---8---8---8---|-8---8---7---7---7---7---7---7---|-7---7---7---7---10--10--10--10--|


E|---------------------------------|---------------------------------|---------------------------------|
B|---------------------------------|---------------------------------|---------------------------------|
G|---------------------------------|---------------------------------|---------------------------------|
D|-9---9---9---9---9---9---7---7---|-7---7---7---7---7---7---7---7---|-7---7---7---7---7---7---7---7---|
A|---------------------------------|---------------------------------|---------------------------------|
E|-10--10--10--10--10--10--9---9---|-9---9---9---9---9---9---9---9---|-8---8---8---8---8---8---8---8---|


E|---------------------------------|---------------------------------|---------------------------------|
B|---------------------------------|---------------------------------|---------------------------------|
G|---------------------------------|---------------------------------|---------------------------------|
D|-7---7---6---6---6---6---6---6---|-6---6---6---6---9---9---9---9---|-9---9---9---9---9---9---7---7---|
A|---------------------------------|---------------------------------|---------------------------------|
E|-8---8---7---7---7---7---7---7---|-7---7---7---7---10--10--10--10--|-10--10--10--10--10--10--9---9---|


E|---------------------------------|---------------------------------|---------------------------------|
B|---------------------------------|---------------------------------|---------------------------------|
G|---------------------------------|---------------------------------|---------------------------------|
D|-7---7---7---7---7---7---7---7---|-7---7---7---7---7---7---7---7---|-7---7---6---6---6---6---6---6---|
A|---------------------------------|---------------------------------|---------------------------------|
E|-9---9---9---9---9---9---9---9---|-8---8---8---8---8---8---8---8---|-8---8---7---7---7---7---7---7---|


E|---------------------------------|---------------------------------|---------------------------------|
B|---------------------------------|---------------------------------|---------------------------------|
G|---------------------------------|---------------------------------|---------------------------------|
D|-6---6---6---6---9---9---9---9---|-9---9---9---9---9---9---7---7---|-7---7---7---7---7---7---7---7---|
A|---------------------------------|---------------------------------|---------------------------------|
E|-7---7---7---7---10--10--10--10--|-10--10--10--10--10--10--9---9---|-9---9---9---9---9---9---9---9---|


E|---------------------------------|---------------------------------|---------------------------------|
B|---------------------------------|---------------------------------|---------------------------------|
G|---------------------------------|---------------------------------|---------------------------------|
D|-7---7---7---7---7---7---7---7---|-7---7---7---7---7---7---7---7---|-7---7---7---7-------------------|
A|---------------------------------|---------------------------------|-----------------6---6---6---6---|
E|-8---8---8---8---8---8---8---8---|-8---8---8---8---8---8---8---8---|-8---8---8---8---7---7---7---7---|


E|---------------------------------|---------------------------------|-----------------------|
B|---------------------------------|---------------------------------|-----------------------|
G|---------------------------------|---------------------------------|-----------------------|
D|---------------------------------|---------------------------------|-----------------------|
A|-6---6---6---6---6---6---6---6---|-6---6---6---6---6---6---6---6---|-------3---0---0---3---|
E|-7---7---7---7---7---7---7---7---|-7---7---7---7---7---7---7---7---|-------5---5---5---5---|


E|---------------------------------|---------------------------------|---------------------------------|
B|---------------------------------|---------------------------------|---------------------------------|
G|---------------------------------|---------------------------------|---------------------------------|
D|---------------------------------|---------------------------------|---------------------------------|
A|-0---0---3---0---5-------3---0---|-0---3---0---0---3---0---5-------|-3---0---0---3---0---0---3---0---|
E|-5---5---5---5---5-------5---5---|-5---5---5---5---5---5---5-------|-5---5---5---5---5---5---5---5---|


E|---------------------------------|-----------------------|
B|---------------------------------|-----------------------|
G|---------------------------------|-----------------------|
D|---------------------------------|-----------------------|
A|-5-------3---0---0---3---0---0---|-3---0---5-------------|
E|-5-------5---5---5---5---5---5---|-5---5---5-------------|





Track 2: Main Riff

E|--------|--------|-------------|--------|--------|--------|--------|--------|--------|
B|--------|--------|-------------|--------|--------|--------|--------|--------|--------|
G|--------|--------|-------------|--------|--------|--------|--------|--------|--------|
D|--------|--------|-------------|--------|--------|--------|--------|--------|--------|
A|--------|--------|-------------|--------|--------|--------|--------|--------|--------|
E|--------|--------|-------------|--------|--------|--------|--------|--------|--------|


E|--------|--------|--------|--------|--------|--------|--------|--------|--------|
B|--------|--------|--------|--------|--------|--------|--------|--------|--------|
G|--------|--------|--------|--------|--------|--------|--------|--------|--------|
D|--------|--------|--------|--------|--------|--------|--------|--------|--------|
A|--------|--------|--------|--------|--------|--------|--------|--------|--------|
E|--------|--------|--------|--------|--------|--------|--------|--------|--------|


E|--------|--------|--------|--------|--------|--------|--------|--------|--------|
B|--------|--------|--------|--------|--------|--------|--------|--------|--------|
G|--------|--------|--------|--------|--------|--------|--------|--------|--------|
D|--------|--------|--------|--------|--------|--------|--------|--------|--------|
A|--------|--------|--------|--------|--------|--------|--------|--------|--------|
E|--------|--------|--------|--------|--------|--------|--------|--------|--------|


E|--------|--------|--------|--------|--------|--------|--------|--------|--------|
B|--------|--------|--------|--------|--------|--------|--------|--------|--------|
G|--------|--------|--------|--------|--------|--------|--------|--------|--------|
D|--------|--------|--------|--------|--------|--------|--------|--------|--------|
A|--------|--------|--------|--------|--------|--------|--------|--------|--------|
E|--------|--------|--------|--------|--------|--------|--------|--------|--------|


E|--------|--------|--------|--------|--------|--------|--------|--------|--------|
B|--------|--------|--------|--------|--------|--------|--------|--------|--------|
G|--------|--------|--------|--------|--------|--------|--------|--------|--------|
D|--------|--------|--------|--------|--------|--------|--------|--------|--------|
A|--------|--------|--------|--------|--------|--------|--------|--------|--------|
E|--------|--------|--------|--------|--------|--------|--------|--------|--------|


E|--------|--------|--------|--------|--------|--------|--------|--------|--------|
B|--------|--------|--------|--------|--------|--------|--------|--------|--------|
G|--------|--------|--------|--------|--------|--------|--------|--------|--------|
D|--------|--------|--------|--------|--------|--------|--------|--------|--------|
A|--------|--------|--------|--------|--------|--------|--------|--------|--------|
E|--------|--------|--------|--------|--------|--------|--------|--------|--------|


E|--------|--------|--------|--------|--------|--------|--------|--------|--------|
B|--------|--------|--------|--------|--------|--------|--------|--------|--------|
G|--------|--------|--------|--------|--------|--------|--------|--------|--------|
D|--------|--------|--------|--------|--------|--------|--------|--------|--------|
A|--------|--------|--------|--------|--------|--------|--------|--------|--------|
E|--------|--------|--------|--------|--------|--------|--------|--------|--------|


E|--------|--------|--------|--------|--------|--------|--------|--------|--------|
B|--------|--------|--------|--------|--------|--------|--------|--------|--------|
G|--------|--------|--------|--------|--------|--------|--------|--------|--------|
D|--------|--------|--------|--------|--------|--------|--------|--------|--------|
A|--------|--------|--------|--------|--------|--------|--------|--------|--------|
E|--------|--------|--------|--------|--------|--------|--------|--------|--------|


E|--------|--------|--------|--------|--------|--------|--------|--------|--------|
B|--------|--------|--------|--------|--------|--------|--------|--------|--------|
G|--------|--------|--------|--------|--------|--------|--------|--------|--------|
D|--------|--------|--------|--------|--------|--------|--------|--------|--------|
A|--------|--------|--------|--------|--------|--------|--------|--------|--------|
E|--------|--------|--------|--------|--------|--------|--------|--------|--------|


E|--------|--------|--------|--------|--------|--------|--------|--------|--------|
B|--------|--------|--------|--------|--------|--------|--------|--------|--------|
G|--------|--------|--------|--------|--------|--------|--------|--------|--------|
D|--------|--------|--------|--------|--------|--------|--------|--------|--------|
A|--------|--------|--------|--------|--------|--------|--------|--------|--------|
E|--------|--------|--------|--------|--------|--------|--------|--------|--------|


E|--------|--------|--------|--------|--------|--------|--------|--------|--------|
B|--------|--------|--------|--------|--------|--------|--------|--------|--------|
G|--------|--------|--------|--------|--------|--------|--------|--------|--------|
D|--------|--------|--------|--------|--------|--------|--------|--------|--------|
A|--------|--------|--------|--------|--------|--------|--------|--------|--------|
E|--------|--------|--------|--------|--------|--------|--------|--------|--------|


E|--------|--------|--------|--------|--------|--------|--------|--------|--------|
B|--------|--------|--------|--------|--------|--------|--------|--------|--------|
G|--------|--------|--------|--------|--------|--------|--------|--------|--------|
D|--------|--------|--------|--------|--------|--------|--------|--------|--------|
A|--------|--------|--------|--------|--------|--------|--------|--------|--------|
E|--------|--------|--------|--------|--------|--------|--------|--------|--------|


E|--------|--------|--------|--------|--------|--------|--------|--------|--------|
B|--------|--------|--------|--------|--------|--------|--------|--------|--------|
G|--------|--------|--------|--------|--------|--------|--------|--------|--------|
D|--------|--------|--------|--------|--------|--------|--------|--------|--------|
A|--------|--------|--------|--------|--------|--------|--------|--------|--------|
E|--------|--------|--------|--------|--------|--------|--------|--------|--------|


E|--------|--------|--------|--------|--------|--------|--------|--------|--------|
B|--------|--------|--------|--------|--------|--------|--------|--------|--------|
G|--------|--------|--------|--------|--------|--------|--------|--------|--------|
D|--------|--------|--------|--------|--------|--------|--------|--------|--------|
A|--------|--------|--------|--------|--------|--------|--------|--------|--------|
E|--------|--------|--------|--------|--------|--------|--------|--------|--------|


E|--------|--------|--------|--------|--------|--------|--------|--------|--------|
B|--------|--------|--------|--------|--------|--------|--------|--------|--------|
G|--------|--------|--------|--------|--------|--------|--------|--------|--------|
D|--------|--------|--------|--------|--------|--------|--------|--------|--------|
A|--------|--------|--------|--------|--------|--------|--------|--------|--------|
E|--------|--------|--------|--------|--------|--------|--------|--------|--------|


E|--------|--------|--------|--------|--------|--------|--------|--------|--------|
B|--------|--------|--------|--------|--------|--------|--------|--------|--------|
G|--------|--------|--------|--------|--------|--------|--------|--------|--------|
D|--------|--------|--------|--------|--------|--------|--------|--------|--------|
A|--------|--------|--------|--------|--------|--------|--------|--------|--------|
E|--------|--------|--------|--------|--------|--------|--------|--------|--------|


E|--------|--------|--------|--------|--------|--------|--------|--------|--------|
B|--------|--------|--------|--------|--------|--------|--------|--------|--------|
G|--------|--------|--------|--------|--------|--------|--------|--------|--------|
D|--------|--------|--------|--------|--------|--------|--------|--------|--------|
A|--------|--------|--------|--------|--------|--------|--------|--------|--------|
E|--------|--------|--------|--------|--------|--------|--------|--------|--------|


E|--------|--------|--------|--------|--------|--------|--------|--------|
B|--------|--------|--------|--------|--------|--------|--------|--------|
G|--------|--------|--------|--------|--------|--------|--------|--------|
D|--------|--------|--------|--------|--------|--------|--------|--------|
A|--------|--------|--------|--------|--------|--------|--------|--------|
E|--------|--------|--------|--------|--------|--------|--------|--------|





Track 3: With pitch effect

E|--------|--------|--------|-------------|--------5----|-17-----|-5---17--5---17--5-----|
B|--------|--------|--------|-------------|-------------|--------|-----------------------|
G|--------|--------|--------|-------------|-------------|--------|-----------------------|
D|--------|--------|--------|-------------|-------------|--------|-----------------------|
A|--------|--------|--------|-------------|-------------|--------|-----------------------|
E|--------|--------|--------|-------------|-------------|--------|-----------------------|


E|------17---5-----|-------5----17--5---|------------5---|-5------|-5----5------|------8--------------|
B|-----------------|--------------------|----------------|--------|-------------|---------------------|
G|-----------------|--------------------|----------------|--------|-------------|-----------8---9-----|
D|-----------------|--------------------|----------------|--------|-------------|---------------------|
A|-----------------|--------------------|----------------|--------|-------------|---------------------|
E|-----------------|--------------------|----------------|--------|-------------|---------------------|


E|--------------------|-------------|------------|----------------|---------------------|
B|--------------------|-------------|------------|----------------|---------------------|
G|-----------9---9----|--------9----|-9---12-----|-----12--12-----|------12---12--14----|
D|--------------------|-------------|------------|----------------|---------------------|
A|--------------------|-------------|------------|----------------|---------------------|
E|--------------------|-------------|------------|----------------|---------------------|


E|--------------------|-------------|--------|-------------|---------------------|
B|--------------------|-------------|--------|-------------|---------------------|
G|-----------14--14---|--------14---|-14-----|-14---8------|------8----8---9-----|
D|--------------------|-------------|--------|-------------|---------------------|
A|--------------------|-------------|--------|-------------|---------------------|
E|--------------------|-------------|--------|-------------|---------------------|


E|--------------------|-------------|------------|----------------|---------------------|
B|--------------------|-------------|------------|----------------|---------------------|
G|-----------9---9----|--------9----|-9---12-----|-----12--12-----|------12---12--14----|
D|--------------------|-------------|------------|----------------|---------------------|
A|--------------------|-------------|------------|----------------|---------------------|
E|--------------------|-------------|------------|----------------|---------------------|


E|--------------------|-------------|--------|-------------|-----------5-----|-------5----5----|
B|--------------------|-------------|--------|-------------|-----------------|-----------------|
G|-----------14--14---|--------14---|-14-----|-14---8------|------8----------|-----------------|
D|--------------------|-------------|--------|-------------|-----------------|-----------------|
A|--------------------|-------------|--------|-------------|-----------------|-----------------|
E|--------------------|-------------|--------|-------------|-----------------|-----------------|


E|--------5----|--------|-----------------|---------------------|-----------------------|
B|-------------|--------|-----------------|---------------------|-----------------------|
G|-------------|--------|-----------------|---------------------|-----------------------|
D|-------------|-10-----|-10---10--9------|-------9---9---12----|-----------12--12--11--|
A|-------------|--------|-----------------|---------------------|-----------------------|
E|-------------|--------|-----------------|---------------------|-----------------------|


E|----------------|--------|-----------------|---------------------|-----------------------|
B|----------------|--------|-----------------|---------------------|-----------------------|
G|----------------|--------|-----------------|---------------------|-----------------------|
D|------------11--|-10-----|-10---10--9------|-------9---9---12----|-----------12--12--11--|
A|----------------|--------|-----------------|---------------------|-----------------------|
E|----------------|--------|-----------------|---------------------|-----------------------|


E|----------------|--------|-----------------|---------------------|-----------------------|
B|----------------|--------|-----------------|---------------------|-----------------------|
G|----------------|--------|-----------------|---------------------|-----------------------|
D|------------11--|-10-----|-10---10--9------|-------9---9---12----|-----------12--12--11--|
A|----------------|--------|-----------------|---------------------|-----------------------|
E|----------------|--------|-----------------|---------------------|-----------------------|


E|----------------|--------|-----------------|---------------------|-----------------------|
B|----------------|--------|-----------------|---------------------|-----------------------|
G|----------------|--------|-----------------|---------------------|-----------------------|
D|------------11--|-10-----|-10---10--9------|-------9---9---12----|-----------12--12--11--|
A|----------------|--------|-----------------|---------------------|-----------------------|
E|----------------|--------|-----------------|---------------------|-----------------------|


E|----------------|--------|-------------|--------------------|-----------------|-------------|
B|----------------|--------|-------------|--------------------|-----------------|-------------|
G|----------------|--------|-------------|--------------------|-----------------|-------------|
D|------------11--|-10-----|-10---10-----|------10---10-13----|-------13---13---|--------13---|
A|----------------|--------|-------------|--------------------|-----------------|-------------|
E|----------------|--------|-------------|--------------------|-----------------|-------------|


E|-5------|-5----5------|------5----5-----|-------5----5----|--------5----|------------|
B|--------|-------------|-----------------|-----------------|-------------|------------|
G|--------|-------------|-----------------|-----------------|-------------|-8---9------|
D|--------|-------------|-----------------|-----------------|-------------|------------|
A|--------|-------------|-----------------|-----------------|-------------|------------|
E|--------|-------------|-----------------|-----------------|-------------|------------|


E|----------------|---------------------|--------------------|-------------|------------|
B|----------------|---------------------|--------------------|-------------|------------|
G|-----9---9------|------9----9---12----|-----------12--12---|--------12---|-12--14-----|
D|----------------|---------------------|--------------------|-------------|------------|
A|----------------|---------------------|--------------------|-------------|------------|
E|----------------|---------------------|--------------------|-------------|------------|


E|----------------|-----------------|-----------------|-------------|------------|
B|----------------|-----------------|-----------------|-------------|------------|
G|-----14--14-----|------14---14----|-------14---8----|--------8----|-8---9------|
D|----------------|-----------------|-----------------|-------------|------------|
A|----------------|-----------------|-----------------|-------------|------------|
E|----------------|-----------------|-----------------|-------------|------------|


E|----------------|---------------------|--------------------|-------------|------------|
B|----------------|---------------------|--------------------|-------------|------------|
G|-----9---9------|------9----9---12----|-----------12--12---|--------12---|-12--14-----|
D|----------------|---------------------|--------------------|-------------|------------|
A|----------------|---------------------|--------------------|-------------|------------|
E|----------------|---------------------|--------------------|-------------|------------|


E|----------------|-----------------|-----------------|-------------|-5------|-5----5------|
B|----------------|-----------------|-----------------|-------------|--------|-------------|
G|-----14--14-----|------14---14----|-------14---8----|--------8----|--------|-------------|
D|----------------|-----------------|-----------------|-------------|--------|-------------|
A|----------------|-----------------|-----------------|-------------|--------|-------------|
E|----------------|-----------------|-----------------|-------------|--------|-------------|


E|------5----------|--------------------|----------------|------------|--------------------|
B|-----------------|--------------------|----------------|------------|--------------------|
G|-----------------|--------------------|----------------|------------|--------------------|
D|-----------10----|-------10---10--9---|------------9---|-9---12-----|-----12--12--11-----|
A|-----------------|--------------------|----------------|------------|--------------------|
E|-----------------|--------------------|----------------|------------|--------------------|


E|-----------------|--------------------|----------------|------------|--------------------|
B|-----------------|--------------------|----------------|------------|--------------------|
G|-----------------|--------------------|----------------|------------|--------------------|
D|-------11--10----|-------10---10--9---|------------9---|-9---12-----|-----12--12--11-----|
A|-----------------|--------------------|----------------|------------|--------------------|
E|-----------------|--------------------|----------------|------------|--------------------|


E|-----------------|--------------------|----------------|------------|--------------------|
B|-----------------|--------------------|----------------|------------|--------------------|
G|-----------------|--------------------|----------------|------------|--------------------|
D|-------11--10----|-------10---10--9---|------------9---|-9---12-----|-----12--12--11-----|
A|-----------------|--------------------|----------------|------------|--------------------|
E|-----------------|--------------------|----------------|------------|--------------------|


E|-----------------|--------------------|----------------|------------|--------------------|
B|-----------------|--------------------|----------------|------------|--------------------|
G|-----------------|--------------------|----------------|------------|--------------------|
D|-------11--10----|-------10---10--9---|------------9---|-9---12-----|-----12--12--11-----|
A|-----------------|--------------------|----------------|------------|--------------------|
E|-----------------|--------------------|----------------|------------|--------------------|


E|-----------------|-----------------|----------------|--------|-------------|-----------5-----|
B|-----------------|-----------------|----------------|--------|-------------|-----------------|
G|-----------------|-----------------|----------------|--------|-------------|-----------------|
D|-------11--10----|-------10---10---|--------10---10-|-13-----|-13---13-----|------13---------|
A|-----------------|-----------------|----------------|--------|-------------|-----------------|
E|-----------------|-----------------|----------------|--------|-------------|-----------------|


E|-------5----5----|--------5----|-5------|-5----5------|------5----10----8---|-8----------------------|
B|-----------------|-------------|--------|-------------|---------------------|------10--10--8----10---|
G|-----------------|-------------|--------|-------------|---------------------|------------------------|
D|-----------------|-------------|--------|-------------|---------------------|------------------------|
A|-----------------|-------------|--------|-------------|---------------------|------------------------|
E|-----------------|-------------|--------|-------------|---------------------|------------------------|


E|-----------------|---------------------|-----------------|-------9-----8---|-8----------------------|
B|-10----10---10---|---------------------|-----------------|-----------------|------10--10--8----10---|
G|-----------------|-8-----7---7---------|-----------------|-----------------|------------------------|
D|-----------------|----------------7----|-5----7----7-----|-7---------------|------------------------|
A|-----------------|---------------------|-----------------|-----------------|------------------------|
E|-----------------|---------------------|-----------------|-----------------|------------------------|


E|-----------------|---------------------|-----------------|-------------|-----------------|
B|-10----10---10---|---------------------|-----------------|-------14----|-------14---14---|
G|-----------------|-8-----7---7---------|-----------------|-------------|-----------------|
D|-----------------|----------------7----|-5----7----7-----|-7-----------|-----------------|
A|-----------------|---------------------|-----------------|-------------|-----------------|
E|-----------------|---------------------|-----------------|-------------|-----------------|


E|-------------|--------|-----------------|---------------------|-----------------------|
B|--------14---|--------|-----------------|---------------------|-----------------------|
G|-------------|--------|-----------------|---------------------|-----------------------|
D|-------------|-10-----|-10---10--9------|-------9---9---12----|-----------12--12--11--|
A|-------------|--------|-----------------|---------------------|-----------------------|
E|-------------|--------|-----------------|---------------------|-----------------------|


E|----------------|--------|-----------------|---------------------|-----------------------|
B|----------------|--------|-----------------|---------------------|-----------------------|
G|----------------|--------|-----------------|---------------------|-----------------------|
D|------------11--|-10-----|-10---10--9------|-------9---9---12----|-----------12--12--11--|
A|----------------|--------|-----------------|---------------------|-----------------------|
E|----------------|--------|-----------------|---------------------|-----------------------|


E|----------------|--------|-----------------|---------------------|-----------------------|
B|----------------|--------|-----------------|---------------------|-----------------------|
G|----------------|--------|-----------------|---------------------|-----------------------|
D|------------11--|-10-----|-10---10--9------|-------9---9---12----|-----------12--12--11--|
A|----------------|--------|-----------------|---------------------|-----------------------|
E|----------------|--------|-----------------|---------------------|-----------------------|


E|----------------|--------|-----------------|---------------------|-----------------------|
B|----------------|--------|-----------------|---------------------|-----------------------|
G|----------------|--------|-----------------|---------------------|-----------------------|
D|------------11--|-10-----|-10---10--9------|-------9---9---12----|-----------12--12--11--|
A|----------------|--------|-----------------|---------------------|-----------------------|
E|----------------|--------|-----------------|---------------------|-----------------------|


E|----------------|--------|-------------|-----------------|-----------------|-------------|
B|----------------|--------|-------------|-----------------|-----------------|-------------|
G|----------------|--------|-------------|-----------------|-----------------|-------------|
D|------------11--|-10-----|-10---10-----|------10---13----|-------13---13---|--------13---|
A|----------------|--------|-------------|-----------------|-----------------|-------------|
E|----------------|--------|-------------|-----------------|-----------------|-------------|


E|-17----5-----|-------5----5----|--------5----|-5------|-5----5------|------5-------------|
B|-------------|-----------------|-------------|--------|-------------|--------------------|
G|-------------|-----------------|-------------|--------|-------------|--------------------|
D|-------------|-----------------|-------------|--------|-------------|--------------------|
A|-------------|-----------------|-------------|--------|-------------|--------------------|
E|-------------|-----------------|-------------|--------|-------------|--------------------|





Track 4: Untitled

E|--------|--------|--------|--------|--------|--------|--------|--------|--------|
B|--------|--------|--------|--------|--------|--------|--------|--------|--------|
G|--------|--------|--------|--------|--------|--------|--------|--------|--------|
D|--------|--------|--------|--------|--------|--------|--------|--------|--------|
A|--------|--------|--------|--------|--------|--------|--------|--------|--------|
E|--------|--------|--------|--------|--------|--------|--------|--------|--------|


E|--------|--------|--------|--------|--------|--------|--------|--------|--------|
B|--------|--------|--------|--------|--------|--------|--------|--------|--------|
G|--------|--------|--------|--------|--------|--------|--------|--------|--------|
D|--------|--------|--------|--------|--------|--------|--------|--------|--------|
A|--------|--------|--------|--------|--------|--------|--------|--------|--------|
E|--------|--------|--------|--------|--------|--------|--------|--------|--------|


E|--------|--------|--------|--------|--------|--------|--------|--------|--------|
B|--------|--------|--------|--------|--------|--------|--------|--------|--------|
G|--------|--------|--------|--------|--------|--------|--------|--------|--------|
D|--------|--------|--------|--------|--------|--------|--------|--------|--------|
A|--------|--------|--------|--------|--------|--------|--------|--------|--------|
E|--------|--------|--------|--------|--------|--------|--------|--------|--------|


E|--------|--------|--------|--------|--------|--------|--------|--------|--------|
B|--------|--------|--------|--------|--------|--------|--------|--------|--------|
G|--------|--------|--------|--------|--------|--------|--------|--------|--------|
D|--------|--------|--------|--------|--------|--------|--------|--------|--------|
A|--------|--------|--------|--------|--------|--------|--------|--------|--------|
E|--------|--------|--------|--------|--------|--------|--------|--------|--------|


E|--------|--------|--------|--------|--------|--------|--------|--------|--------|
B|--------|--------|--------|--------|--------|--------|--------|--------|--------|
G|--------|--------|--------|--------|--------|--------|--------|--------|--------|
D|--------|--------|--------|--------|--------|--------|--------|--------|--------|
A|--------|--------|--------|--------|--------|--------|--------|--------|--------|
E|--------|--------|--------|--------|--------|--------|--------|--------|--------|


E|--------|--------|--------|--------|--------|--------|--------|--------|--------|
B|--------|--------|--------|--------|--------|--------|--------|--------|--------|
G|--------|--------|--------|--------|--------|--------|--------|--------|--------|
D|--------|--------|--------|--------|--------|--------|--------|--------|--------|
A|--------|--------|--------|--------|--------|--------|--------|--------|--------|
E|--------|--------|--------|--------|--------|--------|--------|--------|--------|


E|--------|--------|--------|--------|--------|--------|--------|--------|--------|
B|--------|--------|--------|--------|--------|--------|--------|--------|--------|
G|--------|--------|--------|--------|--------|--------|--------|--------|--------|
D|--------|--------|--------|--------|--------|--------|--------|--------|--------|
A|--------|--------|--------|--------|--------|--------|--------|--------|--------|
E|--------|--------|--------|--------|--------|--------|--------|--------|--------|


E|--------|--------|--------|--------|--------|--------|--------|--------|--------|
B|--------|--------|--------|--------|--------|--------|--------|--------|--------|
G|--------|--------|--------|--------|--------|--------|--------|--------|--------|
D|--------|--------|--------|--------|--------|--------|--------|--------|--------|
A|--------|--------|--------|--------|--------|--------|--------|--------|--------|
E|--------|--------|--------|--------|--------|--------|--------|--------|--------|


E|--------|--------|--------|--------|--------|--------|--------|--------|--------|
B|--------|--------|--------|--------|--------|--------|--------|--------|--------|
G|--------|--------|--------|--------|--------|--------|--------|--------|--------|
D|--------|--------|--------|--------|--------|--------|--------|--------|--------|
A|--------|--------|--------|--------|--------|--------|--------|--------|--------|
E|--------|--------|--------|--------|--------|--------|--------|--------|--------|


E|--------|--------|--------|--------|--------|--------|--------|--------|--------|
B|--------|--------|--------|--------|--------|--------|--------|--------|--------|
G|--------|--------|--------|--------|--------|--------|--------|--------|--------|
D|--------|--------|--------|--------|--------|--------|--------|--------|--------|
A|--------|--------|--------|--------|--------|--------|--------|--------|--------|
E|--------|--------|--------|--------|--------|--------|--------|--------|--------|


E|--------|--------|--------|--------|--------|--------|--------|--------|--------|
B|--------|--------|--------|--------|--------|--------|--------|--------|--------|
G|--------|--------|--------|--------|--------|--------|--------|--------|--------|
D|--------|--------|--------|--------|--------|--------|--------|--------|--------|
A|--------|--------|--------|--------|--------|--------|--------|--------|--------|
E|--------|--------|--------|--------|--------|--------|--------|--------|--------|


E|--------|--------|--------|--------|--------|--------|--------|--------|--------|
B|--------|--------|--------|--------|--------|--------|--------|--------|--------|
G|--------|--------|--------|--------|--------|--------|--------|--------|--------|
D|--------|--------|--------|--------|--------|--------|--------|--------|--------|
A|--------|--------|--------|--------|--------|--------|--------|--------|--------|
E|--------|--------|--------|--------|--------|--------|--------|--------|--------|


E|--------|--------|--------|--------|--------|--------|--------|--------|--------|
B|--------|--------|--------|--------|--------|--------|--------|--------|--------|
G|--------|--------|--------|--------|--------|--------|--------|--------|--------|
D|--------|--------|--------|--------|--------|--------|--------|--------|--------|
A|--------|--------|--------|--------|--------|--------|--------|--------|--------|
E|--------|--------|--------|--------|--------|--------|--------|--------|--------|


E|-----------------|---------------------------|------------------------|---------------------------|
B|-----------------|---------------------------|------------------------|---------------------------|
G|-----------------|---------------------------|------------------------|---------------------------|
D|-----------------|------10--10--10--10-------|-----------10--10--13---|---------------12--12--10--|
A|-------12----0---|-0--------------------12---|-0---0------------------|-12----0---0---------------|
E|-----------------|---------------------------|------------------------|---------------------------|


E|---------------------|------------------------|------------------------------|------------------------|
B|---------------------|------------------------|------------------------------|------------------------|
G|---------------------|------------------------|------------------------------|------------------------|
D|-13------------------|-10--10--10-------------|-----10--12--10--10--10-------|-----------10--10--13---|
A|------12---0---0-----|--------------12----0---|-0-----------------------12---|-0---0------------------|
E|---------------------|------------------------|------------------------------|------------------------|


E|---------------------------|------------------------|------------------------------|
B|---------------------------|------------------------|------------------------------|
G|---------------------------|------------------------|------------------------------|
D|---------------12--12--10--|-13-----------------12--|-12--10--13-------------------|
A|-12----0---0---------------|------12---0---0--------|--------------3---0---0---3---|
E|---------------------------|------------------------|--------------5---5---5---5---|


E|---------------------------------|---------------------------------|--------|--------|
B|---------------------------------|---------------------------------|--------|--------|
G|---------------------------------|---------------------------------|--------|--------|
D|---------------------------------|---------------------------------|--------|--------|
A|-0---0---3---0---3---0---3---0---|-0---3---0---0---3---0---3---0---|--------|--------|
E|-5---5---5---5---5---5---5---5---|-5---5---5---5---5---5---5---5---|--------|--------|


E|--------|--------|--------|--------|--------|--------|--------|--------|--------|
B|--------|--------|--------|--------|--------|--------|--------|--------|--------|
G|--------|--------|--------|--------|--------|--------|--------|--------|--------|
D|--------|--------|--------|--------|--------|--------|--------|--------|--------|
A|--------|--------|--------|--------|--------|--------|--------|--------|--------|
E|--------|--------|--------|--------|--------|--------|--------|--------|--------|


E|--------|--------|--------|--------|--------|--------|--------|--------|--------|
B|--------|--------|--------|--------|--------|--------|--------|--------|--------|
G|--------|--------|--------|--------|--------|--------|--------|--------|--------|
D|--------|--------|--------|--------|--------|--------|--------|--------|--------|
A|--------|--------|--------|--------|--------|--------|--------|--------|--------|
E|--------|--------|--------|--------|--------|--------|--------|--------|--------|


E|--------|--------|--------|--------|--------|--------|--------|--------|--------|
B|--------|--------|--------|--------|--------|--------|--------|--------|--------|
G|--------|--------|--------|--------|--------|--------|--------|--------|--------|
D|--------|--------|--------|--------|--------|--------|--------|--------|--------|
A|--------|--------|--------|--------|--------|--------|--------|--------|--------|
E|--------|--------|--------|--------|--------|--------|--------|--------|--------|


E|--------|--------|
B|--------|--------|
G|--------|--------|
D|--------|--------|
A|--------|--------|
E|--------|--------|





Track 5: Untitled

G|---------------------------------|---------------------------------|---------------------------------|
D|---------------------------------|---------------------------------|---------------------------------|
A|-15--0---0---15--0---0---15--0---|-17------15--0---0---15--0---0---|-15--0---17------15--0---0---15--|
E|---------------------------------|---------------------------------|---------------------------------|


G|---------------------------------|---------------------------------|---------------------------------|
D|---------------------------------|---------------------------------|---------------------------------|
A|-0---0---15--0---17------15--0---|-0---15--0---0---15--0---17------|-15--0---0---15--0---0---15--0---|
E|---------------------------------|---------------------------------|---------------------------------|


G|---------------------------------|---------------------------------|---------------------------------|
D|---------------------------------|---------------------------------|---------------------------------|
A|-17------15--0---0---15--0---0---|-15--0---17------15--0---0---15--|-0---0---15--0---17------15--0---|
E|---------------------------------|---------------------------------|---------------------------------|


G|---------------------------------|---------------------------------|---------------------------------|
D|---------------------------------|---------------------------------|---------------------------------|
A|-0---15--0---0---15--0---17------|-15--0---0---15--0---0---15--0---|-17------15--0---0---15--0---0---|
E|---------------------------------|---------------------------------|---------------------------------|


G|---------------------------|---------------------|---------------------|------------------|
D|---------------------------|---------------------|---------------------|------------------|
A|-15--0---17------12----0---|----------------12---|-----0---------------|-12----0----------|
E|---------------------------|------8----10--------|-----------8----10---|-------------8----|


G|------------------|---------------------|---------------------|---------------------|
D|------------------|---------------------|---------------------|---------------------|
A|------12----0-----|-----------8-----8---|------8----8----8----|-----8-----8----8----|
E|-10---------------|-8----10-------------|---------------------|---------------------|


G|------------------|------------------|---------------------|---------------------|
D|------------------|------------------|---------------------|---------------------|
A|-7-----7-----7----|-7----2-----2-----|-2----2----12----0---|----------------12---|
E|------------------|------------------|---------------------|------8----10--------|


G|---------------------|------------------|------------------|---------------------|
D|---------------------|------------------|------------------|---------------------|
A|-----0---------------|-12----0----------|------12----0-----|-----------8-----8---|
E|-----------8----10---|-------------8----|-10---------------|-8----10-------------|


G|---------------------|---------------------|------------------|------------------|
D|---------------------|---------------------|------------------|------------------|
A|------8----8----8----|-----8-----8----8----|-7-----7-----7----|-7----2-----2-----|
E|---------------------|---------------------|------------------|------------------|


G|---------------------|---------------------|---------------------|------------------|
D|---------------------|---------------------|---------------------|-10----10----10---|
A|-2----2----12----0---|------0----0----12---|-----0-----0----0----|------------------|
E|---------------------|---------------------|---------------------|------------------|


G|------------------|---------------------|------------------------|---------------------|
D|-10---9-----9-----|-9----9----12----12--|------12---12--14--11---|-----11----11---11---|
A|------------------|---------------------|------------------------|---------------------|
E|------------------|---------------------|------------------------|---------------------|


G|------------------|------------------|---------------------|------------------------|
D|-10----10----10---|-10---9-----9-----|-9----9----12----12--|------12---12--14--11---|
A|------------------|------------------|---------------------|------------------------|
E|------------------|------------------|---------------------|------------------------|


G|---------------------|------------------|------------------|---------------------|
D|-----11----11---11---|-10----10----10---|-10---9-----9-----|-9----9----12----12--|
A|---------------------|------------------|------------------|---------------------|
E|---------------------|------------------|------------------|---------------------|


G|------------------------|---------------------|------------------|------------------|
D|------12---12--14--11---|-----11----11---11---|-10----10----10---|-10---9-----9-----|
A|------------------------|---------------------|------------------|------------------|
E|------------------------|---------------------|------------------|------------------|


G|---------------------|------------------------|---------------------|------------------|
D|-9----9----12----12--|------12---12--14--11---|-----11----11---11---|-10----10----10---|
A|---------------------|------------------------|---------------------|------------------|
E|---------------------|------------------------|---------------------|------------------|


G|------------------|---------------------|---------------------|---------------------|
D|-10---10----10----|-10---10---9-----9---|------9----9----9----|-----9-----9----9----|
A|------------------|---------------------|---------------------|---------------------|
E|------------------|---------------------|---------------------|---------------------|


G|---------------------------------|---------------------------------|---------------------------------|
D|---------------------------------|---------------------------------|---------------------------------|
A|-15--0---0---15--0---0---15--0---|-17------15--0---0---15--0---0---|-15--0---17------15--0---0---15--|
E|---------------------------------|---------------------------------|---------------------------------|


G|---------------------------------|---------------------------------|------------------|
D|---------------------------------|---------------------------------|------------------|
A|-0---0---15--0---17------15--0---|-0---15--0---0---15--0---17------|-12----0----------|
E|---------------------------------|---------------------------------|-------------8----|


G|------------------|---------------------|---------------------|---------------------|
D|------------------|---------------------|---------------------|---------------------|
A|------12----0-----|-----------12----0---|----------------12---|-----0---------------|
E|-10---------------|-8----10-------------|------8----10--------|-----------8----10---|


G|------------------|------------------|---------------------|---------------------|
D|------------------|------------------|---------------------|---------------------|
A|-8-----8-----8----|-8----8-----8-----|-8----8----7-----7---|------7----7----2----|
E|------------------|------------------|---------------------|---------------------|


G|---------------------|------------------|------------------|---------------------|
D|---------------------|------------------|------------------|---------------------|
A|-----2-----2----2----|-12----0----------|------12----0-----|-----------12----0---|
E|---------------------|-------------8----|-10---------------|-8----10-------------|


G|---------------------|---------------------|------------------|------------------|
D|---------------------|---------------------|------------------|------------------|
A|----------------12---|-----0---------------|-8-----8-----8----|-8----8-----8-----|
E|------8----10--------|-----------8----10---|------------------|------------------|


G|---------------------|---------------------|---------------------|------------------|
D|---------------------|---------------------|---------------------|------------------|
A|-8----8----7-----7---|------7----7----2----|-----2-----2----2----|-12----0-----0----|
E|---------------------|---------------------|---------------------|------------------|


G|------------------|---------------------|---------------------|---------------------|
D|------------------|-----------10----10--|------10---10---9----|-----9-----9----9----|
A|-0----12----0-----|-0----0--------------|---------------------|---------------------|
E|------------------|---------------------|---------------------|---------------------|


G|------------------|---------------------|---------------------|---------------------|
D|-12----12----12---|-12--14--11----11----|-11---11---10----10--|------10---10---9----|
A|------------------|---------------------|---------------------|---------------------|
E|------------------|---------------------|---------------------|---------------------|


G|---------------------|------------------|---------------------|---------------------|
D|-----9-----9----9----|-12----12----12---|-12--14--11----11----|-11---11---10----10--|
A|---------------------|------------------|---------------------|---------------------|
E|---------------------|------------------|---------------------|---------------------|


G|---------------------|---------------------|------------------|---------------------|
D|------10---10---9----|-----9-----9----9----|-12----12----12---|-12--14--11----11----|
A|---------------------|---------------------|------------------|---------------------|
E|---------------------|---------------------|------------------|---------------------|


G|---------------------|---------------------|---------------------|------------------|
D|-11---11---10----10--|------10---10---9----|-----9-----9----9----|-12----12----12---|
A|---------------------|---------------------|---------------------|------------------|
E|---------------------|---------------------|---------------------|------------------|


G|---------------------|---------------------|---------------------|---------------------|
D|-12--14--11----11----|-11---11---10----10--|------10---10---10---|-----10----10---10---|
A|---------------------|---------------------|---------------------|---------------------|
E|---------------------|---------------------|---------------------|---------------------|


G|------------------|------------------|---------------------------|---------------------------------|
D|-9-----9-----9----|-9----9-----9-----|-9----9--------------------|---------------------------------|
A|------------------|------------------|-----------15--0---0---15--|-0---0---15--0---17------15--0---|
E|------------------|------------------|---------------------------|---------------------------------|


G|---------------------------------|---------------------------------|---------------------------------|
D|---------------------------------|---------------------------------|---------------------------------|
A|-0---15--0---0---15--0---17------|-15--0---0---15--0---0---15--0---|-17------15--0---0---15--0---0---|
E|---------------------------------|---------------------------------|---------------------------------|


G|---------------------------|------------------------|------------------------|------------------------|
D|---------------------------|------------------------|------------------------|------------------------|
A|-15--0---17------12----0---|-0----3---3---6----12---|-0---0-----3---3---6----|-12----0---0----3---3---|
E|---------------------------|------------------------|------------------------|------------------------|


G|---------------------|------------------------|------------------------|------------------------|
D|---------------------|------------------------|------------------------|------------------------|
A|-6----12---0---0-----|-3---3---6----12----0---|-0----3---3---6----12---|-0---0-----3---3---6----|
E|---------------------|------------------------|------------------------|------------------------|


G|------------------------|---------------------|------------------------|---------------------|
D|------------------------|---------------------|------------------------|---------------------|
A|-12----0---0----3---3---|-6----12---0---0-----|-3---3---6--------------|---------------------|
E|------------------------|---------------------|--------------5-----5---|------5----5----5----|


G|---------------------|------------------|------------------|---------------------|
D|---------------------|-10----10----10---|-10---9-----9-----|-9----9----12----12--|
A|---------------------|------------------|------------------|---------------------|
E|-----5-----5----5----|------------------|------------------|---------------------|


G|------------------------|---------------------|------------------|------------------|
D|------12---12--14--11---|-----11----11---11---|-10----10----10---|-10---9-----9-----|
A|------------------------|---------------------|------------------|------------------|
E|------------------------|---------------------|------------------|------------------|


G|---------------------|------------------------|---------------------|------------------|
D|-9----9----12----12--|------12---12--14--11---|-----11----11---11---|-10----10----10---|
A|---------------------|------------------------|---------------------|------------------|
E|---------------------|------------------------|---------------------|------------------|


G|------------------|---------------------|------------------------|---------------------|
D|-10---9-----9-----|-9----9----12----12--|------12---12--14--11---|-----11----11---11---|
A|------------------|---------------------|------------------------|---------------------|
E|------------------|---------------------|------------------------|---------------------|


G|------------------|------------------|---------------------|------------------------|
D|-10----10----10---|-10---9-----9-----|-9----9----12----12--|------12---12--14--11---|
A|------------------|------------------|---------------------|------------------------|
E|------------------|------------------|---------------------|------------------------|


G|---------------------|------------------|------------------|---------------------|
D|-----11----11---11---|-10----10----10---|-10---10----10----|-10---10---9-----9---|
A|---------------------|------------------|------------------|---------------------|
E|---------------------|------------------|------------------|---------------------|


G|---------------------|---------------------|-----------------------|---------------------------------|
D|------9----9----9----|-----9-----9----9----|-----------------------|---------------------------------|
A|---------------------|---------------------|-------15--0---0---15--|-0---0---15--0---17------15--0---|
E|---------------------|---------------------|-----------------------|---------------------------------|


G|---------------------------------|---------------------------------|---------------------------------|
D|---------------------------------|---------------------------------|---------------------------------|
A|-0---15--0---0---15--0---17------|-15--0---0---15--0---0---15--0---|-17------15--0---0---15--0---0---|
E|---------------------------------|---------------------------------|---------------------------------|


G|-----------------------|
D|-----------------------|
A|-15--0---17------------|
E|-----------------------|