Site menu:

    

Browse: 0-9 A B C D E F G H I J K L N O P Q R S T U V W X Y Z

queens of the stone age - auto pilot:



Title: Auto Pilot
Artist: 
Album: Rated R
Author: Queens of the Stone Age


Track 1: Clean Electric

E|--------------7-----|------------------------------|---------------------------|
B|--------------7-----|------------------------------|---------------------------|
G|--------------7-----|------------------------------|---------------------------|
D|--------------7-----|------------------------------|---------------------------|
A|-7---9---9----------|-7---9---7---7----7---9---7---|-9----9----7---9---9---9---|
E|-7---7---7----------|-7---7---7---7----7---7---7---|-10---10---10--10--10--10--|


E|------------------------------|--------------7-----|------------------------------|
B|------------------------------|--------------7-----|------------------------------|
G|------------------------------|--------------7-----|------------------------------|
D|------------------------------|--------------7-----|------------------------------|
A|-7---7---7---7----7---7---7---|-7---9---9----------|-7---9---7---7----7---9---7---|
E|-7---9---9---7----7---9---7---|-7---7---7----------|-7---7---7---7----7---7---7---|


E|---------------------------|------------------------------|--------------7-----|
B|---------------------------|------------------------------|--------------7-----|
G|---------------------------|------------------------------|--------------7-----|
D|---------------------------|------------------------------|--------------7-----|
A|-9----9----7---9---9---9---|-7---7---7---7----7---7---7---|-7---9---9----------|
E|-10---10---10--10--10--10--|-7---9---9---7----7---9---7---|-7---7---7----------|


E|------------------------------|---------------------------|------------------------------|
B|------------------------------|---------------------------|------------------------------|
G|------------------------------|---------------------------|------------------------------|
D|------------------------------|---------------------------|------------------------------|
A|-7---9---7---7----7---9---7---|-9----9----7---9---9---9---|-7---7---7---7----7---7---7---|
E|-7---7---7---7----7---7---7---|-10---10---10--10--10--10--|-7---9---9---7----7---9---7---|


E|--------------7-----|------------------------------|---------------------------|
B|--------------7-----|------------------------------|---------------------------|
G|--------------7-----|------------------------------|---------------------------|
D|--------------7-----|------------------------------|---------------------------|
A|-7---9---9----------|-7---9---7---7----7---9---7---|-9----9----7---9---9---9---|
E|-7---7---7----------|-7---7---7---7----7---7---7---|-10---10---10--10--10--10--|


E|------------------------------|--------------7-----|------------------------------|
B|------------------------------|--------------7-----|------------------------------|
G|------------------------------|--------------7-----|------------------------------|
D|------------------------------|--------------7-----|------------------------------|
A|-7---7---7---7----7---7---7---|-7---9---9----------|-7---9---7---7----7---9---7---|
E|-7---9---9---7----7---9---7---|-7---7---7----------|-7---7---7---7----7---7---7---|


E|---------------------------|------------------------------|--------------7-----|
B|---------------------------|------------------------------|--------------7-----|
G|---------------------------|------------------------------|--------------7-----|
D|---------------------------|------------------------------|--------------7-----|
A|-9----9----7---9---9---9---|-7---7---7---7----7---7---7---|-7---9---9----------|
E|-10---10---10--10--10--10--|-7---9---9---7----7---9---7---|-7---7---7----------|


E|------------------------------|---------------------------|------------------------------|
B|------------------------------|---------------------------|------------------------------|
G|------------------------------|---------------------------|------------------------------|
D|------------------------------|---------------------------|------------------------------|
A|-7---9---7---7----7---9---7---|-9----9----7---9---9---9---|-7---7---7---7----7---7---7---|
E|-7---7---7---7----7---7---7---|-10---10---10--10--10--10--|-7---9---9---7----7---9---7---|


E|--------------7-----|------------------------------|---------------------------|
B|--------------7-----|------------------------------|---------------------------|
G|--------------7-----|------------------------------|---------------------------|
D|--------------7-----|------------------------------|---------------------------|
A|-7---9---9----------|-7---9---7---7----7---9---7---|-9----9----7---9---9---9---|
E|-7---7---7----------|-7---7---7---7----7---7---7---|-10---10---10--10--10--10--|


E|------------------------------|--------------7-----|------------------------------|
B|------------------------------|--------------7-----|------------------------------|
G|------------------------------|--------------7-----|------------------------------|
D|------------------------------|--------------7-----|------------------------------|
A|-7---7---7---7----7---7---7---|-7---9---9----------|-7---9---7---7----7---9---7---|
E|-7---9---9---7----7---9---7---|-7---7---7----------|-7---7---7---7----7---7---7---|


E|---------------------------|------------------------------|---------------------------|
B|---------------------------|------------------------------|---------------------------|
G|---------------------------|------------------------------|---------------------------|
D|---------------------------|------------------------------|-9---9---9----9----9---9---|
A|-9----9----7---9---9---9---|-7---7---7---7----7---7---7---|-9---9---9----9----9---9---|
E|-10---10---10--10--10--10--|-7---9---9---7----7---9---7---|-7---7---7----7----7---7---|


E|---------------------------|-0---0---0----0----0---0---|-0---0---0----0----0---0---|
B|---------------------------|-0---0---0----0----0---0---|-0---0---0----0----0---0---|
G|---------------------------|-1---1---1----1----1---1---|-1---1---1----1----1---1---|
D|-5---5---5----5----5---5---|-2---2---2----2----2---2---|-2---2---2----2----2---2---|
A|-5---5---5----5----5---5---|-2---2---2----2----2---2---|-2---2---2----2----2---2---|
E|-3---3---3----3----3---3---|-0---0---0----0----0---0---|-0---0---0----0----0---0---|


E|---------------------------|---------------------------|-0---0---0----0----0---0---|
B|---------------------------|---------------------------|-0---0---0----0----0---0---|
G|---------------------------|---------------------------|-1---1---1----1----1---1---|
D|-9---9---9----9----9---9---|-5---5---5----5----5---5---|-2---2---2----2----2---2---|
A|-9---9---9----9----9---9---|-5---5---5----5----5---5---|-2---2---2----2----2---2---|
E|-7---7---7----7----7---7---|-3---3---3----3----3---3---|-0---0---0----0----0---0---|


E|-0---0---0----0----0---0---|---------------------------|---------------------------|
B|-0---0---0----0----0---0---|---------------------------|---------------------------|
G|-1---1---1----1----1---1---|---------------------------|---------------------------|
D|-2---2---2----2----2---2---|-9---9---9----9----9---9---|-5---5---5----5----5---5---|
A|-2---2---2----2----2---2---|-9---9---9----9----9---9---|-5---5---5----5----5---5---|
E|-0---0---0----0----0---0---|-7---7---7----7----7---7---|-3---3---3----3----3---3---|


E|-0---0---0----0----0---0---|-0---0---0----0----0---0---|---------------------------|
B|-0---0---0----0----0---0---|-0---0---0----0----0---0---|---------------------------|
G|-1---1---1----1----1---1---|-1---1---1----1----1---1---|---------------------------|
D|-2---2---2----2----2---2---|-2---2---2----2----2---2---|-9---9---9----9----9---9---|
A|-2---2---2----2----2---2---|-2---2---2----2----2---2---|-9---9---9----9----9---9---|
E|-0---0---0----0----0---0---|-0---0---0----0----0---0---|-7---7---7----7----7---7---|


E|---------------------------|-0---0---0----0----0---0---|-0---0---0----0----0---0---|
B|---------------------------|-0---0---0----0----0---0---|-0---0---0----0----0---0---|
G|---------------------------|-1---1---1----1----1---1---|-1---1---1----1----1---1---|
D|-5---5---5----5----5---5---|-2---2---2----2----2---2---|-2---2---2----2----2---2---|
A|-5---5---5----5----5---5---|-2---2---2----2----2---2---|-2---2---2----2----2---2---|
E|-3---3---3----3----3---3---|-0---0---0----0----0---0---|-0---0---0----0----0---0---|


E|--------------7-----|------------------------------|---------------------------|
B|--------------7-----|------------------------------|---------------------------|
G|--------------7-----|------------------------------|---------------------------|
D|--------------7-----|------------------------------|---------------------------|
A|-7---9---9----------|-7---9---7---7----7---9---7---|-9----9----7---9---9---9---|
E|-7---7---7----------|-7---7---7---7----7---7---7---|-10---10---10--10--10--10--|


E|------------------------------|--------------7-----|------------------------------|
B|------------------------------|--------------7-----|------------------------------|
G|------------------------------|--------------7-----|------------------------------|
D|------------------------------|--------------7-----|------------------------------|
A|-7---7---7---7----7---7---7---|-7---9---9----------|-7---9---7---7----7---9---7---|
E|-7---9---9---7----7---9---7---|-7---7---7----------|-7---7---7---7----7---7---7---|


E|---------------------------|------------------------------|--------------7-----|
B|---------------------------|------------------------------|--------------7-----|
G|---------------------------|------------------------------|--------------7-----|
D|---------------------------|------------------------------|--------------7-----|
A|-9----9----7---9---9---9---|-7---7---7---7----7---7---7---|-7---9---9----------|
E|-10---10---10--10--10--10--|-7---9---9---7----7---9---7---|-7---7---7----------|


E|------------------------------|---------------------------|------------------------------|
B|------------------------------|---------------------------|------------------------------|
G|------------------------------|---------------------------|------------------------------|
D|------------------------------|---------------------------|------------------------------|
A|-7---9---7---7----7---9---7---|-9----9----7---9---9---9---|-7---7---7---7----7---7---7---|
E|-7---7---7---7----7---7---7---|-10---10---10--10--10--10--|-7---9---9---7----7---9---7---|


E|--------------7-----|------------------------------|---------------------------|
B|--------------7-----|------------------------------|---------------------------|
G|--------------7-----|------------------------------|---------------------------|
D|--------------7-----|------------------------------|---------------------------|
A|-7---9---9----------|-7---9---7---7----7---9---7---|-9----9----7---9---9---9---|
E|-7---7---7----------|-7---7---7---7----7---7---7---|-10---10---10--10--10--10--|


E|------------------------------|--------------7-----|------------------------------|
B|------------------------------|--------------7-----|------------------------------|
G|------------------------------|--------------7-----|------------------------------|
D|------------------------------|--------------7-----|------------------------------|
A|-7---7---7---7----7---7---7---|-7---9---9----------|-7---9---9---9----7---9---7---|
E|-7---9---9---7----7---9---7---|-7---7---7----------|-7---7---7---7----7---7---7---|


E|---------------------------|------------------------------|--------------7-----|
B|---------------------------|------------------------------|--------------7-----|
G|---------------------------|------------------------------|--------------7-----|
D|---------------------------|------------------------------|--------------7-----|
A|-9----9----7---9---9---9---|-7---7---7---7----7---7---7---|-7---9---9----------|
E|-10---10---10--10--10--10--|-7---9---9---7----7---9---7---|-7---7---7----------|


E|------------------------------|---------------------------|------------------------------|
B|------------------------------|---------------------------|------------------------------|
G|------------------------------|---------------------------|------------------------------|
D|------------------------------|---------------------------|------------------------------|
A|-7---9---7---7----7---9---7---|-9----9----7---9---9---9---|-7---7---7---7----7---7---7---|
E|-7---7---7---7----7---7---7---|-10---10---10--10--10--10--|-7---9---9---7----7---9---7---|


E|---------------------------|---------------------------|-0---0---0----0----0---0---|
B|---------------------------|---------------------------|-0---0---0----0----0---0---|
G|---------------------------|---------------------------|-1---1---1----1----1---1---|
D|-9---9---9----9----9---9---|-5---5---5----5----5---5---|-2---2---2----2----2---2---|
A|-9---9---9----9----9---9---|-5---5---5----5----5---5---|-2---2---2----2----2---2---|
E|-7---7---7----7----7---7---|-3---3---3----3----3---3---|-0---0---0----0----0---0---|


E|-0---0---0----0----0---0---|---------------------------|---------------------------|
B|-0---0---0----0----0---0---|---------------------------|---------------------------|
G|-1---1---1----1----1---1---|---------------------------|---------------------------|
D|-2---2---2----2----2---2---|-9---9---9----9----9---9---|-5---5---5----5----5---5---|
A|-2---2---2----2----2---2---|-9---9---9----9----9---9---|-5---5---5----5----5---5---|
E|-0---0---0----0----0---0---|-7---7---7----7----7---7---|-3---3---3----3----3---3---|


E|-0---0---0----0----0---0---|-0---0---0----0----0---0---|---------------------------|
B|-0---0---0----0----0---0---|-0---0---0----0----0---0---|---------------------------|
G|-1---1---1----1----1---1---|-1---1---1----1----1---1---|---------------------------|
D|-2---2---2----2----2---2---|-2---2---2----2----2---2---|-9---9---9----9----9---9---|
A|-2---2---2----2----2---2---|-2---2---2----2----2---2---|-9---9---9----9----9---9---|
E|-0---0---0----0----0---0---|-0---0---0----0----0---0---|-7---7---7----7----7---7---|


E|---------------------------|-0---0---0----0----0---0---|-0---0---0----0----0---0---|
B|---------------------------|-0---0---0----0----0---0---|-0---0---0----0----0---0---|
G|---------------------------|-1---1---1----1----1---1---|-1---1---1----1----1---1---|
D|-5---5---5----5----5---5---|-2---2---2----2----2---2---|-2---2---2----2----2---2---|
A|-5---5---5----5----5---5---|-2---2---2----2----2---2---|-2---2---2----2----2---2---|
E|-3---3---3----3----3---3---|-0---0---0----0----0---0---|-0---0---0----0----0---0---|


E|---------------------------|---------------------------|-0---0---0----0----0---0---|
B|---------------------------|---------------------------|-0---0---0----0----0---0---|
G|---------------------------|---------------------------|-1---1---1----1----1---1---|
D|-9---9---9----9----9---9---|-5---5---5----5----5---5---|-2---2---2----2----2---2---|
A|-9---9---9----9----9---9---|-5---5---5----5----5---5---|-2---2---2----2----2---2---|
E|-7---7---7----7----7---7---|-3---3---3----3----3---3---|-0---0---0----0----0---0---|


E|-0---0---0----0----0---0---|--------|--------|--------|--------|--------|--------|
B|-0---0---0----0----0---0---|--------|--------|--------|--------|--------|--------|
G|-1---1---1----1----1---1---|--------|--------|--------|--------|--------|--------|
D|-2---2---2----2----2---2---|--------|--------|--------|--------|--------|--------|
A|-2---2---2----2----2---2---|--------|--------|--------|--------|--------|--------|
E|-0---0---0----0----0---0---|--------|--------|--------|--------|--------|--------|


E|--------|--------|--------|--------|--------|--------|--------|--------|--------------7-----|
B|--------|--------|--------|--------|--------|--------|--------|--------|--------------7-----|
G|--------|--------|--------|--------|--------|--------|--------|--------|--------------7-----|
D|--------|--------|--------|--------|--------|--------|--------|--------|--------------7-----|
A|--------|--------|--------|--------|--------|--------|--------|--------|-7---9---9----------|
E|--------|--------|--------|--------|--------|--------|--------|--------|-7---7---7----------|


E|------------------------------|---------------------------|------------------------------|
B|------------------------------|---------------------------|------------------------------|
G|------------------------------|---------------------------|------------------------------|
D|------------------------------|---------------------------|------------------------------|
A|-7---9---7---7----7---9---7---|-9----9----7---9---9---9---|-7---7---7---7----7---7---7---|
E|-7---7---7---7----7---7---7---|-10---10---10--10--10--10--|-7---9---9---7----7---9---7---|


E|--------------7-----|------------------------------|---------------------------|
B|--------------7-----|------------------------------|---------------------------|
G|--------------7-----|------------------------------|---------------------------|
D|--------------7-----|------------------------------|---------------------------|
A|-7---9---9----------|-7---9---7---7----7---9---7---|-9----9----7---9---9---9---|
E|-7---7---7----------|-7---7---7---7----7---7---7---|-10---10---10--10--10--10--|


E|------------------------------|---------------------------|---------------------------|
B|------------------------------|---------------------------|---------------------------|
G|------------------------------|---------------------------|---------------------------|
D|------------------------------|-9---9---9----9----9---9---|-5---5---5----5----5---5---|
A|-7---7---7---7----7---7---7---|-9---9---9----9----9---9---|-5---5---5----5----5---5---|
E|-7---9---9---7----7---9---7---|-7---7---7----7----7---7---|-3---3---3----3----3---3---|


E|-0---0---0----0----0---0---|-0---0---0----0----0---0---|---------------------------|
B|-0---0---0----0----0---0---|-0---0---0----0----0---0---|---------------------------|
G|-1---1---1----1----1---1---|-1---1---1----1----1---1---|---------------------------|
D|-2---2---2----2----2---2---|-2---2---2----2----2---2---|-9---9---9----9----9---9---|
A|-2---2---2----2----2---2---|-2---2---2----2----2---2---|-9---9---9----9----9---9---|
E|-0---0---0----0----0---0---|-0---0---0----0----0---0---|-7---7---7----7----7---7---|


E|---------------------------|-0---0---0----0----0---0---|-0---0---0----0----0---0---|
B|---------------------------|-0---0---0----0----0---0---|-0---0---0----0----0---0---|
G|---------------------------|-1---1---1----1----1---1---|-1---1---1----1----1---1---|
D|-5---5---5----5----5---5---|-2---2---2----2----2---2---|-2---2---2----2----2---2---|
A|-5---5---5----5----5---5---|-2---2---2----2----2---2---|-2---2---2----2----2---2---|
E|-3---3---3----3----3---3---|-0---0---0----0----0---0---|-0---0---0----0----0---0---|


E|---------------------------|---------------------------|-0---0---0----0----0---0---|
B|---------------------------|---------------------------|-0---0---0----0----0---0---|
G|---------------------------|---------------------------|-1---1---1----1----1---1---|
D|-9---9---9----9----9---9---|-5---5---5----5----5---5---|-2---2---2----2----2---2---|
A|-9---9---9----9----9---9---|-5---5---5----5----5---5---|-2---2---2----2----2---2---|
E|-7---7---7----7----7---7---|-3---3---3----3----3---3---|-0---0---0----0----0---0---|


E|-0---0---0----0----0---0---|---------------------------|---------------------------|
B|-0---0---0----0----0---0---|---------------------------|---------------------------|
G|-1---1---1----1----1---1---|---------------------------|---------------------------|
D|-2---2---2----2----2---2---|-9---9---9----9----9---9---|-5---5---5----5----5---5---|
A|-2---2---2----2----2---2---|-9---9---9----9----9---9---|-5---5---5----5----5---5---|
E|-0---0---0----0----0---0---|-7---7---7----7----7---7---|-3---3---3----3----3---3---|


E|-0---0---0----0----0---0---|-0---0---0----0----0---0---|---------------------------|
B|-0---0---0----0----0---0---|-0---0---0----0----0---0---|---------------------------|
G|-1---1---1----1----1---1---|-1---1---1----1----1---1---|---------------------------|
D|-2---2---2----2----2---2---|-2---2---2----2----2---2---|-9---9---9----9----9---9---|
A|-2---2---2----2----2---2---|-2---2---2----2----2---2---|-9---9---9----9----9---9---|
E|-0---0---0----0----0---0---|-0---0---0----0----0---0---|-7---7---7----7----7---7---|


E|---------------------------|-0---0---0----0----0---0---|-0---0---0----0----0---0---|
B|---------------------------|-0---0---0----0----0---0---|-0---0---0----0----0---0---|
G|---------------------------|-1---1---1----1----1---1---|-1---1---1----1----1---1---|
D|-5---5---5----5----5---5---|-2---2---2----2----2---2---|-2---2---2----2----2---2---|
A|-5---5---5----5----5---5---|-2---2---2----2----2---2---|-2---2---2----2----2---2---|
E|-3---3---3----3----3---3---|-0---0---0----0----0---0---|-0---0---0----0----0---0---|


E|---------------------------|---------------------------|-0---0---0----0----0---0---|
B|---------------------------|---------------------------|-0---0---0----0----0---0---|
G|---------------------------|---------------------------|-1---1---1----1----1---1---|
D|-9---9---9----9----9---9---|-5---5---5----5----5---5---|-2---2---2----2----2---2---|
A|-9---9---9----9----9---9---|-5---5---5----5----5---5---|-2---2---2----2----2---2---|
E|-7---7---7----7----7---7---|-3---3---3----3----3---3---|-0---0---0----0----0---0---|


E|-0---0---0----0----0---0---|---------------------------|---------------------------|
B|-0---0---0----0----0---0---|---------------------------|---------------------------|
G|-1---1---1----1----1---1---|---------------------------|---------------------------|
D|-2---2---2----2----2---2---|-9---9---9----9----9---9---|-5---5---5----5----5---5---|
A|-2---2---2----2----2---2---|-9---9---9----9----9---9---|-5---5---5----5----5---5---|
E|-0---0---0----0----0---0---|-7---7---7----7----7---7---|-3---3---3----3----3---3---|


E|-0---0---0----0----0---0---|-0---0---0----0----0---0---|---------------------------|
B|-0---0---0----0----0---0---|-0---0---0----0----0---0---|---------------------------|
G|-1---1---1----1----1---1---|-1---1---1----1----1---1---|---------------------------|
D|-2---2---2----2----2---2---|-2---2---2----2----2---2---|-9---9---9----9----9---9---|
A|-2---2---2----2----2---2---|-2---2---2----2----2---2---|-9---9---9----9----9---9---|
E|-0---0---0----0----0---0---|-0---0---0----0----0---0---|-7---7---7----7----7---7---|


E|---------------------------|-0---0---0----0----0---0---|-0---0---0----0----0---0---|
B|---------------------------|-0---0---0----0----0---0---|-0---0---0----0----0---0---|
G|---------------------------|-1---1---1----1----1---1---|-1---1---1----1----1---1---|
D|-5---5---5----5----5---5---|-2---2---2----2----2---2---|-2---2---2----2----2---2---|
A|-5---5---5----5----5---5---|-2---2---2----2----2---2---|-2---2---2----2----2---2---|
E|-3---3---3----3----3---3---|-0---0---0----0----0---0---|-0---0---0----0----0---0---|


E|---------------------------|---------------------------|-0---0---0----0----0---0---|
B|---------------------------|---------------------------|-0---0---0----0----0---0---|
G|---------------------------|---------------------------|-1---1---1----1----1---1---|
D|-9---9---9----9----9---9---|-5---5---5----5----5---5---|-2---2---2----2----2---2---|
A|-9---9---9----9----9---9---|-5---5---5----5----5---5---|-2---2---2----2----2---2---|
E|-7---7---7----7----7---7---|-3---3---3----3----3---3---|-0---0---0----0----0---0---|


E|-0---0---0----0----0---0---|---------------------------|---------------------------|
B|-0---0---0----0----0---0---|---------------------------|---------------------------|
G|-1---1---1----1----1---1---|---------------------------|---------------------------|
D|-2---2---2----2----2---2---|-9---9---9----9----9---9---|-5---5---5----5----5---5---|
A|-2---2---2----2----2---2---|-9---9---9----9----9---9---|-5---5---5----5----5---5---|
E|-0---0---0----0----0---0---|-7---7---7----7----7---7---|-3---3---3----3----3---3---|


E|-0------|-0------|
B|-0------|-0------|
G|-1------|-1------|
D|-2------|-2------|
A|-2------|-2------|
E|-0------|-0------|





Track 2: Dist. Guitar

E|--------|--------|--------|--------|--------|--------|--------|-------------|-----------------|
B|--------|--------|--------|--------|--------|--------|--------|-------------|-12----12--------|
G|--------|--------|--------|--------|--------|--------|--------|--------10---|------------10---|
D|--------|--------|--------|--------|--------|--------|--------|-------------|-----------------|
A|--------|--------|--------|--------|--------|--------|--------|-------------|-----------------|
E|--------|--------|--------|--------|--------|--------|--------|-------------|-----------------|


E|------------|------------|--------|---------------------------|----------------|
B|-12-----12--|-12-----12--|-12-----|-12---10--12--10-----------|----------------|
G|------------|------------|--------|------------------11-------|----------------|
D|------------|------------|--------|----------------------9----|-9--------------|
A|------------|------------|--------|---------------------------|--------12--14--|
E|------------|------------|--------|---------------------------|----------------|


E|--------------------|-------------|--------|--------|--------|--------|--------|
B|--------------------|-------------|--------|--------|--------|--------|--------|
G|--------------------|-------------|--------|--------|--------|--------|--------|
D|-12--14--14---14----|-14----14----|--------|--------|--------|--------|--------|
A|--------------------|-------------|--------|--------|--------|--------|--------|
E|--------------------|-------------|--------|--------|--------|--------|--------|


E|--------|--------|--------|--------|--------|--------|--------|--------|--------|
B|--------|--------|--------|--------|--------|--------|--------|--------|--------|
G|--------|--------|--------|--------|--------|--------|--------|--------|--------|
D|--------|--------|--------|--------|--------|--------|--------|--------|--------|
A|--------|--------|--------|--------|--------|--------|--------|--------|--------|
E|--------|--------|--------|--------|--------|--------|--------|--------|--------|


E|--------|--------|-----------------------|-----------------------|-----------------|
B|--------|--------|-----------------------|-----------------------|-----------------|
G|--------|--------|-----------------------|-----------------------|-----------------|
D|--------|--------|-14--14----14--14--14--|-14--14----14--12--14--|-----------------|
A|--------|--------|-----------------------|-----------------------|-14----14----12--|
E|--------|--------|-----------------------|-----------------------|-----------------|


E|----------------|-----------------------|-----------------------|-----------------|
B|----------------|-----------------------|-----------------------|-----------------|
G|----------------|-----------------------|-----------------------|-----------------|
D|-----12---------|-14--14----14--14--14--|-14--14----14--12--14--|-----------------|
A|-14------14-----|-----------------------|-----------------------|-14----14----12--|
E|----------------|-----------------------|-----------------------|-----------------|


E|----------------|-----------------------|-----------------------|-----------------|
B|----------------|-----------------------|-----------------------|-----------------|
G|----------------|-----------------------|-----------------------|-----------------|
D|-----12---------|-14--14----14--14--14--|-14--14----14--12--14--|-----------------|
A|-14------14-----|-----------------------|-----------------------|-14----14----12--|
E|----------------|-----------------------|-----------------------|-----------------|


E|----------------|-----------------------|-----------------------|-----------------|
B|----------------|-----------------------|-----------------------|-----------------|
G|----------------|-----------------------|-----------------------|-----------------|
D|-----12---------|-14--14----14--14--14--|-14--14----14--12--14--|-----------------|
A|-14------14-----|-----------------------|-----------------------|-14----14----12--|
E|----------------|-----------------------|-----------------------|-----------------|


E|----------------|--------|--------|--------|--------|--------|--------|--------|
B|----------------|--------|--------|--------|--------|--------|--------|--------|
G|----------------|--------|--------|--------|--------|--------|--------|--------|
D|-----12---------|--------|--------|--------|--------|--------|--------|--------|
A|-14------14-----|--------|--------|--------|--------|--------|--------|--------|
E|----------------|--------|--------|--------|--------|--------|--------|--------|


E|--------|--------|--------|--------|--------|--------|--------|--------|--------|
B|--------|--------|--------|--------|--------|--------|--------|--------|--------|
G|--------|--------|--------|-16-----|-16-----|--------|--------|--------|--------|
D|--------|--------|--------|--------|--------|--------|--------|--------|--------|
A|--------|--------|--------|--------|--------|--------|--------|--------|--------|
E|--------|--------|--------|--------|--------|--------|--------|--------|--------|


E|--------|--------|--------|--------|--------|--------|--------|--------|-----------------------|
B|--------|--------|--------|--------|--------|--------|--------|--------|-----------------------|
G|--------|--------|-16-----|-16-----|--------|--------|--------|--------|-----------------------|
D|--------|--------|--------|--------|--------|--------|--------|--------|-14--14----14--14--14--|
A|--------|--------|--------|--------|--------|--------|--------|--------|-----------------------|
E|--------|--------|--------|--------|--------|--------|--------|--------|-----------------------|


E|-----------------------|-----------------|----------------|-----------------------|
B|-----------------------|-----------------|----------------|-----------------------|
G|-----------------------|-----------------|----------------|-----------------------|
D|-14--14----14--12--14--|-----------------|-----12---------|-14--14----14--14--14--|
A|-----------------------|-14----14----12--|-14------14-----|-----------------------|
E|-----------------------|-----------------|----------------|-----------------------|


E|-----------------------|-----------------|----------------|-----------------------|
B|-----------------------|-----------------|----------------|-----------------------|
G|-----------------------|-----------------|----------------|-16--16----16--16--16--|
D|-14--14----14--12--14--|-----------------|-----12---------|-----------------------|
A|-----------------------|-14----14----12--|-14------14-----|-----------------------|
E|-----------------------|-----------------|----------------|-----------------------|


E|-----------------------|-----------------|----------------|-----------------------|
B|-----------------------|-----------------|----------------|-----------------------|
G|-16--16----16--14--16--|-----------------|-----14---------|-----------------------|
D|-----------------------|-16----16----14--|-16------16-----|-14--14----14--14--14--|
A|-----------------------|-----------------|----------------|-----------------------|
E|-----------------------|-----------------|----------------|-----------------------|


E|-----------------------|-----------------|----------------|--------|--------|--------|
B|-----------------------|-----------------|----------------|--------|--------|--------|
G|-----------------------|-----------------|----------------|--------|--------|--------|
D|-14--14----14--12--14--|-----------------|-----12---------|--------|--------|--------|
A|-----------------------|-14----14----12--|-14------14-----|--------|--------|--------|
E|-----------------------|-----------------|----------------|--------|--------|--------|


E|--------|--------|--------|--------|--------|--------|--------|--------|--------|
B|--------|--------|--------|--------|--------|--------|--------|--------|--------|
G|--------|--------|--------|--------|--------|--------|--------|--------|--------|
D|--------|--------|--------|--------|--------|--------|--------|--------|--------|
A|--------|--------|--------|--------|--------|--------|--------|--------|--------|
E|--------|--------|--------|--------|--------|--------|--------|--------|--------|


E|--------|--------|--------|--------|--------|--------|--------|--------|--------|
B|--------|--------|--------|--------|--------|--------|--------|--------|--------|
G|--------|--------|--------|--------|-16-----|-16-----|--------|--------|-16-----|
D|--------|--------|--------|--------|--------|--------|--------|--------|--------|
A|--------|--------|--------|--------|--------|--------|--------|--------|--------|
E|--------|--------|--------|--------|--------|--------|--------|--------|--------|


E|--------|-----------------------|-----------------------|-----------------|----------------|
B|--------|-----------------------|-----------------------|-----------------|----------------|
G|-16-----|-----------------------|-----------------------|-----------------|----------------|
D|--------|-14--14----14--14--14--|-14--14----14--12--14--|-----------------|-----12---------|
A|--------|-----------------------|-----------------------|-14----14----12--|-14------14-----|
E|--------|-----------------------|-----------------------|-----------------|----------------|


E|-----------------------|-----------------------|-----------------|----------------|
B|-----------------------|-----------------------|-----------------|----------------|
G|-----------------------|-----------------------|-----------------|----------------|
D|-14--14----14--14--14--|-14--14----14--12--14--|-----------------|-----12---------|
A|-----------------------|-----------------------|-14----14----12--|-14------14-----|
E|-----------------------|-----------------------|-----------------|----------------|


E|-----------------------|-----------------------|-----------------|----------------|
B|-----------------------|-----------------------|-----------------|----------------|
G|-----------------------|-----------------------|-----------------|----------------|
D|-14--14----14--14--14--|-14--14----14--12--14--|-----------------|-----12---------|
A|-----------------------|-----------------------|-14----14----12--|-14------14-----|
E|-----------------------|-----------------------|-----------------|----------------|


E|-----------------------|--------------------|-----------------|----------------|
B|-----------------------|--------------------|-----------------|-----15---------|
G|-----------------------|--------------------|-16----16----14--|-16------16-----|
D|-14--14----14--14--14--|-14--14----14--12---|-----------------|----------------|
A|-----------------------|--------------------|-----------------|----------------|
E|-----------------------|--------------------|-----------------|----------------|


E|-----------------------|-----------------------|-----------------|----------------|
B|-----------------------|-----------------------|-----------------|----------------|
G|-16--16----16--16--16--|-16--16----16--14--16--|-----------------|-----14---------|
D|-----------------------|-----------------------|-16----16----14--|-16------16-----|
A|-----------------------|-----------------------|-----------------|----------------|
E|-----------------------|-----------------------|-----------------|----------------|


E|-----------------------|--------------------|-----------------|------------|-----------------------|
B|-----------------------|---------------17---|-17----17----15--|-17---------|-17--17----17--17--17--|
G|-16--16----16--16--16--|-16--16----16-------|-----------------|-----16-----|-----------------------|
D|-----------------------|--------------------|-----------------|------------|-----------------------|
A|-----------------------|--------------------|-----------------|------------|-----------------------|
E|-----------------------|--------------------|-----------------|------------|-----------------------|


E|-----------------------|-----------------|----------------|-----------------------|
B|-17--17----17--15--17--|-----------------|-----15---------|-17--17----17--17--17--|
G|-----------------------|-16----16----14--|-16------16-----|-----------------------|
D|-----------------------|-----------------|----------------|-----------------------|
A|-----------------------|-----------------|----------------|-----------------------|
E|-----------------------|-----------------|----------------|-----------------------|


E|-----------------------|-----------------|----------------|-----------------------|
B|-17--17----17--15--17--|-----------------|-----15---------|-17--17----17--17--17--|
G|-----------------------|-16----16----14--|-16------16-----|-----------------------|
D|-----------------------|-----------------|----------------|-----------------------|
A|-----------------------|-----------------|----------------|-----------------------|
E|-----------------------|-----------------|----------------|-----------------------|


E|-----------------------|-----------------|----------------|-----------------------|
B|-17--17----17--15--17--|-----------------|-----15---------|-17--17----17--17--17--|
G|-----------------------|-16----16----14--|-16------16-----|-----------------------|
D|-----------------------|-----------------|----------------|-----------------------|
A|-----------------------|-----------------|----------------|-----------------------|
E|-----------------------|-----------------|----------------|-----------------------|


E|-----------------------|--------|--------|
B|-17--17----17--15--17--|--------|--------|
G|-----------------------|-16-----|-16-----|
D|-----------------------|--------|--------|
A|-----------------------|--------|--------|
E|-----------------------|--------|--------|





Track 3: 12 string low

E|--------|--------|--------|--------|--------|--------|--------|--------|--------|
B|--------|--------|--------|--------|--------|--------|--------|--------|--------|
G|--------|--------|--------|--------|--------|--------|--------|--------|--------|
D|--------|--------|--------|--------|--------|--------|--------|--------|--------|
A|--------|--------|--------|--------|--------|--------|--------|--------|--------|
E|--------|--------|--------|--------|--------|--------|--------|--------|--------|


E|--------|--------|--------|--------|--------|--------|--------|--------|--------|
B|--------|--------|--------|--------|--------|--------|--------|--------|--------|
G|--------|--------|--------|--------|--------|--------|--------|--------|--------|
D|--------|--------|--------|--------|--------|--------|--------|--------|--------|
A|--------|--------|--------|--------|--------|--------|--------|--------|--------|
E|--------|--------|--------|--------|--------|--------|--------|--------|--------|


E|--------|--------|--------|--------|--------|--------|--------|--------|--------|
B|--------|--------|--------|--------|--------|--------|--------|--------|--------|
G|--------|--------|--------|--------|--------|--------|--------|--------|--------|
D|--------|--------|--------|--------|--------|--------|--------|--------|--------|
A|--------|--------|--------|--------|--------|--------|--------|--------|--------|
E|--------|--------|--------|--------|--------|--------|--------|--------|--------|


E|--------|--------|--------|--------|--------|--------|--------|--------|--------|
B|--------|--------|--------|--------|--------|--------|--------|--------|--------|
G|--------|--------|--------|--------|--------|--------|--------|--------|--------|
D|--------|--------|--------|--------|--------|--------|--------|--------|--------|
A|--------|--------|--------|--------|--------|--------|--------|--------|--------|
E|--------|--------|--------|--------|--------|--------|--------|--------|--------|


E|--------|--------|--------|--------|--------|--------|--------|--------|--------|
B|--------|--------|--------|--------|--------|--------|--------|--------|--------|
G|--------|--------|--------|--------|--------|--------|--------|--------|--------|
D|--------|--------|--------|--------|--------|--------|--------|--------|--------|
A|--------|--------|--------|--------|--------|--------|--------|--------|--------|
E|--------|--------|--------|--------|--------|--------|--------|--------|--------|


E|--------|--------|--------|--------|--------|--------|--------|--------|--------|
B|--------|--------|--------|--------|--------|--------|--------|--------|--------|
G|--------|--------|--------|--------|--------|--------|--------|--------|--------|
D|--------|--------|--------|--------|--------|--------|--------|--------|--------|
A|--------|--------|--------|--------|--------|--------|--------|--------|--------|
E|--------|--------|--------|--------|--------|--------|--------|--------|--------|


E|--------|--------|--------|--------|--------|--------|--------|--------|--------|
B|--------|--------|--------|--------|--------|--------|--------|--------|--------|
G|--------|--------|--------|--------|--------|--------|--------|--------|--------|
D|--------|--------|--------|--------|--------|--------|--------|--------|--------|
A|--------|--------|--------|--------|--------|--------|--------|--------|--------|
E|--------|--------|--------|--------|--------|--------|--------|--------|--------|


E|--------|--------|--------|--------|--------|--------|--------|--------|--------|
B|--------|--------|--------|--------|--------|--------|--------|--------|--------|
G|--------|--------|--------|--------|--------|--------|--------|--------|--------|
D|--------|--------|--------|--------|--------|--------|--------|--------|--------|
A|--------|--------|--------|--------|--------|--------|--------|--------|--------|
E|--------|--------|--------|--------|--------|--------|--------|--------|--------|


E|--------|--------|--------|--------|--------|--------|--------|--------|--------|
B|--------|--------|--------|--------|--------|--------|--------|--------|--------|
G|--------|--------|--------|--------|--------|--------|--------|--------|--------|
D|--------|--------|--------|--------|--------|--------|--------|--------|--------|
A|--------|--------|--------|--------|--------|--------|--------|--------|--------|
E|--------|--------|--------|--------|--------|--------|--------|--------|--------|


E|--------|--------|--------|--------|--------|--------|--------|-0---0---0---0---0------------|
B|--------|--------|--------|--------|--------|--------|--------|-1---1---1---1---1------------|
G|--------|--------|--------|--------|--------|--------|--------|-0---0---0---0---0----0---0---|
D|--------|--------|--------|--------|--------|--------|--------|-2---2---2---2---2----2---0---|
A|--------|--------|--------|--------|--------|--------|--------|-3---3---3---3---3----3---2---|
E|--------|--------|--------|--------|--------|--------|--------|-0---0---0---0---0----0---3---|


E|-----3---3---3----3----3---|-0---0---0---0---0--------0---|-0---0---0---0----0----0---|
B|-----3---3---3----3----3---|-2---2---2---2---2--------0---|-0---0---0---0----0----0---|
G|-0---0---0---0----0----0---|-2---2---2---2---2--------1---|-1---1---1---1----1----1---|
D|-0---0---0---0----0----0---|-2---2---2---2---2----2---2---|-2---2---2---2----2----2---|
A|-2---2---2---2----2----2---|-0---0---0---0---0----0---2---|-2---2---2---2----2----2---|
E|-3---3---3---3----3----3---|-0---0---0---0---0----0---0---|-0---0---0---0----0----0---|


E|-0---0---0---0---0------------|-----3---3---3----3----3---|-0---0---0---0---0--------0---|
B|-1---1---1---1---1------------|-----3---3---3----3----3---|-2---2---2---2---2--------2---|
G|-0---0---0---0---0----0---0---|-0---0---0---0----0----0---|-2---2---2---2---2--------2---|
D|-2---2---2---2---2----2---0---|-0---0---0---0----0----0---|-2---2---2---2---2----2---2---|
A|-3---3---3---3---3----3---2---|-2---2---2---2----2----2---|-0---0---0---0---0----0---0---|
E|-0---0---0---0---0----0---3---|-3---3---3---3----3----3---|-0---0---0---0---0----0---0---|


E|-0---0---0---0----0----0---|-0---0---0---0---0------------|-----3---3---3----3----3---|
B|-2---2---2---2----2----2---|-1---1---1---1---1------------|-----3---3---3----3----3---|
G|-2---2---2---2----2----2---|-0---0---0---0---0----0---0---|-0---0---0---0----0----0---|
D|-2---2---2---2----2----2---|-2---2---2---2---2----2---0---|-0---0---0---0----0----0---|
A|-0---0---0---0----0----0---|-3---3---3---3---3----3---2---|-2---2---2---2----2----2---|
E|-9---0---0---0----0----0---|-0---0---0---0---0----0---3---|-3---3---3---3----3----3---|


E|-0---0---0---0---0--------0---|-0---0---0---0----0----0---|-0---0---0---0---0------------|
B|-2---2---2---2---2--------0---|-0---0---0---0----0----0---|-1---1---1---1---1------------|
G|-2---2---2---2---2--------1---|-1---1---1---1----1----1---|-0---0---0---0---0----0---0---|
D|-2---2---2---2---2----2---2---|-2---2---2---2----2----2---|-2---2---2---2---2----2---0---|
A|-0---0---0---0---0----0---2---|-2---2---2---2----2----2---|-3---3---3---3---3----3---2---|
E|-0---0---0---0---0----0---0---|-0---0---0---0----0----0---|-0---0---0---0---0----0---3---|


E|-----3---3---3----3----3---|--------|--------|--------|--------|--------|--------|
B|-----3---3---3----3----3---|--------|--------|--------|--------|--------|--------|
G|-0---0---0---0----0----0---|--------|--------|--------|--------|--------|--------|
D|-0---0---0---0----0----0---|--------|--------|--------|--------|--------|--------|
A|-2---2---2---2----2----2---|--------|--------|--------|--------|--------|--------|
E|-3---3---3---3----3----3---|--------|--------|--------|--------|--------|--------|


E|--------|--------|--------|--------|--------|--------|--------|--------|--------|
B|--------|--------|--------|--------|--------|--------|--------|--------|--------|
G|--------|--------|--------|--------|--------|--------|--------|--------|--------|
D|--------|--------|--------|--------|--------|--------|--------|--------|--------|
A|--------|--------|--------|--------|--------|--------|--------|--------|--------|
E|--------|--------|--------|--------|--------|--------|--------|--------|--------|


E|--------|--------|--------|--------|--------|--------|--------|--------|--------|
B|--------|--------|--------|--------|--------|--------|--------|--------|--------|
G|--------|--------|--------|--------|--------|--------|--------|--------|--------|
D|--------|--------|--------|--------|--------|--------|--------|--------|--------|
A|--------|--------|--------|--------|--------|--------|--------|--------|--------|
E|--------|--------|--------|--------|--------|--------|--------|--------|--------|


E|--------|--------|--------|--------|--------|--------|--------|--------|--------|
B|--------|--------|--------|--------|--------|--------|--------|--------|--------|
G|--------|--------|--------|--------|--------|--------|--------|--------|--------|
D|--------|--------|--------|--------|--------|--------|--------|--------|--------|
A|--------|--------|--------|--------|--------|--------|--------|--------|--------|
E|--------|--------|--------|--------|--------|--------|--------|--------|--------|


E|--------|--------|--------|--------|--------|--------|--------|--------|--------|
B|--------|--------|--------|--------|--------|--------|--------|--------|--------|
G|--------|--------|--------|--------|--------|--------|--------|--------|--------|
D|--------|--------|--------|--------|--------|--------|--------|--------|--------|
A|--------|--------|--------|--------|--------|--------|--------|--------|--------|
E|--------|--------|--------|--------|--------|--------|--------|--------|--------|


E|--------|--------|--------|--------|--------|--------|
B|--------|--------|--------|--------|--------|--------|
G|--------|--------|--------|--------|--------|--------|
D|--------|--------|--------|--------|--------|--------|
A|--------|--------|--------|--------|--------|--------|
E|--------|--------|--------|--------|--------|--------|





Track 4: Untitled

G|-------------|-------------|-----------------|---------------------|-------------|
D|-------------|-------------|-0----0----0-----|-2----2----2----2----|-------------|
A|-2----2------|-2----2------|-----------------|---------------------|-2----2------|
E|-------------|-------------|-----------------|---------------------|-------------|


G|-------------|-----------------|---------------------|-------------|-------------|
D|-------------|-0----0----0-----|-2----2----2----2----|-------------|-------------|
A|-2----2------|-----------------|---------------------|-2----2------|-2----2------|
E|-------------|-----------------|---------------------|-------------|-------------|


G|-----------------|---------------------|-------------|-------------|-----------------|
D|-0----0----0-----|-2----2----2----2----|-------------|-------------|-0----0----0-----|
A|-----------------|---------------------|-2----2------|-2----2------|-----------------|
E|-----------------|---------------------|-------------|-------------|-----------------|


G|---------------------|-------------|-------------|-----------------|---------------------|
D|-2----2----2----2----|-------------|-------------|-0----0----0-----|-2----2----2----2----|
A|---------------------|-2----2------|-2----2------|-----------------|---------------------|
E|---------------------|-------------|-------------|-----------------|---------------------|


G|-------------|-------------|-----------------|---------------------|-------------|
D|-------------|-------------|-0----0----0-----|-2----2----2----2----|-------------|
A|-2----2------|-2----2------|-----------------|---------------------|-2----2------|
E|-------------|-------------|-----------------|---------------------|-------------|


G|-------------|-----------------|---------------------|-------------|-------------|
D|-------------|-0----0----0-----|-2----2----2----2----|-------------|-------------|
A|-2----2------|-----------------|---------------------|-2----2------|-2----2------|
E|-------------|-----------------|---------------------|-------------|-------------|


G|-----------------|---------------------|---------------------------------|---------------------------------|
D|-0----0----0-----|-2----2----2----2----|---------------------------------|---------------------------------|
A|-----------------|---------------------|-2---2---2---2---2---2---2---2---|---------------------------------|
E|-----------------|---------------------|---------------------------------|-3---3---3---3---3---3---3---3---|


G|---------------------------------|---------------------------------|---------------------------------|
D|---------------------------------|---------------------------------|---------------------------------|
A|-2---2---2---2---2---2---2---2---|-7---7---7---7---7---7---7---7---|-2---2---2---2---2---2---2---2---|
E|---------------------------------|---------------------------------|---------------------------------|


G|---------------------------------|---------------------------------|---------------------------------|
D|---------------------------------|---------------------------------|---------------------------------|
A|---------------------------------|-2---2---2---2---2---2---2---2---|-7---7---7---7---7---7---7---7---|
E|-3---3---3---3---3---3---3---3---|---------------------------------|---------------------------------|


G|---------------------------------|---------------------------------|---------------------------------|
D|---------------------------------|---------------------------------|---------------------------------|
A|-2---2---2---2---2---2---2---2---|---------------------------------|-2---2---2---2---2---2---2---2---|
E|---------------------------------|-3---3---3---3---3---3---3---3---|---------------------------------|


G|---------------------------------|---------------------------------|---------------------------------|
D|---------------------------------|---------------------------------|---------------------------------|
A|-7---7---7---7---7---7---7---7---|-2---2---2---2---2---2---2---2---|---------------------------------|
E|---------------------------------|---------------------------------|-3---3---3---3---3---3---3---3---|


G|---------------------------------|---------------------------------|-------------|
D|---------------------------------|---------------------------------|-------------|
A|-2---2---2---2---2---2---2---2---|-7---7---7---7---7---7---7---7---|-2----2------|
E|---------------------------------|---------------------------------|-------------|


G|-------------|-----------------|---------------------|-------------|-------------|
D|-------------|-0----0----0-----|-2----2----2----2----|-------------|-------------|
A|-2----2------|-----------------|---------------------|-2----2------|-2----2------|
E|-------------|-----------------|---------------------|-------------|-------------|


G|-----------------|---------------------|-------------|-------------|-----------------|
D|-0----0----0-----|-2----2----2----2----|-------------|-------------|-0----0----0-----|
A|-----------------|---------------------|-2----2------|-2----2------|-----------------|
E|-----------------|---------------------|-------------|-------------|-----------------|


G|---------------------|-------------|-------------|-----------------|---------------------|
D|-2----2----2----2----|-------------|-------------|-0----0----0-----|-2----2----2----2----|
A|---------------------|-2----2------|-2----2------|-----------------|---------------------|
E|---------------------|-------------|-------------|-----------------|---------------------|


G|-------------|-------------|-----------------|---------------------|-------------|
D|-------------|-------------|-0----0----0-----|-2----2----2----2----|-------------|
A|-2----2------|-2----2------|-----------------|---------------------|-2----2------|
E|-------------|-------------|-----------------|---------------------|-------------|


G|-------------|-----------------|---------------------|---------------------------------|
D|-------------|-0----0----0-----|-2----2----2----2----|---------------------------------|
A|-2----2------|-----------------|---------------------|-2---2---2---2---2---2---2---2---|
E|-------------|-----------------|---------------------|---------------------------------|


G|---------------------------------|---------------------------------|---------------------------------|
D|---------------------------------|---------------------------------|---------------------------------|
A|---------------------------------|-2---2---2---2---2---2---2---2---|-7---7---7---7---7---7---7---7---|
E|-3---3---3---3---3---3---3---3---|---------------------------------|---------------------------------|


G|---------------------------------|---------------------------------|---------------------------------|
D|---------------------------------|---------------------------------|---------------------------------|
A|-2---2---2---2---2---2---2---2---|---------------------------------|-2---2---2---2---2---2---2---2---|
E|---------------------------------|-3---3---3---3---3---3---3---3---|---------------------------------|


G|---------------------------------|---------------------------------|---------------------------------|
D|---------------------------------|---------------------------------|---------------------------------|
A|-7---7---7---7---7---7---7---7---|-2---2---2---2---2---2---2---2---|---------------------------------|
E|---------------------------------|---------------------------------|-3---3---3---3---3---3---3---3---|


G|---------------------------------|---------------------------------|---------------------------------|
D|---------------------------------|---------------------------------|---------------------------------|
A|-2---2---2---2---2---2---2---2---|-7---7---7---7---7---7---7---7---|-2---2---2---2---2---2---2---2---|
E|---------------------------------|---------------------------------|---------------------------------|


G|---------------------------------|---------------------------------|---------------------------------|
D|---------------------------------|---------------------------------|---------------------------------|
A|---------------------------------|-2---2---2---2---2---2---2---2---|-7---7---7---7---7---7---7---7---|
E|-3---3---3---3---3---3---3---3---|---------------------------------|---------------------------------|


G|--------|--------|--------|--------|--------|--------|--------|--------|--------|
D|--------|--------|--------|--------|--------|--------|--------|--------|--------|
A|--------|--------|--------|--------|--------|--------|--------|--------|--------|
E|--------|--------|--------|--------|--------|--------|--------|--------|--------|


G|--------|--------|--------|--------|--------|-------------|-------------|-----------------|
D|--------|--------|--------|--------|--------|-------------|-------------|-0----0----0-----|
A|--------|--------|--------|--------|--------|-2----2------|-2----2------|-----------------|
E|--------|--------|--------|--------|--------|-------------|-------------|-----------------|


G|---------------------|-------------|-------------|-----------------|---------------------|
D|-2----2----2----2----|-------------|-------------|-0----0----0-----|-2----2----2----2----|
A|---------------------|-2----2------|-2----2------|-----------------|---------------------|
E|---------------------|-------------|-------------|-----------------|---------------------|


G|---------------------------------|---------------------------------|---------------------------------|
D|---------------------------------|---------------------------------|---------------------------------|
A|-2---2---2---2---2---2---2---2---|---------------------------------|-2---2---2---2---2---2---2---2---|
E|---------------------------------|-3---3---3---3---3---3---3---3---|---------------------------------|


G|---------------------------------|---------------------------------|---------------------------------|
D|---------------------------------|---------------------------------|---------------------------------|
A|-7---7---7---7---7---7---7---7---|-2---2---2---2---2---2---2---2---|---------------------------------|
E|---------------------------------|---------------------------------|-3---3---3---3---3---3---3---3---|


G|---------------------------------|---------------------------------|---------------------------------|
D|---------------------------------|---------------------------------|---------------------------------|
A|-2---2---2---2---2---2---2---2---|-7---7---7---7---7---7---7---7---|-2---2---2---2---2---2---2---2---|
E|---------------------------------|---------------------------------|---------------------------------|


G|---------------------------------|---------------------------------|---------------------------------|
D|---------------------------------|---------------------------------|---------------------------------|
A|---------------------------------|-2---2---2---2---2---2---2---2---|-7---7---7---7---7---7---7---7---|
E|-3---3---3---3---3---3---3---3---|---------------------------------|---------------------------------|


G|---------------------------------|---------------------------------|---------------------------------|
D|---------------------------------|---------------------------------|---------------------------------|
A|-2---2---2---2---2---2---2---2---|---------------------------------|-2---2---2---2---2---2---2---2---|
E|---------------------------------|-3---3---3---3---3---3---3---3---|---------------------------------|


G|---------------------------------|---------------------------------|---------------------------------|
D|---------------------------------|---------------------------------|---------------------------------|
A|-7---7---7---7---7---7---7---7---|-2---2---2---2---2---2---2---2---|---------------------------------|
E|---------------------------------|---------------------------------|-3---3---3---3---3---3---3---3---|


G|---------------------------------|---------------------------------|---------------------------------|
D|---------------------------------|---------------------------------|---------------------------------|
A|-2---2---2---2---2---2---2---2---|-7---7---7---7---7---7---7---7---|-2---2---2---2---2---2---2---2---|
E|---------------------------------|---------------------------------|---------------------------------|


G|---------------------------------|---------------------------------|---------------------------------|
D|---------------------------------|---------------------------------|---------------------------------|
A|---------------------------------|-2---2---2---2---2---2---2---2---|-2---2---2---2---2---2---2---2---|
E|-3---3---3---3---3---3---3---3---|---------------------------------|---------------------------------|


G|---------------------------------|---------------------------------|---------------------------------|
D|---------------------------------|---------------------------------|---------------------------------|
A|-2---2---2---2---2---2---2---2---|---------------------------------|-2---2---2---2---2---2---2---2---|
E|---------------------------------|-3---3---3---3---3---3---3---3---|---------------------------------|


G|---------------------------------|---------------------------------|---------------------------------|
D|---------------------------------|---------------------------------|---------------------------------|
A|-2---2---2---2---2---2---2---2---|-2---2---2---2---2---2---2---2---|---------------------------------|
E|---------------------------------|---------------------------------|-3---3---3---3---3---3---3---3---|


G|---------------------------------|---------------------------------|---------------------------------|
D|---------------------------------|---------------------------------|---------------------------------|
A|-2---2---2---2---2---2---2---2---|-2---2---2---2---2---2---2---2---|-2---2---2---2---2---2---2---2---|
E|---------------------------------|---------------------------------|---------------------------------|


G|---------------------------------|---------------------------------|---------------------------------|
D|---------------------------------|---------------------------------|---------------------------------|
A|---------------------------------|-2---2---2---2---2---2---2---2---|-2---2---2---2---2---2---2---2---|
E|-3---3---3---3---3---3---3---3---|---------------------------------|---------------------------------|


G|---------------------------------|---------------------------------|--------|--------|
D|---------------------------------|---------------------------------|--------|--------|
A|-2---2---2---2---2---2---2---2---|---------------------------------|--------|--------|
E|---------------------------------|-3---3---3---3---3---3---3---3---|-0------|-0------|