Site menu:

    

Browse: 0-9 A B C D E F G H I J K L N O P Q R S T U V W X Y Z

queens of the stone age - auto pilot ukulele arrangements:



Title: Auto Pilot (Ukulele Arrangement)
Artist: 
Album: 
Author: Joshua Homme, Nick Oliveri and Mark Lanegan


Track 1: Rhythm Ukulele

A|-7---9---9----12----|-7---9---9---9----7---7---7---|-9---9---9---9----9---9---9---|
E|-7---7---7----12----|-7---7---7---7----7---7---7---|-10--10--10--10---10--10--10--|
C|--------------------|------------------------------|------------------------------|
G|--------------------|------------------------------|------------------------------|


A|-7---7---7---7----7---7---7---|-7---9---9----12----|-7---9---9---9----7---7---7---|
E|-9---9---9---7----7---9---7---|-7---7---7----12----|-7---7---7---7----7---7---7---|
C|------------------------------|--------------------|------------------------------|
G|------------------------------|--------------------|------------------------------|


A|-9---9---9---9----9---9---9---|-7---7---7---7----7---7---7---|-7---9---9----12----|
E|-10--10--10--10---10--10--10--|-9---9---9---7----7---9---7---|-7---7---7----12----|
C|------------------------------|------------------------------|--------------------|
G|------------------------------|------------------------------|--------------------|


A|-7---9---9---9----7---7---7---|-9---9---9---9----9---9---9---|-7---7---7---7----7---7---7---|
E|-7---7---7---7----7---7---7---|-10--10--10--10---10--10--10--|-9---9---9---7----7---9---7---|
C|------------------------------|------------------------------|------------------------------|
G|------------------------------|------------------------------|------------------------------|


A|-7---9---9----12----|-7---9---9---9----7---7---7---|-9---9---9---9----9---9---9---|
E|-7---7---7----12----|-7---7---7---7----7---7---7---|-10--10--10--10---10--10--10--|
C|--------------------|------------------------------|------------------------------|
G|--------------------|------------------------------|------------------------------|


A|-7---7---7---7----7---7---7---|-7---9---9----12----|-7---9---9---9----7---7---7---|
E|-9---9---9---7----7---9---7---|-7---7---7----12----|-7---7---7---7----7---7---7---|
C|------------------------------|--------------------|------------------------------|
G|------------------------------|--------------------|------------------------------|


A|-9---9---9---9----9---9---9---|-7---7---7---7----7---7---7---|-7---9---9----12----|
E|-10--10--10--10---10--10--10--|-9---9---9---7----7---9---7---|-7---7---7----12----|
C|------------------------------|------------------------------|--------------------|
G|------------------------------|------------------------------|--------------------|


A|-7---9---9---9----7---7---7---|-9---9---9---9----9---9---9---|-7---7---7---7----7---7---7---|
E|-7---7---7---7----7---7---7---|-10--10--10--10---10--10--10--|-9---9---9---7----7---9---7---|
C|------------------------------|------------------------------|------------------------------|
G|------------------------------|------------------------------|------------------------------|


A|-7---9---9----12----|-7---9---9---9----7---7---7---|-9---9---9---9----9---9---9---|
E|-7---7---7----12----|-7---7---7---7----7---7---7---|-10--10--10--10---10--10--10--|
C|--------------------|------------------------------|------------------------------|
G|--------------------|------------------------------|------------------------------|


A|-7---7---7---7----7---7---7---|-7---9---9----12----|-7---9---9---9----7---7---7---|
E|-9---9---9---7----7---9---7---|-7---7---7----12----|-7---7---7---7----7---7---7---|
C|------------------------------|--------------------|------------------------------|
G|------------------------------|--------------------|------------------------------|


A|-9---9---9---9----9---9---9---|-7---7---7---7----7---7---7---|-2---2---2----2----2---2---|
E|-10--10--10--10---10--10--10--|-9---9---9---7----7---9---7---|-2---2---2----2----2---2---|
C|------------------------------|------------------------------|-3---3---3----3----3---3---|
G|------------------------------|------------------------------|-4---4---4----4----4---4---|


A|-2---2---2----2----2---2---|-2---2---2----2----2---2---|-2---2---2----2----2---2---|
E|-3---3---3----3----3---3---|-4---4---4----4----4---4---|-4---4---4----4----4---4---|
C|-2---2---2----2----2---2---|-4---4---4----4----4---4---|-4---4---4----4----4---4---|
G|-0---0---0----0----0---0---|-1---1---1----1----1---1---|-1---1---1----1----1---1---|


A|-2---2---2----2----2---2---|-2---2---2----2----2---2---|-2---2---2----2----2---2---|
E|-2---2---2----2----2---2---|-3---3---3----3----3---3---|-4---4---4----4----4---4---|
C|-3---3---3----3----3---3---|-2---2---2----2----2---2---|-4---4---4----4----4---4---|
G|-4---4---4----4----4---4---|-0---0---0----0----0---0---|-1---1---1----1----1---1---|


A|-2---2---2----2----2---2---|-2---2---2----2----2---2---|-2---2---2----2----2---2---|
E|-4---4---4----4----4---4---|-2---2---2----2----2---2---|-3---3---3----3----3---3---|
C|-4---4---4----4----4---4---|-3---3---3----3----3---3---|-2---2---2----2----2---2---|
G|-1---1---1----1----1---1---|-4---4---4----4----4---4---|-0---0---0----0----0---0---|


A|-2---2---2----2----2---2---|-2---2---2----2----2---2---|-2---2---2----2----2---2---|
E|-4---4---4----4----4---4---|-4---4---4----4----4---4---|-2---2---2----2----2---2---|
C|-4---4---4----4----4---4---|-4---4---4----4----4---4---|-3---3---3----3----3---3---|
G|-1---1---1----1----1---1---|-1---1---1----1----1---1---|-4---4---4----4----4---4---|


A|-2---2---2----2----2---2---|-2---2---2----2----2---2---|-2---2---2----2----2---2---|
E|-3---3---3----3----3---3---|-4---4---4----4----4---4---|-4---4---4----4----4---4---|
C|-2---2---2----2----2---2---|-4---4---4----4----4---4---|-4---4---4----4----4---4---|
G|-0---0---0----0----0---0---|-1---1---1----1----1---1---|-1---1---1----1----1---1---|


A|-7---9---9----12----|-7---9---9---9----7---7---7---|-9---9---9---9----9---9---9---|
E|-7---7---7----12----|-7---7---7---7----7---7---7---|-10--10--10--10---10--10--10--|
C|--------------------|------------------------------|------------------------------|
G|--------------------|------------------------------|------------------------------|


A|-7---7---7---7----7---7---7---|-7---9---9----12----|-7---9---9---9----7---7---7---|
E|-9---9---9---7----7---9---7---|-7---7---7----12----|-7---7---7---7----7---7---7---|
C|------------------------------|--------------------|------------------------------|
G|------------------------------|--------------------|------------------------------|


A|-9---9---9---9----9---9---9---|-7---7---7---7----7---7---7---|-7---9---9----12----|
E|-10--10--10--10---10--10--10--|-9---9---9---7----7---9---7---|-7---7---7----12----|
C|------------------------------|------------------------------|--------------------|
G|------------------------------|------------------------------|--------------------|


A|-7---9---9---9----7---7---7---|-9---9---9---9----9---9---9---|-7---7---7---7----7---7---7---|
E|-7---7---7---7----7---7---7---|-10--10--10--10---10--10--10--|-9---9---9---7----7---9---7---|
C|------------------------------|------------------------------|------------------------------|
G|------------------------------|------------------------------|------------------------------|


A|-7---9---9----12----|-7---9---9---9----7---7---7---|-9---9---9---9----9---9---9---|
E|-7---7---7----12----|-7---7---7---7----7---7---7---|-10--10--10--10---10--10--10--|
C|--------------------|------------------------------|------------------------------|
G|--------------------|------------------------------|------------------------------|


A|-7---7---7---7----7---7---7---|-7---9---9----12----|-7---9---9---9----7---7---7---|
E|-9---9---9---7----7---9---7---|-7---7---7----12----|-7---7---7---7----7---7---7---|
C|------------------------------|--------------------|------------------------------|
G|------------------------------|--------------------|------------------------------|


A|-9---9---9---9----9---9---9---|-7---7---7---7----7---7---7---|-7---9---9----12----|
E|-10--10--10--10---10--10--10--|-9---9---9---7----7---9---7---|-7---7---7----12----|
C|------------------------------|------------------------------|--------------------|
G|------------------------------|------------------------------|--------------------|


A|-7---9---9---9----7---7---7---|-9---9---9---9----9---9---9---|-7---7---7---7----7---7---7---|
E|-7---7---7---7----7---7---7---|-10--10--10--10---10--10--10--|-9---9---9---7----7---9---7---|
C|------------------------------|------------------------------|------------------------------|
G|------------------------------|------------------------------|------------------------------|


A|-2---2---2----2----2---2---|-2---2---2----2----2---2---|-2---2---2----2----2---2---|
E|-2---2---2----2----2---2---|-3---3---3----3----3---3---|-4---4---4----4----4---4---|
C|-3---3---3----3----3---3---|-2---2---2----2----2---2---|-4---4---4----4----4---4---|
G|-4---4---4----4----4---4---|-0---0---0----0----0---0---|-1---1---1----1----1---1---|


A|-2---2---2----2----2---2---|-2---2---2----2----2---2---|-2---2---2----2----2---2---|
E|-4---4---4----4----4---4---|-2---2---2----2----2---2---|-3---3---3----3----3---3---|
C|-4---4---4----4----4---4---|-3---3---3----3----3---3---|-2---2---2----2----2---2---|
G|-1---1---1----1----1---1---|-4---4---4----4----4---4---|-0---0---0----0----0---0---|


A|-2---2---2----2----2---2---|-2---2---2----2----2---2---|-2---2---2----2----2---2---|
E|-4---4---4----4----4---4---|-4---4---4----4----4---4---|-2---2---2----2----2---2---|
C|-4---4---4----4----4---4---|-4---4---4----4----4---4---|-3---3---3----3----3---3---|
G|-1---1---1----1----1---1---|-1---1---1----1----1---1---|-4---4---4----4----4---4---|


A|-2---2---2----2----2---2---|-2---2---2----2----2---2---|-2---2---2----2----2---2---|
E|-3---3---3----3----3---3---|-4---4---4----4----4---4---|-4---4---4----4----4---4---|
C|-2---2---2----2----2---2---|-4---4---4----4----4---4---|-4---4---4----4----4---4---|
G|-0---0---0----0----0---0---|-1---1---1----1----1---1---|-1---1---1----1----1---1---|


A|-2---2---2----2----2---2---|-2---2---2----2----2---2---|-2---2---2----2----2---2---|
E|-2---2---2----2----2---2---|-3---3---3----3----3---3---|-4---4---4----4----4---4---|
C|-3---3---3----3----3---3---|-2---2---2----2----2---2---|-4---4---4----4----4---4---|
G|-4---4---4----4----4---4---|-0---0---0----0----0---0---|-1---1---1----1----1---1---|


A|-2---2---2----2----2---2---|-3---3---3---3---3--------2---|-2---2---2----2---2---2---2---|
E|-4---4---4----4----4---4---|-0---0---0---0---0----0---3---|-3---3---3----3---3---3---3---|
C|-4---4---4----4----4---4---|-0---0---0---0---0----0---2---|-2---2---2----2---2---2---2---|
G|-1---1---1----1----1---1---|-5---5---5---5---5--------0---|-0---0---0----0---0---0---0---|


A|-0---0---0---0---0--------2---|-2---2---2----2---2---2---2---|-3---3---3---3---3--------2---|
E|-0---0---0---0---0----0---4---|-4---4---4----4---4---4---4---|-0---0---0---0---0----0---3---|
C|-1---1---1---1---1----1---4---|-4---4---4----4---4---4---4---|-0---0---0---0---0----0---2---|
G|-2---2---2---2---2--------1---|-1---1---1----1---1---1---1---|-5---5---5---5---5--------0---|


A|-2---2---2----2---2---2---2---|-0---0---0---0---0----0---0---|-0---0---0----0---0---0---0---|
E|-3---3---3----3---3---3---3---|-0---0---0---0---0----0---0---|-0---0---0----0---0---0---0---|
C|-2---2---2----2---2---2---2---|-1---1---1---1---1----1---1---|-1---1---1----1---1---1---1---|
G|-0---0---0----0---0---0---0---|-2---2---2---2---2----2---2---|-2---2---2----2---2---2---2---|


A|-3---3---3---3---3--------2---|-2---2---2----2---2---2---2---|-0---0---0---0---0--------2---|
E|-0---0---0---0---0----0---3---|-3---3---3----3---3---3---3---|-0---0---0---0---0----0---4---|
C|-0---0---0---0---0----0---2---|-2---2---2----2---2---2---2---|-1---1---1---1---1----1---4---|
G|-5---5---5---5---5--------0---|-0---0---0----0---0---0---0---|-2---2---2---2---2--------1---|


A|-2---2---2----2---2---2---2---|-3---3---3---3---3--------2---|-2---2---2----2----2----|
E|-4---4---4----4---4---4---4---|-0---0---0---0---0----0---3---|-3---3---3----3----3----|
C|-4---4---4----4---4---4---4---|-0---0---0---0---0----0---2---|-2---2---2----2----2----|
G|-1---1---1----1---1---1---1---|-5---5---5---5---5--------0---|-0---0---0----0----0----|


A|-7---9---9----12----|-7---9---9---9----7---7---7---|-9---9---9---9----9---9---9---|
E|-7---7---7----12----|-7---7---7---7----7---7---7---|-10--10--10--10---10--10--10--|
C|--------------------|------------------------------|------------------------------|
G|--------------------|------------------------------|------------------------------|


A|-7---7---7---7----7---7---7---|-7---9---9----12----|-7---9---9---9----7---7---7---|
E|-9---9---9---7----7---9---7---|-7---7---7----12----|-7---7---7---7----7---7---7---|
C|------------------------------|--------------------|------------------------------|
G|------------------------------|--------------------|------------------------------|


A|-9---9---9---9----9---9---9---|-7---7---7---7----7---7---7---|-2---2---2----2----2---2---|
E|-10--10--10--10---10--10--10--|-9---9---9---7----7---9---7---|-2---2---2----2----2---2---|
C|------------------------------|------------------------------|-3---3---3----3----3---3---|
G|------------------------------|------------------------------|-4---4---4----4----4---4---|


A|-2---2---2----2----2---2---|-2---2---2----2----2---2---|-2---2---2----2----2---2---|
E|-3---3---3----3----3---3---|-4---4---4----4----4---4---|-4---4---4----4----4---4---|
C|-2---2---2----2----2---2---|-4---4---4----4----4---4---|-4---4---4----4----4---4---|
G|-0---0---0----0----0---0---|-1---1---1----1----1---1---|-1---1---1----1----1---1---|


A|-2---2---2----2----2---2---|-2---2---2----2----2---2---|-2---2---2----2----2---2---|
E|-2---2---2----2----2---2---|-3---3---3----3----3---3---|-4---4---4----4----4---4---|
C|-3---3---3----3----3---3---|-2---2---2----2----2---2---|-4---4---4----4----4---4---|
G|-4---4---4----4----4---4---|-0---0---0----0----0---0---|-1---1---1----1----1---1---|


A|-2---2---2----2----2---2---|-2---2---2----2----2---2---|-2---2---2----2----2---2---|
E|-4---4---4----4----4---4---|-2---2---2----2----2---2---|-3---3---3----3----3---3---|
C|-4---4---4----4----4---4---|-3---3---3----3----3---3---|-2---2---2----2----2---2---|
G|-1---1---1----1----1---1---|-4---4---4----4----4---4---|-0---0---0----0----0---0---|


A|-2---2---2----2----2---2---|-2---2---2----2----2---2---|-2---2---2----2----2---2---|
E|-4---4---4----4----4---4---|-4---4---4----4----4---4---|-2---2---2----2----2---2---|
C|-4---4---4----4----4---4---|-4---4---4----4----4---4---|-3---3---3----3----3---3---|
G|-1---1---1----1----1---1---|-1---1---1----1----1---1---|-4---4---4----4----4---4---|


A|-2---2---2----2----2---2---|-2---2---2----2----2---2---|-2---2---2----2----2---2---|
E|-3---3---3----3----3---3---|-4---4---4----4----4---4---|-4---4---4----4----4---4---|
C|-2---2---2----2----2---2---|-4---4---4----4----4---4---|-4---4---4----4----4---4---|
G|-0---0---0----0----0---0---|-1---1---1----1----1---1---|-1---1---1----1----1---1---|


A|-2---2---2----2----2---2---|-2---2---2----2----2---2---|-2---2---2----2----2---2---|
E|-2---2---2----2----2---2---|-3---3---3----3----3---3---|-4---4---4----4----4---4---|
C|-3---3---3----3----3---3---|-2---2---2----2----2---2---|-4---4---4----4----4---4---|
G|-4---4---4----4----4---4---|-0---0---0----0----0---0---|-1---1---1----1----1---1---|


A|-2---2---2----2----2---2---|-2---2---2----2----2---2---|-2---2---2----2----2---2---|
E|-4---4---4----4----4---4---|-2---2---2----2----2---2---|-3---3---3----3----3---3---|
C|-4---4---4----4----4---4---|-3---3---3----3----3---3---|-2---2---2----2----2---2---|
G|-1---1---1----1----1---1---|-4---4---4----4----4---4---|-0---0---0----0----0---0---|


A|-2---2---2----2----2---2---|-2---2---2----2----2---2---|-2---2---2----2----2---2---|
E|-4---4---4----4----4---4---|-4---4---4----4----4---4---|-2---2---2----2----2---2---|
C|-4---4---4----4----4---4---|-4---4---4----4----4---4---|-3---3---3----3----3---3---|
G|-1---1---1----1----1---1---|-1---1---1----1----1---1---|-4---4---4----4----4---4---|


A|-2---2---2----2----2---2---|-2---2---2----2----2---2---|-2---2---2----2----2---2---|
E|-3---3---3----3----3---3---|-4---4---4----4----4---4---|-4---4---4----4----4---4---|
C|-2---2---2----2----2---2---|-4---4---4----4----4---4---|-4---4---4----4----4---4---|
G|-0---0---0----0----0---0---|-1---1---1----1----1---1---|-1---1---1----1----1---1---|


A|-2---2---2----2----2---2---|-2---2---2----2----2---2---|-2---2---2----2----2---2---|
E|-2---2---2----2----2---2---|-3---3---3----3----3---3---|-4---4---4----4----4---4---|
C|-3---3---3----3----3---3---|-2---2---2----2----2---2---|-4---4---4----4----4---4---|
G|-4---4---4----4----4---4---|-0---0---0----0----0---0---|-1---1---1----1----1---1---|


A|-2---2---2----2----2---2---|-2---2---2----2----2---2---|-2---2---2----2----2---2---|
E|-4---4---4----4----4---4---|-2---2---2----2----2---2---|-3---3---3----3----3---3---|
C|-4---4---4----4----4---4---|-3---3---3----3----3---3---|-2---2---2----2----2---2---|
G|-1---1---1----1----1---1---|-4---4---4----4----4---4---|-0---0---0----0----0---0---|


A|-2---2---2----2----2---2---|-2---2---2----2----2---2---|-2---2---2----2----2---2---|
E|-4---4---4----4----4---4---|-4---4---4----4----4---4---|-2---2---2----2----2---2---|
C|-4---4---4----4----4---4---|-4---4---4----4----4---4---|-3---3---3----3----3---3---|
G|-1---1---1----1----1---1---|-1---1---1----1----1---1---|-4---4---4----4----4---4---|


A|-2---2---2----2----2---2---|-2------|-2------|
E|-3---3---3----3----3---3---|-4------|-4------|
C|-2---2---2----2----2---2---|-4------|-4------|
G|-0---0---0----0----0---0---|-1------|-1------|





Track 2: Lead Ukulele

A|--------|--------|--------|--------|--------|--------|--------|-----------------|
E|--------|--------|--------|--------|--------|--------|--------|-----------------|
C|--------|--------|--------|--------|--------|--------|--------|------------5----|
G|--------|--------|--------|--------|--------|--------|--------|-----------------|


A|-----------------|------------|------------|----------------|-12-------------|----------------|
E|-7-----7---------|-7------7---|-7------7---|-7------5---7---|-----14---------|--------5---7---|
C|------------5----|------------|------------|----------------|---------11-----|----------------|
G|-----------------|------------|------------|----------------|----------------|----------------|


A|-5---7---7----7-----|-7-----7-----|--------|--------|--------|--------|--------|
E|--------------------|-------------|--------|--------|--------|--------|--------|
C|--------------------|-------------|--------|--------|--------|--------|--------|
G|--------------------|-------------|--------|--------|--------|--------|--------|


A|--------|--------|--------|--------|--------|--------|--------|--------|--------|
E|--------|--------|--------|--------|--------|--------|--------|--------|--------|
C|--------|--------|--------|--------|--------|--------|--------|--------|--------|
G|--------|--------|--------|--------|--------|--------|--------|--------|--------|


A|--------|--------|-----------------------|-----------------------|-----------------|
E|--------|--------|-5---5-----5---5---5---|-5---5-----5---3---5---|-----------------|
C|--------|--------|-----------------------|-----------------------|-4-----4-----2---|
G|--------|--------|-----------------------|-----------------------|-----------------|


A|----------------|-----------------------|-----------------------|-----------------|
E|-----3----------|-5---5-----5---5---5---|-5---5-----5---3---5---|-----------------|
C|-4-------4------|-----------------------|-----------------------|-4-----4-----2---|
G|----------------|-----------------------|-----------------------|-----------------|


A|----------------|-----------------------|-----------------------|-----------------|
E|-----3----------|-5---5-----5---5---5---|-5---5-----5---3---5---|-----------------|
C|-4-------4------|-----------------------|-----------------------|-4-----4-----2---|
G|----------------|-----------------------|-----------------------|-----------------|


A|----------------|-----------------------|-----------------------|-----------------|
E|-----3----------|-5---5-----5---5---5---|-5---5-----5---3---5---|-----------------|
C|-4-------4------|-----------------------|-----------------------|-4-----4-----2---|
G|----------------|-----------------------|-----------------------|-----------------|


A|----------------|--------|--------|--------|--------|--------|--------|--------|
E|-----3----------|--------|--------|--------|--------|--------|--------|--------|
C|-4-------4------|--------|--------|--------|--------|--------|--------|--------|
G|----------------|--------|--------|--------|--------|--------|--------|--------|


A|--------|--------|--------|--------|--------|--------|--------|--------|--------|
E|--------|--------|--------|-7------|-7------|--------|--------|--------|--------|
C|--------|--------|--------|--------|--------|--------|--------|--------|--------|
G|--------|--------|--------|--------|--------|--------|--------|--------|--------|


A|--------|--------|--------|--------|--------|--------|--------|--------|-----------------------|
E|--------|--------|-7------|-7------|--------|--------|--------|--------|-5---5-----5---5---5---|
C|--------|--------|--------|--------|--------|--------|--------|--------|-----------------------|
G|--------|--------|--------|--------|--------|--------|--------|--------|-----------------------|


A|-----------------------|-----------------|----------------|-----------------------|
E|-5---5-----5---3---5---|-----------------|-----3----------|-5---5-----5---5---5---|
C|-----------------------|-4-----4-----2---|-4-------4------|-----------------------|
G|-----------------------|-----------------|----------------|-----------------------|


A|-----------------------|-----------------|----------------|-----------------------|
E|-5---5-----5---3---5---|-----------------|-----3----------|-7---7-----7---7---7---|
C|-----------------------|-4-----4-----2---|-4-------4------|-----------------------|
G|-----------------------|-----------------|----------------|-----------------------|


A|-----------------------|-----------------|----------------|-----------------------|
E|-7---7-----7---5---7---|-----------------|-----5----------|-5---5-----5---5---5---|
C|-----------------------|-6-----6-----4---|-6-------6------|-----------------------|
G|-----------------------|-----------------|----------------|-----------------------|


A|-----------------------|-----------------|----------------|--------|--------|--------|
E|-5---5-----5---3---5---|-----------------|-----3----------|--------|--------|--------|
C|-----------------------|-4-----4-----2---|-4-------4------|--------|--------|--------|
G|-----------------------|-----------------|----------------|--------|--------|--------|


A|--------|--------|--------|--------|--------|--------|--------|--------|--------|
E|--------|--------|--------|--------|--------|--------|--------|--------|--------|
C|--------|--------|--------|--------|--------|--------|--------|--------|--------|
G|--------|--------|--------|--------|--------|--------|--------|--------|--------|


A|--------|--------|--------|--------|--------|--------|--------|--------|--------|
E|--------|--------|--------|--------|-7------|-7------|--------|--------|-7------|
C|--------|--------|--------|--------|--------|--------|--------|--------|--------|
G|--------|--------|--------|--------|--------|--------|--------|--------|--------|


A|--------|-----------------------|-----------------------|-----------------|----------------|
E|-7------|-5---5-----5---5---5---|-5---5-----5---3---5---|-----------------|-----3----------|
C|--------|-----------------------|-----------------------|-4-----4-----2---|-4-------4------|
G|--------|-----------------------|-----------------------|-----------------|----------------|


A|-----------------------|-----------------------|-----------------|----------------|
E|-5---5-----5---5---5---|-5---5-----5---3---5---|-----------------|-----3----------|
C|-----------------------|-----------------------|-4-----4-----2---|-4-------4------|
G|-----------------------|-----------------------|-----------------|----------------|


A|-----------------------|-----------------------|-----------------|----------------|
E|-5---5-----5---5---5---|-5---5-----5---3---5---|-----------------|-----3----------|
C|-----------------------|-----------------------|-4-----4-----2---|-4-------4------|
G|-----------------------|-----------------------|-----------------|----------------|


A|-----------------------|--------------------|-----------------|-----5----------|
E|-----------------------|--------------------|-7-----7-----5---|-7-------7------|
C|-4---4-----4---4---4---|-4---4-----4---2----|-----------------|----------------|
G|-----------------------|--------------------|-----------------|----------------|


A|-----------------------|-----------------------|-----------------|----------------|
E|-7---7-----7---7---7---|-7---7-----7---5---7---|-----------------|-----5----------|
C|-----------------------|-----------------------|-6-----6-----4---|-6-------6------|
G|-----------------------|-----------------------|-----------------|----------------|


A|-----------------------|---------------7----|-7-----7---------|-5----------|-7---7-----7---7---7---|
E|-7---7-----7---7---7---|-7---7-----7--------|-------------7---|-----7------|-----------------------|
C|-----------------------|--------------------|-----------------|------------|-----------------------|
G|-----------------------|--------------------|-----------------|------------|-----------------------|


A|-7---7-----7---5---7---|-------------|-----5----------|-7---7-----7---7---7---|-7---7-----7---5---7---|
E|-----------------------|-7-----5-----|-7-------7------|-----------------------|-----------------------|
C|-----------------------|-------------|----------------|-----------------------|-----------------------|
G|-----------------------|-------------|----------------|-----------------------|-----------------------|


A|-------------|-----5----------|-7---7-----7---7---7---|-7---7-----7---5---7---|-------------|
E|-7-----5-----|-7-------7------|-----------------------|-----------------------|-7-----5-----|
C|-------------|----------------|-----------------------|-----------------------|-------------|
G|-------------|----------------|-----------------------|-----------------------|-------------|


A|-----5----------|-7---7-----7---7---7---|-7---7-----7---5---7---|--------|--------|
E|-7-------7------|-----------------------|-----------------------|-7------|-7------|
C|----------------|-----------------------|-----------------------|--------|--------|
G|----------------|-----------------------|-----------------------|--------|--------|





Track 3: Bass Ukulele

A|-2----2------|-2----2------|-5----5----5-----|-7----7----7----7----|-2----2------|
E|-------------|-------------|-----------------|---------------------|-------------|
C|-------------|-------------|-----------------|---------------------|-------------|
G|-------------|-------------|-----------------|---------------------|-------------|


A|-2----2------|-5----5----5-----|-7----7----7----7----|-2----2------|-2----2------|
E|-------------|-----------------|---------------------|-------------|-------------|
C|-------------|-----------------|---------------------|-------------|-------------|
G|-------------|-----------------|---------------------|-------------|-------------|


A|-5----5----5-----|-7----7----7----7----|-2----2------|-2----2------|-5----5----5-----|
E|-----------------|---------------------|-------------|-------------|-----------------|
C|-----------------|---------------------|-------------|-------------|-----------------|
G|-----------------|---------------------|-------------|-------------|-----------------|


A|-7----7----7----7----|-2----2------|-2----2------|-5----5----5-----|-7----7----7----7----|
E|---------------------|-------------|-------------|-----------------|---------------------|
C|---------------------|-------------|-------------|-----------------|---------------------|
G|---------------------|-------------|-------------|-----------------|---------------------|


A|-2----2------|-2----2------|-5----5----5-----|-7----7----7----7----|-2----2------|
E|-------------|-------------|-----------------|---------------------|-------------|
C|-------------|-------------|-----------------|---------------------|-------------|
G|-------------|-------------|-----------------|---------------------|-------------|


A|-2----2------|-5----5----5-----|-7----7----7----7----|-2----2------|-2----2------|
E|-------------|-----------------|---------------------|-------------|-------------|
C|-------------|-----------------|---------------------|-------------|-------------|
G|-------------|-----------------|---------------------|-------------|-------------|


A|-5----5----5-----|-7----7----7----7----|-2---2---2---2---2---2---2---2---|---------------------------------|
E|-----------------|---------------------|---------------------------------|-3---3---3---3---3---3---3---3---|
C|-----------------|---------------------|---------------------------------|---------------------------------|
G|-----------------|---------------------|---------------------------------|---------------------------------|


A|---------------------------------|---------------------------------|-2---2---2---2---2---2---2---2---|
E|-4---4---4---4---4---4---4---4---|-0---0---0---0---0---0---0---0---|---------------------------------|
C|---------------------------------|---------------------------------|---------------------------------|
G|---------------------------------|---------------------------------|---------------------------------|


A|---------------------------------|---------------------------------|---------------------------------|
E|-3---3---3---3---3---3---3---3---|-4---4---4---4---4---4---4---4---|-0---0---0---0---0---0---0---0---|
C|---------------------------------|---------------------------------|---------------------------------|
G|---------------------------------|---------------------------------|---------------------------------|


A|-2---2---2---2---2---2---2---2---|---------------------------------|---------------------------------|
E|---------------------------------|-3---3---3---3---3---3---3---3---|-4---4---4---4---4---4---4---4---|
C|---------------------------------|---------------------------------|---------------------------------|
G|---------------------------------|---------------------------------|---------------------------------|


A|---------------------------------|-2---2---2---2---2---2---2---2---|---------------------------------|
E|-0---0---0---0---0---0---0---0---|---------------------------------|-3---3---3---3---3---3---3---3---|
C|---------------------------------|---------------------------------|---------------------------------|
G|---------------------------------|---------------------------------|---------------------------------|


A|---------------------------------|---------------------------------|-2----2------|
E|-4---4---4---4---4---4---4---4---|-0---0---0---0---0---0---0---0---|-------------|
C|---------------------------------|---------------------------------|-------------|
G|---------------------------------|---------------------------------|-------------|


A|-2----2------|-5----5----5-----|-7----7----7----7----|-2----2------|-2----2------|
E|-------------|-----------------|---------------------|-------------|-------------|
C|-------------|-----------------|---------------------|-------------|-------------|
G|-------------|-----------------|---------------------|-------------|-------------|


A|-5----5----5-----|-7----7----7----7----|-2----2------|-2----2------|-5----5----5-----|
E|-----------------|---------------------|-------------|-------------|-----------------|
C|-----------------|---------------------|-------------|-------------|-----------------|
G|-----------------|---------------------|-------------|-------------|-----------------|


A|-7----7----7----7----|-2----2------|-2----2------|-5----5----5-----|-7----7----7----7----|
E|---------------------|-------------|-------------|-----------------|---------------------|
C|---------------------|-------------|-------------|-----------------|---------------------|
G|---------------------|-------------|-------------|-----------------|---------------------|


A|-2---2---2---2---2---2---2---2---|---------------------------------|---------------------------------|
E|---------------------------------|-3---3---3---3---3---3---3---3---|-4---4---4---4---4---4---4---4---|
C|---------------------------------|---------------------------------|---------------------------------|
G|---------------------------------|---------------------------------|---------------------------------|


A|---------------------------------|-2---2---2---2---2---2---2---2---|---------------------------------|
E|-0---0---0---0---0---0---0---0---|---------------------------------|-3---3---3---3---3---3---3---3---|
C|---------------------------------|---------------------------------|---------------------------------|
G|---------------------------------|---------------------------------|---------------------------------|


A|---------------------------------|---------------------------------|-2---2---2---2---2---2---2---2---|
E|-4---4---4---4---4---4---4---4---|-0---0---0---0---0---0---0---0---|---------------------------------|
C|---------------------------------|---------------------------------|---------------------------------|
G|---------------------------------|---------------------------------|---------------------------------|


A|---------------------------------|---------------------------------|---------------------------------|
E|-3---3---3---3---3---3---3---3---|-4---4---4---4---4---4---4---4---|-0---0---0---0---0---0---0---0---|
C|---------------------------------|---------------------------------|---------------------------------|
G|---------------------------------|---------------------------------|---------------------------------|


A|-2---2---2---2---2---2---2---2---|---------------------------------|---------------------------------|
E|---------------------------------|-3---3---3---3---3---3---3---3---|-4---4---4---4---4---4---4---4---|
C|---------------------------------|---------------------------------|---------------------------------|
G|---------------------------------|---------------------------------|---------------------------------|


A|---------------------------------|--------|--------|--------|--------|--------|--------|
E|-0---0---0---0---0---0---0---0---|--------|--------|--------|--------|--------|--------|
C|---------------------------------|--------|--------|--------|--------|--------|--------|
G|---------------------------------|--------|--------|--------|--------|--------|--------|


A|--------|--------|--------|--------|--------|--------|--------|--------|-2----2------|
E|--------|--------|--------|--------|--------|--------|--------|--------|-------------|
C|--------|--------|--------|--------|--------|--------|--------|--------|-------------|
G|--------|--------|--------|--------|--------|--------|--------|--------|-------------|


A|-2----2------|-5----5----5-----|-7----7----7----7----|-2----2------|-2----2------|
E|-------------|-----------------|---------------------|-------------|-------------|
C|-------------|-----------------|---------------------|-------------|-------------|
G|-------------|-----------------|---------------------|-------------|-------------|


A|-5----5----5-----|-7----7----7----7----|-2---2---2---2---2---2---2---2---|---------------------------------|
E|-----------------|---------------------|---------------------------------|-3---3---3---3---3---3---3---3---|
C|-----------------|---------------------|---------------------------------|---------------------------------|
G|-----------------|---------------------|---------------------------------|---------------------------------|


A|---------------------------------|---------------------------------|-2---2---2---2---2---2---2---2---|
E|-4---4---4---4---4---4---4---4---|-0---0---0---0---0---0---0---0---|---------------------------------|
C|---------------------------------|---------------------------------|---------------------------------|
G|---------------------------------|---------------------------------|---------------------------------|


A|---------------------------------|---------------------------------|---------------------------------|
E|-3---3---3---3---3---3---3---3---|-4---4---4---4---4---4---4---4---|-0---0---0---0---0---0---0---0---|
C|---------------------------------|---------------------------------|---------------------------------|
G|---------------------------------|---------------------------------|---------------------------------|


A|-2---2---2---2---2---2---2---2---|---------------------------------|---------------------------------|
E|---------------------------------|-3---3---3---3---3---3---3---3---|-4---4---4---4---4---4---4---4---|
C|---------------------------------|---------------------------------|---------------------------------|
G|---------------------------------|---------------------------------|---------------------------------|


A|---------------------------------|-2---2---2---2---2---2---2---2---|---------------------------------|
E|-0---0---0---0---0---0---0---0---|---------------------------------|-3---3---3---3---3---3---3---3---|
C|---------------------------------|---------------------------------|---------------------------------|
G|---------------------------------|---------------------------------|---------------------------------|


A|---------------------------------|---------------------------------|-2---2---2---2---2---2---2---2---|
E|-4---4---4---4---4---4---4---4---|-0---0---0---0---0---0---0---0---|---------------------------------|
C|---------------------------------|---------------------------------|---------------------------------|
G|---------------------------------|---------------------------------|---------------------------------|


A|---------------------------------|---------------------------------|---------------------------------|
E|-3---3---3---3---3---3---3---3---|-4---4---4---4---4---4---4---4---|-0---0---0---0---0---0---0---0---|
C|---------------------------------|---------------------------------|---------------------------------|
G|---------------------------------|---------------------------------|---------------------------------|


A|-2---2---2---2---2---2---2---2---|---------------------------------|---------------------------------|
E|---------------------------------|-3---3---3---3---3---3---3---3---|-4---4---4---4---4---4---4---4---|
C|---------------------------------|---------------------------------|---------------------------------|
G|---------------------------------|---------------------------------|---------------------------------|


A|---------------------------------|-2---2---2---2---2---2---2---2---|---------------------------------|
E|-4---4---4---4---4---4---4---4---|---------------------------------|-3---3---3---3---3---3---3---3---|
C|---------------------------------|---------------------------------|---------------------------------|
G|---------------------------------|---------------------------------|---------------------------------|


A|---------------------------------|---------------------------------|-2---2---2---2---2---2---2---2---|
E|-4---4---4---4---4---4---4---4---|-4---4---4---4---4---4---4---4---|---------------------------------|
C|---------------------------------|---------------------------------|---------------------------------|
G|---------------------------------|---------------------------------|---------------------------------|


A|---------------------------------|---------------------------------|---------------------------------|
E|-3---3---3---3---3---3---3---3---|-4---4---4---4---4---4---4---4---|-4---4---4---4---4---4---4---4---|
C|---------------------------------|---------------------------------|---------------------------------|
G|---------------------------------|---------------------------------|---------------------------------|


A|-2---2---2---2---2---2---2---2---|---------------------------------|---------------------------------|
E|---------------------------------|-3---3---3---3---3---3---3---3---|-4---4---4---4---4---4---4---4---|
C|---------------------------------|---------------------------------|---------------------------------|
G|---------------------------------|---------------------------------|---------------------------------|


A|---------------------------------|-2---2---2---2---2---2---2---2---|---------------------------------|
E|-4---4---4---4---4---4---4---4---|---------------------------------|-3---3---3---3---3---3---3---3---|
C|---------------------------------|---------------------------------|---------------------------------|
G|---------------------------------|---------------------------------|---------------------------------|


A|--------|--------|--------|--------|--------|--------|--------|--------|--------|
E|-0------|-0------|--------|--------|--------|--------|--------|--------|--------|
C|--------|--------|--------|--------|--------|--------|--------|--------|--------|
G|--------|--------|--------|--------|--------|--------|--------|--------|--------|


A|--------|
E|--------|
C|--------|
G|--------|