Site menu:

    

Browse: 0-9 A B C D E F G H I J K L N O P Q R S T U V W X Y Z

queens of the stone age - a song for the deaf ukulele arrangement:



Title: A Song For The Deaf (Ukulele Arrangement)
Artist: 
Album: 
Author: Joshua Homme, Mark Lanegan & Nick Oliveri


Track 1: Guitar

A|---------------------|-----------10----10--|------6-----6-----|---------------------|
E|---------------------|---------------------|------------------|-15---15--15----15---|
C|-2-----2----2---2----|-2---14--------------|------------------|---------------------|
G|---------------------|---------------------|------------------|---------------------|


A|-------------|-------------|-------------|-------------|-------------|---------------------|
E|-------------|-------------|-------------|-------------|-------------|-4----4---4-----4----|
C|-------------|-------------|-------------|-------------|-------------|---------------------|
G|-------------|-------------|-------------|-------------|-------------|---------------------|


A|----------------------|----------------------7----7--------|----------------------------|
E|------------9--8------|-----9--8-------9--8----------9--8--|------9--8-------9--8-------|
C|-------0----------0---|-----------0------------------------|-0----------0----------0----|
G|----------------------|------------------------------------|----------------------------|


A|-------7----7-----------------------|----------------------7----7--------|----------------------------|
E|-9--8----------9--8-------9--8------|-----9--8-------9--8----------9--8--|------9--8-------9--8-------|
C|---------------------0----------0---|-----------0------------------------|-0----------0----------0----|
G|------------------------------------|------------------------------------|----------------------------|


A|-------7----7-----------------------|----------------------7----7--------|----------------------------|
E|-9--8----------9--8-------9--8------|-----9--8-------9--8----------9--8--|------9--8-------9--8-------|
C|---------------------0----------0---|-----------0------------------------|-0----------0----------0----|
G|------------------------------------|------------------------------------|----------------------------|


A|-------7----7-----------------------|----------------------7----7--------|----------------------------|
E|-9--8----------9--8-------9--8------|-----9--8-------9--8----------9--8--|------9--8-------9--8-------|
C|---------------------0----------0---|-----------0------------------------|-0----------0----------0----|
G|------------------------------------|------------------------------------|----------------------------|


A|-------7----7-----------------------|----------------------7----7--------|----------------------------|
E|-9--8----------9--8-------9--8------|-----9--8-------9--8----------9--8--|------9--8-------9--8-------|
C|---------------------0----------0---|-----------0------------------------|-0----------0----------0----|
G|------------------------------------|------------------------------------|----------------------------|


A|-------7----7------------------------|------------------------|---------------------------|
E|-9--8----------9--8--8----8---8--8---|------10---10--10-10----|-6----6---6--6-----6----6--|
C|---------------------5----5---5--5---|------7----7---7--7-----|-3----3---3--3-----3----3--|
G|-------------------------------------|------------------------|---------------------------|


A|-----------------------------|------------------------|-6------6----|-------7-----|
E|----6--6-----8----8---8--8---|------10---10--10-10----|-6------6----|-------------|
C|----3--3-----5----5---5--5---|------7----7---7--7-----|-3------3----|-------------|
G|-----------------------------|------------------------|-3------3----|-------------|


A|------7------|-7------7----|-----------------------------------|-------------------------------------------------|
E|-------------|-------------|-----------------------------------|-------------------------------------------------|
C|-------------|-------------|-------8--7--5--7--5--7---8--7--5--|-7--5--7---8--7--5--7--5--7---8--7--5--7--5--7---|
G|-------------|-------------|-----------------------------------|-------------------------------------------------|


A|------------------------------------------------------|----------------------------------------------------|
E|------------------------------------------------------|----------------------------------------------------|
C|-5--4--2--4--2--4---5--4--2--4--2--4---5--4--2--4--2--|-4---5--4--2--4--2--4---8--7--5--7--5--7---8--7--5--|
G|------------------------------------------------------|----------------------------------------------------|


A|-------------------------------------------------|------------------------------------------------------|
E|-------------------------------------------------|------------------------------------------------------|
C|-7--5--7---8--7--5--7--5--7---8--7--5--7--5--7---|-5--4--2--4--2--4---5--4--2--4--2--4---5--4--2--4--2--|
G|-------------------------------------------------|------------------------------------------------------|


A|---------------------------------------|----------------------7----7--------|----------------------------|
E|-----------------------------9--8------|-----9--8-------9--8----------9--8--|------9--8-------9--8-------|
C|-4---5--4--2--4--2--4---0----------0---|-----------0------------------------|-0----------0----------0----|
G|---------------------------------------|------------------------------------|----------------------------|


A|-------7----7-----------------------|----------------------7----7--------|----------------------------|
E|-9--8----------9--8-------9--8------|-----9--8-------9--8----------9--8--|------9--8-------9--8-------|
C|---------------------0----------0---|-----------0------------------------|-0----------0----------0----|
G|------------------------------------|------------------------------------|----------------------------|


A|-------7----7--------11---8--10-----|------7----10----------|-11---8--10-------7----|
E|-9--8----------9--8-----------------|--------------8--6-----|-----------------------|
C|--------------------------------10--|-----------------------|------------10---------|
G|------------------------------------|-----------------------|-----------------------|


A|-10-------------------------|----------------------7----7--------|----------------------------|
E|----8--6----------9--8------|-----9--8-------9--8----------9--8--|------9--8-------9--8-------|
C|-------------0----------0---|-----------0------------------------|-0----------0----------0----|
G|----------------------------|------------------------------------|----------------------------|


A|-------7----7-----------------------|----------------------7----7--------|----------------------------|
E|-9--8----------9--8-------9--8------|-----9--8-------9--8----------9--8--|------9--8-------9--8-------|
C|---------------------0----------0---|-----------0------------------------|-0----------0----------0----|
G|------------------------------------|------------------------------------|----------------------------|


A|-------7----7------------------------|------------------------|---------------------------|
E|-9--8----------9--8--8----8---8--8---|------10---10--10-10----|-6----6---6--6-----6----6--|
C|---------------------5----5---5--5---|------7----7---7--7-----|-3----3---3--3-----3----3--|
G|-------------------------------------|------------------------|---------------------------|


A|-----------------------------|------------------------|---------------------------|
E|----6--6-----8----8---8--8---|------10---10--10-10----|-6----6---6--6-----6----6--|
C|----3--3-----5----5---5--5---|------7----7---7--7-----|-3----3---3--3-----3----3--|
G|-----------------------------|------------------------|---------------------------|


A|-----------------------------|------------------------|---------------------------|
E|----6--6-----8----8---8--8---|------10---10--10-10----|-6----6---6--6-----6----6--|
C|----3--3-----5----5---5--5---|------7----7---7--7-----|-3----3---3--3-----3----3--|
G|-----------------------------|------------------------|---------------------------|


A|-----------------------------|------------------------|-6------6----|-------3------------|
E|----6--6-----8----8---8--8---|------10---10--10-10----|-6------6----|-------3------------|
C|----3--3-----5----5---5--5---|------7----7---7--7-----|-3------3----|-------0------------|
G|-----------------------------|------------------------|-3------3----|-------0------------|


A|-------------|-3---3-------3-------------|------3---3---3---------|-3-----------3--------3---3---|
E|-------------|-3---3-------3-------------|------3---3---3---------|-3-----------3--------3---3---|
C|-------------|-0---0-------0-------------|------0---0---0---------|-0-----------0--------0---0---|
G|-------------|-0---0-------0-------------|------0---0---0---------|-0-----------0--------0---0---|


A|-3---3---3--------------|-------3------------|-------------|-3---3--------------|
E|-3---3---3--------------|-------3------------|-------------|-3---3--------------|
C|-0---0---0--------------|-------0------------|-------------|-0---0--------------|
G|-0---0---0--------------|-------0------------|-------------|-0---0--------------|


A|-------3------------|-------------|-3---3--------------|----------3-------------------------------|
E|-------3------------|-------------|-3---3--------------|----------3-------------------------------|
C|-------0------------|-------------|-0---0--------------|----------0---8--7--5--7--5--7---8--7--5--|
G|-------0------------|-------------|-0---0--------------|----------0-------------------------------|


A|-------------------------------------------------|------------------------------------------------------|
E|-------------------------------------------------|------------------------------------------------------|
C|-7--5--7---8--7--5--7--5--7---8--7--5--7--5--7---|-5--4--2--4--2--4---5--4--2--4--2--4---5--4--2--4--2--|
G|-------------------------------------------------|------------------------------------------------------|


A|----------------------------------------------------|-------------------------------------------------|
E|----------------------------------------------------|-------------------------------------------------|
C|-4---5--4--2--4--2--4---8--7--5--7--5--7---8--7--5--|-7--5--7---8--7--5--7--5--7---8--7--5--7--5--7---|
G|----------------------------------------------------|-------------------------------------------------|


A|------------------------------------------------------|----------------------------------------------------|
E|------------------------------------------------------|----------------------------------------------------|
C|-5--4--2--4--2--4---5--4--2--4--2--4---5--4--2--4--2--|-4---5--4--2--4--2--4---8--7--5--7--5--7---8--7--5--|
G|------------------------------------------------------|----------------------------------------------------|


A|-------------------------------------------------|------------------------------------------------------|
E|-------------------------------------------------|------------------------------------------------------|
C|-7--5--7---8--7--5--7--5--7---8--7--5--7--5--7---|-5--4--2--4--2--4---5--4--2--4--2--4---5--4--2--4--2--|
G|-------------------------------------------------|------------------------------------------------------|


A|--------------------------------------------------|-----------------------------------------------|
E|--------------------------------------------------|-----------------------------------------------|
C|-4---5--4--2--4---4---8--7--5--7--5--7---8--7--5--|-7--5--7---8--7--5--7--5--7---8--7--5--7---7---|
G|--------------------------------------------------|-----------------------------------------------|


A|------------------------------------------------------|-----------------------------------13--|
E|------------------------------------------------------|--------------------------------12-----|
C|-5--4--2--4--2--4---5--4--2--4--2--4---5--4--2--4--2--|-4---5--4--2--4--2--4---0----12--------|
G|------------------------------------------------------|---------------------------------------|


A|----10------------------13---10-------|------------13---10------------|-------16---16------------------13--|
E|-------9--8----------12---------9--8--|---------12---------9--8-------|----12---------15------------12-----|
C|-------------0----12------------------|-0----12------------------0----|-12---------------12-0----12--------|
G|--------------------------------------|-------------------------------|------------------------------------|


A|----10------------------13---10-------|------------16---16------------|-------16---16------------------13--|
E|-------9--8----------12---------9--8--|---------12---------15---------|----12---------15------------12-----|
C|-------------0----12------------------|-0----12---------------12-0----|-12---------------12-0----12--------|
G|--------------------------------------|-------------------------------|------------------------------------|


A|----10------------------13---10-------|------------16---16------------|-------16---16------------------13--|
E|-------9--8----------12---------9--8--|---------12---------15---------|----12---------15------------12-----|
C|-------------0----12------------------|-0----12---------------12-0----|-12---------------12-0----12--------|
G|--------------------------------------|-------------------------------|------------------------------------|


A|----10------------------13---10-------|------------16---16------------|-------16---16-----------------------|
E|-------9--8----------12---------9--8--|---------12---------15---------|----12---------15-13-8----8---8--8---|
C|-------------0----12------------------|-0----12---------------12-0----|-12------------------5----5---5--5---|
G|--------------------------------------|-------------------------------|-------------------------------------|


A|------------------------|---------------------------|-----------------------------|
E|------10---10--10-10----|-6----6---6--6-----6----6--|----6--6-----8----8---8--8---|
C|------7----7---7--7-----|-3----3---3--3-----3----3--|----3--3-----5----5---5--5---|
G|------------------------|---------------------------|-----------------------------|


A|------------------------|---------------------------|-----------------------------|
E|------10---10--10-10----|-6----6---6--6-----6----6--|----6--6-----8----8---8--8---|
C|------7----7---7--7-----|-3----3---3--3-----3----3--|----3--3-----5----5---5--5---|
G|------------------------|---------------------------|-----------------------------|


A|------------------------|---------------------------|-----------------------------|
E|------10---10--10-10----|-6----6---6--6-----6----6--|----6--6-----8----8---8--8---|
C|------7----7---7--7-----|-3----3---3--3-----3----3--|----3--3-----5----5---5--5---|
G|------------------------|---------------------------|-----------------------------|


A|------------------------|-6------6----|-------3---------|
E|------10---10--10-10----|-6------6----|-------3---------|
C|------7----7---7--7-----|-3------3----|-------0---------|
G|------------------------|-3------3----|-------0---------|





Track 2: Bass/Guitar

A|-------------|----------------------|----------------------7----7--------|----------------------------|
E|-------------|------------9--8------|-----9--8-------9--8----------9--8--|------9--8-------9--8-------|
C|-------------|-------0----------0---|-----------0------------------------|-0----------0----------0----|
G|-------------|----------------------|------------------------------------|----------------------------|


A|-------7----7-----------------------|----------------------7----7--------|------10-10------7--7-------|
E|-9--8----------9--8-------9--8------|-----9--8-------9--8----------9--8--|----------------------------|
C|---------------------0----------0---|-----------0------------------------|-0----------0----------0----|
G|------------------------------------|------------------------------------|----------------------------|


A|-------7----7-----------------------|----------------------7----7--------|------10-10------7--7-------|
E|-9--8----------9--8-------9--8------|-----9--8-------9--8----------9--8--|----------------------------|
C|---------------------0----------0---|-----------0------------------------|-0----------0----------0----|
G|------------------------------------|------------------------------------|----------------------------|


A|-------7----10----------------------|----------------------7----7--------|----------------------------|
E|-9--8----------9--8-------9--8------|-----9--8-------9--8----------9--8--|------9--8-------9--8-------|
C|---------------------0----------0---|-----------0------------------------|-0----------0----------0----|
G|------------------------------------|------------------------------------|----------------------------|


A|-------7----7-----------------------|----------------------7----7--------|----------------------------|
E|-9--8----------9--8-------9--8------|-----9--8-------9--8----------9--8--|------9--8-------9--8-------|
C|---------------------0----------0---|-----------0------------------------|-0----------0----------0----|
G|------------------------------------|------------------------------------|----------------------------|


A|-------7----7-----------------------|----------------------7----7--------|----------------------------|
E|-9--8----------9--8-------9--8------|-----9--8-------9--8----------9--8--|------9--8-------9--8-------|
C|---------------------0----------0---|-----------0------------------------|-0----------0----------0----|
G|------------------------------------|------------------------------------|----------------------------|


A|-------7----7-----------------------|----------------------7----7--------|----------------------------|
E|-9--8----------9--8-------9--8------|-----9--8-------9--8----------9--8--|------9--8-------9--8-------|
C|---------------------0----------0---|-----------0------------------------|-0----------0----------0----|
G|------------------------------------|------------------------------------|----------------------------|


A|-------7----7-----------------------|----------------------7----7--------|----------------------------|
E|-9--8----------9--8-------9--8------|-----9--8-------9--8----------9--8--|------9--8-------9--8-------|
C|---------------------0----------0---|-----------0------------------------|-0----------0----------0----|
G|------------------------------------|------------------------------------|----------------------------|


A|-------7----7------------------------|---------------------------------|---------------------------------|
E|-9--8----------9--8------------------|---------------------------------|---------------------------------|
C|---------------------5----5---5--5---|-4---5---7----7---7--7---5---7---|-3----3---3--3---2---3---3----3--|
G|-------------------------------------|---------------------------------|---------------------------------|


A|-----------------------------------|---------------------------------|-------------|
E|-----------------------------------|---------------------------------|-------------|
C|----3--3---2---3---5----5---5--5---|-4---5---7----7---7--7---5---7---|-3------3----|
G|-----------------------------------|---------------------------------|-------------|


A|----------------------|----------------------7----7--------|----------------------------|
E|------------9--8------|-----9--8-------9--8----------9--8--|------9--8-------9--8-------|
C|-------0----------0---|-----------0------------------------|-0----------0----------0----|
G|----------------------|------------------------------------|----------------------------|


A|-------7----7------------------------------------|-------------------------------------------------|
E|-9--8----------9--8--8--6--4--6--4--6---8--6--4--|-6--4--6---8--6--4--6--4--6---8--6--4--6--4--6---|
C|-------------------------------------------------|-------------------------------------------------|
G|-------------------------------------------------|-------------------------------------------------|


A|------------------------------------------------------|----------------------------------------------------|
E|-8--6--4--8--4--8---8--6--4--8--4--8---8--6--4--8--4--|-8---8--6--4--8--4--8---8--6--4--6--4--6---8--6--4--|
C|------------------------------------------------------|----------------------------------------------------|
G|------------------------------------------------------|----------------------------------------------------|


A|-------------------------------------------------|------------------------------------------------------|
E|-6--4--6---8--6--4--6--4--6---8--6--4--6--4--6---|-8--6--4--8--4--8---8--6--4--8--4--8---8--6--4--8--4--|
C|-------------------------------------------------|------------------------------------------------------|
G|-------------------------------------------------|------------------------------------------------------|


A|---------------------------------------|----------------------7----7--------|----------------------------|
E|-8---8--6--4--8--4--8--------9--8------|-----9--8-------9--8----------9--8--|------9--8-------9--8-------|
C|------------------------0----------0---|-----------0------------------------|-0----------0----------0----|
G|---------------------------------------|------------------------------------|----------------------------|


A|-------7----7-----------------------|----------------------7----7--------|----------------------------|
E|-9--8----------9--8-------9--8------|-----9--8-------9--8----------9--8--|------9--8-------9--8-------|
C|---------------------0----------0---|-----------0------------------------|-0----------0----------0----|
G|------------------------------------|------------------------------------|----------------------------|


A|-------7----7-------------4---------|-----1--------4----------1---|------4----------1--------|
E|-9--8----------9--8----------4------|-----------------4-----------|---------4----------------|
C|---------------------0----------0---|---------0----------0--------|-0----------0--------0----|
G|------------------------------------|-----------------------------|--------------------------|


A|-4----------1------------------|----------------------7----7--------|----------------------------|
E|----4----------------9--8------|-----9--8-------9--8----------9--8--|------9--8-------9--8-------|
C|-------0--------0----------0---|-----------0------------------------|-0----------0----------0----|
G|-------------------------------|------------------------------------|----------------------------|


A|-------7----7-----------------------|----------------------7----7--------|----------------------------|
E|-9--8----------9--8-------9--8------|-----9--8-------9--8----------9--8--|------9--8-------9--8-------|
C|---------------------0----------0---|-----------0------------------------|-0----------0----------0----|
G|------------------------------------|------------------------------------|----------------------------|


A|-------7----7------------------------|---------------------------------|---------------------------------|
E|-9--8----------9--8------------------|---------------------------------|---------------------------------|
C|---------------------5----5---5--5---|-4---5---7----7---7--7---5---7---|-3----3---3--3---2---3---3----3--|
G|-------------------------------------|---------------------------------|---------------------------------|


A|---------------------------------------|---------------------------------|---------------------------------|
E|-------8--7----------------------------|---------------------------------|---------------------------------|
C|----3--------7--5--7---5----5---5--5---|-4---5---7----7---7--7---5---7---|-3----3---3--3---2---3---3----3--|
G|---------------------------------------|---------------------------------|---------------------------------|


A|-----------------------------------|---------------------------------|---------------------------------|
E|-----------------------------------|---------------------------------|---------------------------------|
C|----3--3---2---3---5----5---5--5---|-4---5---7----7---7--7---5---7---|-3----3---3--3---2---3---3----3--|
G|-----------------------------------|---------------------------------|---------------------------------|


A|-------------------------------------|---------------------------------|-------------|
E|-------------------------------------|---------------------------------|-------------|
C|----3--10--12--3--3--5----5---5--5---|-4---5---7----7---7--7---5---7---|-3------3----|
G|-------------------------------------|---------------------------------|-------------|


A|----------------------|----------------------7----7--------|----------------------------|
E|------------9--8------|-----9--8-------9--8----------9--8--|------9--8-------9--8-------|
C|-------0----------0---|-----------0------------------------|-0----------0----------0----|
G|----------------------|------------------------------------|----------------------------|


A|-------7----7-----------------------|----------------------7----7--------|------10-10-----------------|
E|-9--8----------9--8-------9--8------|-----9--8-------9--8----------9--8--|-----------------9--8-------|
C|---------------------0----------0---|-----------0------------------------|-0----------0----------0----|
G|------------------------------------|------------------------------------|----------------------------|


A|-------7----7-----------------------|----------------------7----7--------|------10-10------7--7-------|
E|-9--8----------9--8-------9--8------|-----9--8-------9--8----------9--8--|----------------------------|
C|---------------------0----------0---|-----------0------------------------|-0----------0----------0----|
G|------------------------------------|------------------------------------|----------------------------|


A|-------7----7-----------------------|----------------------7----7--------|------10-10------7--7-------|
E|-9--8----------9--8-------9--8------|-----9--8-------9--8----------9--8--|----------------------------|
C|---------------------0----------0---|-----------0------------------------|-0----------0----------0----|
G|------------------------------------|------------------------------------|----------------------------|


A|-------7----7------------------------------------|-------------------------------------------------|
E|-9--8----------9--8--8--6--4--6--4--6---8--6--4--|-6--4--6---8--6--4--6--4--6---8--6--4--6--4--6---|
C|-------------------------------------------------|-------------------------------------------------|
G|-------------------------------------------------|-------------------------------------------------|


A|------------------------------------------------------|----------------------------------------------------|
E|-8--6--4--8--4--8---8--6--4--8--4--8---8--6--4--8--4--|-8---8--6--4--8--4--8---8--6--4--6--4--6---8--6--4--|
C|------------------------------------------------------|----------------------------------------------------|
G|------------------------------------------------------|----------------------------------------------------|


A|-------------------------------------------------|------------------------------------------------------|
E|-6--4--6---8--6--4--6--4--6---8--6--4--6--4--6---|-8--6--4--8--4--8---8--6--4--8--4--8---8--6--4--8--4--|
C|-------------------------------------------------|------------------------------------------------------|
G|-------------------------------------------------|------------------------------------------------------|


A|----------------------------------------------------|-------------------------------------------------|
E|-8---8--6--4--8--4--8---8--6--4--6--4--6---8--6--4--|-6--4--6---8--6--4--6--4--6---8--6--4--6--4--6---|
C|----------------------------------------------------|-------------------------------------------------|
G|----------------------------------------------------|-------------------------------------------------|


A|------------------------------------------------------|--------------------------------------------------|
E|-8--6--4--8--4--8---8--6--4--8--4--8---8--6--4--8--4--|-8---8--6--4--8---8---8--6--4--6--4--6---8--6--4--|
C|------------------------------------------------------|--------------------------------------------------|
G|------------------------------------------------------|--------------------------------------------------|


A|-----------------------------------------------|------------------------------------------------------|
E|-6--4--6---8--6--4--6--4--6---8--6--4--6---6---|-8--6--4--8--4--8---8--6--4--8--4--8---8--6--4--8--4--|
C|-----------------------------------------------|------------------------------------------------------|
G|-----------------------------------------------|------------------------------------------------------|


A|-----------------------------------13--|----10------------------13---10-------|------------13---10------------|
E|-8---8--6--4--8--4--8-----------12-----|-------9--8----------12---------9--8--|---------12---------9--8-------|
C|------------------------0----12--------|-------------0----12------------------|-0----12------------------0----|
G|---------------------------------------|--------------------------------------|-------------------------------|


A|-------13---10------------------13--|----10------------------13---10-------|------------13---10------------|
E|----12---------9--8----------12-----|-------9--8----------12---------9--8--|---------12---------9--8-------|
C|-12------------------0----12--------|-------------0----12------------------|-0----12------------------0----|
G|------------------------------------|--------------------------------------|-------------------------------|


A|-------13---10------------------13--|----10------------------13---10-------|------------13---10------------|
E|----12---------9--8----------12-----|-------9--8----------12---------9--8--|---------12---------9--8-------|
C|-12------------------0----12--------|-------------0----12------------------|-0----12------------------0----|
G|------------------------------------|--------------------------------------|-------------------------------|


A|-------13---10------------------13--|----10------------------13---10-------|------------13---10------------|
E|----12---------9--8----------12-----|-------9--8----------12---------9--8--|---------12---------9--8-------|
C|-12------------------0----12--------|-------------0----12------------------|-0----12------------------0----|
G|------------------------------------|--------------------------------------|-------------------------------|


A|-------13---10-----------------------|---------------------------------|---------------------------------|
E|----12---------9--8------------------|---------------------------------|---------------------------------|
C|-12------------------5----5---5--5---|-4---5---7----7---7--7---5---7---|-3----3---3--3---2---3---3----3--|
G|-------------------------------------|---------------------------------|---------------------------------|


A|---------------------------------------|---------------------------------|------------------------------3--|
E|-------8--7----------------------------|---------------------------------|---------------------------------|
C|----3--------7--5--7---5----5---5--5---|-4---5---7----7---7--7---5---7---|-3----3---3--3---2---3---3-------|
G|---------------------------------------|---------------------------------|---------------------------------|


A|-----------------------------------------|---------------------------------|-----------------3---3-----------|
E|-------6--5------------------------------|---------------------------------|---------------------------------|
C|----3--------5--4--5--7--5----5---5--5---|-4---5---7----7---7--7---5---7---|-3----3---3--3-----------3----3--|
G|-----------------------------------------|---------------------------------|---------------------------------|


A|-----------------------------------------|---------------------------------|-------------|
E|-------6--8--6---------------------------|---------------------------------|-------------|
C|----3-----------10-5--3--5----5---5--5---|-4---5---7----7---7--7---5---7---|-3------3----|
G|-----------------------------------------|---------------------------------|-------------|


A|-------3---------|
E|-------3---------|
C|-------0---------|
G|-------0---------|





Track 3: Extra Guitar

A|--------|--------|--------|--------|--------|--------|--------|--------|--------|
E|--------|--------|--------|--------|--------|--------|--------|--------|--------|
C|--------|--------|--------|--------|--------|--------|--------|--------|--------|
G|--------|--------|--------|--------|--------|--------|--------|--------|--------|


A|--------|--------|--------|--------|--------|--------|--------|--------|--------|
E|--------|--------|--------|--------|--------|--------|--------|--------|--------|
C|--------|--------|--------|--------|--------|--------|--------|--------|--------|
G|--------|--------|--------|--------|--------|--------|--------|--------|--------|


A|--------|--------|--------|--------|--------|--------|--------|--------|--------|
E|--------|--------|--------|--------|--------|--------|--------|--------|--------|
C|--------|--------|--------|--------|--------|--------|--------|--------|--------|
G|--------|--------|--------|--------|--------|--------|--------|--------|--------|


A|--------|--------|--------|--------|--------|--------|--------|--------|--------|
E|--------|--------|--------|--------|--------|--------|--------|--------|--------|
C|--------|--------|--------|--------|--------|--------|--------|--------|--------|
G|--------|--------|--------|--------|--------|--------|--------|--------|--------|


A|--------|--------|--------|--------|--------|--------|--------|--------|--------|
E|--------|--------|--------|--------|--------|--------|--------|--------|--------|
C|--------|--------|--------|--------|--------|--------|--------|--------|--------|
G|--------|--------|--------|--------|--------|--------|--------|--------|--------|


A|--------|-------15-------------|-------------|-15--------------------|--------|--------|
E|--------|------------13-15-16--|------15-----|------13-15-16----15---|--------|--------|
C|--------|----------------------|-------------|-----------------------|--------|--------|
G|--------|----------------------|-------------|-----------------------|--------|--------|


A|--------|--------|--------|--------|-------------3--5-----|-3-------------5--7-----5-------|
E|--------|--------|--------|--------|-------------------3--|---------------------8----------|
C|--------|--------|--------|--------|----------------------|--------------------------------|
G|--------|--------|--------|--------|----------------------|--------------------------------|


A|-----------------------------|---------------------------3--5-----|-3-------------5--7-----5-------|
E|-------6--8-----6------------|-----5--5--5--3--3---------------3--|---------------------8----------|
C|-------------7---------------|------------------------------------|--------------------------------|
G|-----------------------------|------------------------------------|--------------------------------|


A|-----------------------------|-----------3---3---------8--10----|-8-------------5--7-----5-------|
E|-------6--8-----6------------|-----5--5----------------------8--|---------------------8----------|
C|-------------7---------------|----------------------------------|--------------------------------|
G|-----------------------------|----------------------------------|--------------------------------|


A|-----------------------------|------------------------------------------|---------------10-12----10------|
E|-------6--8-----6------------|-----6--5--3---------------------8--10-8--|-8-------------------10---------|
C|-------------7---------------|--------------5--3--0--0------------------|--------------------------------|
G|-----------------------------|------------------------------------------|--------------------------------|


A|-6------6----|--------|--------|--------|--------|--------|--------|--------|--------|
E|-6------6----|--------|--------|--------|--------|--------|--------|--------|--------|
C|-3------3----|--------|--------|--------|--------|--------|--------|--------|--------|
G|-3------3----|--------|--------|--------|--------|--------|--------|--------|--------|


A|--------|--------|--------|--------|--------|--------|--------|--------|--------|
E|--------|--------|--------|--------|--------|--------|--------|--------|--------|
C|--------|--------|--------|--------|--------|--------|--------|--------|--------|
G|--------|--------|--------|--------|--------|--------|--------|--------|--------|


A|--------|--------|--------|--------|--------|--------|--------|--------|--------|
E|--------|--------|--------|--------|--------|--------|--------|--------|--------|
C|--------|--------|--------|--------|--------|--------|--------|--------|--------|
G|--------|--------|--------|--------|--------|--------|--------|--------|--------|


A|--------|--------|--------|--------|--------|--------|--------|--------|--------|
E|--------|--------|--------|--------|--------|--------|--------|--------|--------|
C|--------|--------|--------|--------|--------|--------|--------|--------|--------|
G|--------|--------|--------|--------|--------|--------|--------|--------|--------|


A|--------|-------------3--5-----|-3-------------5--7-----5-------|-----------------------------|
E|--------|-------------------3--|---------------------8----------|-------6--8-----6------------|
C|--------|----------------------|--------------------------------|-------------7---------------|
G|--------|----------------------|--------------------------------|-----------------------------|


A|---------------------------3--5-----|-3-------------5--7-----5-------|-----------------------------|
E|-----5--5--5--3--3---------------3--|---------------------8----------|-------6--8-----6------------|
C|------------------------------------|--------------------------------|-------------7---------------|
G|------------------------------------|--------------------------------|-----------------------------|


A|-----------3---3---------8--10----|-8-------------5--7-----5-------|-----------------------------|
E|-----5--5----------------------8--|---------------------8----------|-------6--8-----6------------|
C|----------------------------------|--------------------------------|-------------7---------------|
G|----------------------------------|--------------------------------|-----------------------------|


A|------------------------------------------|---------------10-12----10------|-6------6----|
E|-----6--5--3---------------------8--10-8--|-8-------------------10---------|-6------6----|
C|--------------5--3--0--0------------------|--------------------------------|-3------3----|
G|------------------------------------------|--------------------------------|-3------3----|


A|-------3---------|
E|-------3---------|
C|-------0---------|
G|-------0---------|





Track 4: Untitled

G|--------|--------|--------|--------|--------|--------|--------|--------|--------|
D|--------|--------|--------|--------|--------|--------|--------|--------|--------|
A|--------|--------|--------|--------|--------|--------|--------|--------|--------|
E|--------|--------|--------|--------|--------|--------|--------|--------|--------|


G|--------|--------|--------|--------|--------|--------|--------|--------|--------|
D|--------|--------|--------|--------|--------|--------|--------|--------|--------|
A|--------|--------|--------|--------|--------|--------|--------|--------|--------|
E|--------|--------|--------|--------|--------|--------|--------|--------|--------|


G|--------|--------|--------|--------|--------|--------|--------|--------|--------|
D|--------|--------|--------|--------|--------|--------|--------|--------|--------|
A|--------|--------|--------|--------|--------|--------|--------|--------|--------|
E|--------|--------|--------|--------|--------|--------|--------|--------|--------|


G|--------|--------|--------|--------|--------|--------|--------|--------|--------|
D|--------|--------|--------|--------|--------|--------|--------|--------|--------|
A|--------|--------|--------|--------|--------|--------|--------|--------|--------|
E|--------|--------|--------|--------|--------|--------|--------|--------|--------|


G|--------|--------|--------|--------|--------|--------|--------|--------|--------|
D|--------|--------|--------|--------|--------|--------|--------|--------|--------|
A|--------|--------|--------|--------|--------|--------|--------|--------|--------|
E|--------|--------|--------|--------|--------|--------|--------|--------|--------|


G|--------|--------|--------|--------|--------|--------|--------|--------|--------|
D|--------|--------|--------|--------|--------|--------|--------|--------|--------|
A|--------|--------|--------|--------|--------|--------|--------|--------|--------|
E|--------|--------|--------|--------|--------|--------|--------|--------|--------|


G|--------|--------|--------|--------|--------|--------|--------|--------|--------|
D|--------|--------|--------|--------|--------|--------|--------|--------|--------|
A|--------|--------|--------|--------|--------|--------|--------|--------|--------|
E|--------|--------|--------|--------|--------|--------|--------|--------|--------|


G|--------|--------|--------|--------|--------|--------|--------|--------|--------|
D|--------|--------|--------|--------|--------|--------|--------|--------|--------|
A|--------|--------|--------|--------|--------|--------|--------|--------|--------|
E|--------|--------|--------|--------|--------|--------|--------|--------|--------|


G|--------|--------|--------|--------|--------|--------|--------|--------|--------|
D|--------|--------|--------|--------|--------|--------|--------|--------|--------|
A|--------|--------|--------|--------|--------|--------|--------|--------|--------|
E|--------|--------|--------|--------|--------|--------|--------|--------|--------|


G|--------|--------|--------|--------|--------|--------|--------|--------|--------|
D|--------|--------|--------|--------|--------|--------|--------|--------|--------|
A|--------|--------|--------|--------|--------|--------|--------|--------|--------|
E|--------|--------|--------|--------|--------|--------|--------|--------|--------|


G|--------|--------|--------|--------|--------|--------|--------|--------|--------|
D|--------|--------|--------|--------|--------|--------|--------|--------|--------|
A|--------|--------|--------|--------|--------|--------|--------|--------|--------|
E|--------|--------|--------|--------|--------|--------|--------|--------|--------|


G|--------|--------|--------|--------|--------|--------|--------|--------|--------|
D|--------|--------|--------|--------|--------|--------|--------|--------|--------|
A|--------|--------|--------|--------|--------|--------|--------|--------|--------|
E|--------|--------|--------|--------|--------|--------|--------|--------|--------|


G|--------|--------|--------|--------|--------|--------|--------|--------|
D|--------|--------|--------|--------|--------|--------|--------|--------|
A|--------|--------|--------|--------|--------|--------|--------|--------|
E|--------|--------|--------|--------|--------|--------|--------|--------|