Site menu:

    

Browse: 0-9 A B C D E F G H I J K L N O P Q R S T U V W X Y Z

purple monkey magic fish - mess:



Title: Mess
Artist: 
Album: 
Author: E. Barber


Track 1: Slow Strings

E|--------|--------|--------|--------|--------|--------|--------|--------|--------|
B|--------|--------|--------|--------|--------|--------|--------|-5------|-5------|
G|-2------|-2------|-3------|-3------|-4------|-4------|-7------|-5------|-4------|
D|-0------|-0------|-0------|-0------|-0------|-0------|-0------|--------|--------|
A|--------|--------|--------|--------|--------|--------|--------|--------|--------|
E|--------|--------|--------|--------|--------|--------|--------|--------|--------|


E|--------|--------|--------|--------|--------|--------|--------|--------|--------|
B|-5------|-5------|-1------|-1------|-3------|-3------|-1------|-0------|-0------|
G|-3------|-2------|-2------|-2------|-2------|-0------|-0------|-2------|-1------|
D|--------|-0------|-0------|-3------|-3------|-2------|-2------|-2------|-2------|
A|--------|--------|--------|--------|--------|--------|--------|--------|--------|
E|--------|--------|--------|--------|--------|--------|--------|--------|--------|


E|--------|--------|-0------|-3------|-1------|-0------|-5------|-3------|-6------|
B|-0------|-0------|-3------|-3------|-3------|-3------|-3------|-3------|-5------|
G|-2------|-2------|-2------|-2------|-3------|-3------|-4------|-4------|-7------|
D|-0------|-0------|--------|--------|--------|--------|--------|--------|--------|
A|--------|--------|--------|--------|--------|--------|--------|--------|--------|
E|--------|--------|--------|--------|--------|--------|--------|--------|--------|


E|-5------|-10-----|-12-----|-12-----|-12-----|-12----------|--------|--------|--------|
B|-5------|-5------|-5------|-5------|-5------|-5-----------|--------|--------|--------|
G|-5------|-4------|-3------|-2------|-2------|-2-----------|--------|--------|--------|
D|--------|--------|--------|--------|--------|-------------|--------|--------|--------|
A|--------|--------|--------|--------|--------|-------------|--------|--------|--------|
E|--------|--------|--------|--------|--------|-------------|--------|--------|--------|


E|--------|--------|--------|--------|--------|--------|--------|--------|--------|
B|--------|--------|--------|--------|--------|--------|--------|--------|--------|
G|--------|--------|--------|--------|--------|--------|-2------|-2------|-3------|
D|--------|--------|--------|--------|--------|--------|-0------|-0------|-0------|
A|--------|--------|--------|--------|--------|--------|--------|--------|--------|
E|--------|--------|--------|--------|--------|--------|--------|--------|--------|


E|--------|--------|--------|--------|--------|--------|--------|--------|--------|
B|--------|--------|--------|--------|-5------|--------|--------|--------|--------|
G|-3------|-4------|-4------|-7------|-5------|--------|--------|--------|--------|
D|-0------|-0------|-0------|-0------|--------|--------|--------|--------|--------|
A|--------|--------|--------|--------|--------|--------|--------|--------|--------|
E|--------|--------|--------|--------|--------|--------|--------|--------|--------|


E|-10-----|-10-----|-17-----|-17-----|-15-----|-12-----|-12-----|-12-----|-10-----|
B|-6------|-6------|-6------|-6------|-17-----|-13-----|--------|-12-----|-6------|
G|--------|--------|--------|--------|--------|--------|-14-----|--------|--------|
D|--------|--------|--------|--------|--------|--------|--------|--------|--------|
A|--------|--------|--------|--------|--------|--------|--------|--------|--------|
E|--------|--------|--------|--------|--------|--------|--------|--------|--------|


E|-10-----|-17-----|-17-----|-15-----|-12-----|-12-----|-12-----|-------------|--------|
B|-6------|-6------|-6------|-17-----|-13-----|--------|-12-----|-------------|--------|
G|--------|--------|--------|--------|--------|-14-----|--------|-------------|--------|
D|--------|--------|--------|--------|--------|--------|--------|-------------|--------|
A|--------|--------|--------|--------|--------|--------|--------|-------------|--------|
E|--------|--------|--------|--------|--------|--------|--------|-------------|--------|


E|--------|--------|--------|--------|--------|--------|--------|--------|--------|
B|--------|--------|--------|--------|--------|--------|--------|--------|--------|
G|--------|--------|--------|--------|--------|--------|--------|--------|--------|
D|--------|--------|--------|--------|--------|--------|--------|--------|--------|
A|--------|--------|--------|--------|--------|--------|--------|--------|--------|
E|--------|--------|--------|--------|--------|--------|--------|--------|--------|


E|--------|--------|--------|--------|--------|--------|--------|--------|--------|
B|--------|--------|--------|--------|--------|--------|--------|--------|--------|
G|--------|--------|--------|--------|--------|--------|--------|--------|--------|
D|--------|--------|--------|--------|--------|--------|--------|--------|--------|
A|--------|--------|--------|--------|--------|--------|--------|--------|--------|
E|--------|--------|--------|--------|--------|--------|--------|--------|--------|


E|--------|--------|-10-----|-10-----|-17-----|-17-----|-15-----|-12-----|-12-----|
B|--------|--------|-6------|-6------|-6------|-6------|-17-----|-13-----|--------|
G|--------|--------|--------|--------|--------|--------|--------|--------|-14-----|
D|--------|--------|--------|--------|--------|--------|--------|--------|--------|
A|--------|--------|--------|--------|--------|--------|--------|--------|--------|
E|--------|--------|--------|--------|--------|--------|--------|--------|--------|


E|-12-----|-10-----|-10-----|-17-----|-17-----|-15-----|-12-----|-12-----|-12-----|
B|-12-----|-6------|-6------|-6------|-6------|-17-----|-13-----|--------|-12-----|
G|--------|--------|--------|--------|--------|--------|--------|-14-----|--------|
D|--------|--------|--------|--------|--------|--------|--------|--------|--------|
A|--------|--------|--------|--------|--------|--------|--------|--------|--------|
E|--------|--------|--------|--------|--------|--------|--------|--------|--------|


E|--------|--------|--------|--------|--------|--------|--------|--------|--------|
B|--------|--------|--------|--------|--------|--------|--------|--------|--------|
G|--------|--------|--------|--------|--------|--------|--------|--------|--------|
D|--------|--------|--------|--------|--------|--------|--------|--------|--------|
A|--------|--------|--------|--------|--------|--------|--------|--------|--------|
E|--------|--------|--------|--------|--------|--------|--------|--------|--------|


E|--------|--------|--------|--------|--------|--------|--------|--------|--------|
B|--------|--------|--------|--------|--------|--------|--------|--------|--------|
G|--------|--------|--------|--------|--------|--------|--------|--------|--------|
D|--------|--------|--------|--------|--------|--------|--------|--------|--------|
A|--------|--------|--------|--------|--------|--------|--------|--------|--------|
E|--------|--------|--------|--------|--------|--------|--------|--------|--------|


E|--------|--------|--------|--------|--------|--------|--------|--------|--------|
B|--------|--------|--------|--------|--------|--------|--------|--------|--------|
G|--------|--------|--------|--------|--------|--------|--------|--------|--------|
D|--------|--------|--------|--------|--------|--------|--------|--------|--------|
A|--------|--------|--------|--------|--------|--------|--------|--------|--------|
E|--------|--------|--------|--------|--------|--------|--------|--------|--------|


E|--------|--------|--------|--------|--------|--------|--------|--------|--------|
B|--------|--------|--------|--------|--------|--------|--------|--------|--------|
G|--------|--------|--------|--------|--------|--------|--------|--------|--------|
D|--------|--------|--------|--------|--------|--------|--------|--------|--------|
A|--------|--------|--------|--------|--------|--------|--------|--------|--------|
E|--------|--------|--------|--------|--------|--------|--------|--------|--------|


E|--------|--------|--------|--------|--------|--------|--------|--------|--------|
B|--------|--------|--------|--------|--------|--------|--------|--------|--------|
G|--------|--------|--------|--------|--------|--------|--------|--------|--------|
D|--------|--------|--------|--------|--------|--------|--------|--------|--------|
A|--------|--------|--------|--------|--------|--------|--------|--------|--------|
E|--------|--------|--------|--------|--------|--------|--------|--------|--------|


E|--------|--------|--------|-10-----|-10-----|-17-----|-17-----|-15-----|-12-----|
B|--------|--------|--------|-6------|-6------|-6------|-6------|-17-----|-13-----|
G|--------|--------|--------|--------|--------|--------|--------|--------|--------|
D|--------|--------|--------|--------|--------|--------|--------|--------|--------|
A|--------|--------|--------|--------|--------|--------|--------|--------|--------|
E|--------|--------|--------|--------|--------|--------|--------|--------|--------|


E|-12-----|-12-----|-10-----|-10-----|-17-----|-17-----|-15-----|-12-----|-12-----|
B|--------|-12-----|-6------|-6------|-6------|-6------|-17-----|-13-----|--------|
G|-14-----|--------|--------|--------|--------|--------|--------|--------|-14-----|
D|--------|--------|--------|--------|--------|--------|--------|--------|--------|
A|--------|--------|--------|--------|--------|--------|--------|--------|--------|
E|--------|--------|--------|--------|--------|--------|--------|--------|--------|


E|-12-----|-10-----|-10-----|-17-----|-17-----|-15-----|-12-----|-12-----|-12-----|
B|-12-----|-6------|-6------|-6------|-6------|-17-----|-13-----|--------|-12-----|
G|--------|--------|--------|--------|--------|--------|--------|-14-----|--------|
D|--------|--------|--------|--------|--------|--------|--------|--------|--------|
A|--------|--------|--------|--------|--------|--------|--------|--------|--------|
E|--------|--------|--------|--------|--------|--------|--------|--------|--------|





Track 2: Guitar

E|--------|--------|--------|--------|--------|--------|--------|--------|--------|
B|--------|--------|--------|--------|--------|--------|--------|--------|--------|
G|--------|--------|--------|--------|--------|--------|--------|--------|--------|
D|--------|--------|--------|--------|--------|--------|--------|--------|--------|
A|--------|--------|--------|--------|--------|--------|--------|--------|--------|
E|--------|--------|--------|--------|--------|--------|--------|--------|--------|


E|--------|--------|--------|--------|--------|--------|--------|--------|--------|
B|--------|--------|--------|--------|--------|--------|--------|--------|--------|
G|--------|--------|--------|--------|--------|--------|--------|--------|--------|
D|--------|--------|--------|--------|--------|--------|--------|--------|--------|
A|--------|--------|--------|--------|--------|--------|--------|--------|--------|
E|--------|--------|--------|--------|--------|--------|--------|--------|--------|


E|--------|--------|--------|--------|--------|--------|--------|--------|--------|
B|--------|--------|--------|--------|--------|--------|--------|--------|--------|
G|--------|--------|--------|--------|--------|--------|--------|--------|--------|
D|--------|--------|--------|--------|--------|--------|--------|--------|--------|
A|--------|--------|--------|--------|--------|--------|--------|--------|--------|
E|--------|--------|--------|--------|--------|--------|--------|--------|--------|


E|--------|--------|--------|--------|--------|-----------------0---------------|-----------------0---------------|
B|--------|--------|--------|--------|--------|---------5-----------5-------5---|---------5-----------5-------5---|
G|--------|--------|--------|--------|--------|-----2-------2-----------2-------|-----2-------2-----------2-------|
D|--------|--------|--------|--------|--------|-0-------------------------------|-0-------------------------------|
A|--------|--------|--------|--------|--------|---------------------------------|---------------------------------|
E|--------|--------|--------|--------|--------|---------------------------------|---------------------------------|


E|-----------------0---------------|-----------------0---------------|-----------------3---------------|
B|---------5-----------5-------5---|---------5-----------5-------5---|---------5-----------5-------5---|
G|-----3-------3-----------3-------|-----3-------3-----------3-------|-----4-------4-----------4-------|
D|-0-------------------------------|-0-------------------------------|-0-------------------------------|
A|---------------------------------|---------------------------------|---------------------------------|
E|---------------------------------|---------------------------------|---------------------------------|


E|-----------------0---------------|---------------------0-----------|---------0-------8---------------|
B|---------5-----------5-------5---|---------5-------5-------5-------|-----5-------5-------5-------5---|
G|-----4-------4-----------4-------|-----7-------7---------------7---|-5-----------------------5-------|
D|-0-------------------------------|-0-------------------------------|---------------------------------|
A|---------------------------------|---------------------------------|---------------------------------|
E|---------------------------------|---------------------------------|---------------------------------|


E|---------0-------8---7-----------|---------0-------7---6-----------|-----------------0---------------|
B|-----5-------------------5-------|-----5-------5-----------5-------|---------5-----------5-------5---|
G|-4-----------4---------------4---|-3---------------------------3---|-----2-------2-----------2-------|
D|---------------------------------|---------------------------------|-0-------------------------------|
A|---------------------------------|---------------------------------|---------------------------------|
E|---------------------------------|---------------------------------|---------------------------------|


E|-----------------0---------------|-----------------0---------------|-----------------0---------------|
B|---------5-----------5-------5---|---------5-----------5-------5---|---------5-----------5-------5---|
G|-----2-------2-----------2-------|-----3-------3-----------3-------|-----3-------3-----------3-------|
D|-0-------------------------------|-0-------------------------------|-0-------------------------------|
A|---------------------------------|---------------------------------|---------------------------------|
E|---------------------------------|---------------------------------|---------------------------------|


E|-----------------3---------------|-----------------0---------------|---------------------0-----------|
B|---------5-----------5-------5---|---------5-----------5-------5---|---------5-------5-------5-------|
G|-----4-------4-----------4-------|-----4-------4-----------4-------|-----7-------7---------------7---|
D|-0-------------------------------|-0-------------------------------|-0-------------------------------|
A|---------------------------------|---------------------------------|---------------------------------|
E|---------------------------------|---------------------------------|---------------------------------|


E|---------0-------8---------------|---------0-------8---7-----------|---------0-------7---6-----------|
B|-----5-------5-------5-------5---|-----5-------------------5-------|-----5-------5-----------5-------|
G|-5-----------------------5-------|-4-----------4---------------4---|-3---------------------------3---|
D|---------------------------------|---------------------------------|---------------------------------|
A|---------------------------------|---------------------------------|---------------------------------|
E|---------------------------------|---------------------------------|---------------------------------|


E|-0---------------0---------------|-0---------------0---------------|-0---------------1---------------|
B|-----3---------------3-----------|-----3---------------3-----------|-----3---------------3-----------|
G|---------2---------------3-------|---------4---------------3-------|---------2---------------2-------|
D|-------------0---------------0---|-------------0---------------0---|-------------0---------------0---|
A|---------------------------------|---------------------------------|---------------------------------|
E|---------------------------------|---------------------------------|---------------------------------|


E|-3---------------1---------------|-1---------------0---------------|-------------------------0-------|
B|-----3---------------3-----------|-----1---------------1-----------|-3---------------1---------------|
G|---------2---------------2-------|---------2---------------2-------|-----2---------------2-----------|
D|-------------0---------------0---|-------------3---------------3---|---------3-----------------------|
A|---------------------------------|---------------------------------|-------------3---------------3---|
E|---------------------------------|---------------------------------|---------------------------------|


E|-0---------------3---------------|-0---------------1---------------|-0---------------0---------------|
B|-1---------------0---------------|-----------------0-------1-------|-------------------------0-------|
G|-----0---------------0-----------|-2-------------------2-----------|-2---------------2---------------|
D|---------2---------------2-------|-----2---------------------------|-----2---------------2-----------|
A|-------------3---------------3---|---------0-------------------0---|---------2-----------------------|
E|---------------------------------|-------------0-------------------|-------------0---------------0---|


E|-0---------------0---------------|-0---------------1---------------|-3---------------1---------------|
B|-----------------0---------------|-----3---------------3-----------|-----3---------------3-----------|
G|-1-------------------1-----------|---------2---------------2-------|---------2---------------2-------|
D|-----2-------------------0-------|-------------0---------------0---|-------------0---------------0---|
A|---------2-------------------2---|---------------------------------|---------------------------------|
E|-------------0-------------------|---------------------------------|---------------------------------|


E|-1---------------0---------------|---------------------------------|-0---------------3---------------|
B|-----1---------------1-----------|-3---------------1---------------|-1---------------0---------------|
G|---------2---------------2-------|-----2---------------2-----------|-----0---------------0-----------|
D|-------------3---------------3---|---------3---------------3-------|---------2---------------2-------|
A|---------------------------------|-------------3---------------3---|-------------3---------------3---|
E|---------------------------------|---------------------------------|---------------------------------|


E|-0---------------1---------------|-0---------------0---------------|-0---------------0---------------|
B|-----------------0-------1-------|-------------------------0-------|-----------------0---------------|
G|-2-------------------2-----------|-2---------------2---------------|-1-------------------1-----------|
D|-----2---------------------------|-----2---------------2-----------|-----2-------------------0-------|
A|---------0-------------------0---|---------2-----------------------|---------2-------------------2---|
E|-------------0-------------------|-------------0---------------0---|-------------0-------------------|


E|-----------------0---------------|-----------------0---------------|-----------------0---------------|
B|---------5-----------5-------5---|---------5-----------5-------5---|---------5-----------5-------5---|
G|-----2-------2-----------2-------|-----2-------2-----------2-------|-----3-------3-----------3-------|
D|-0-------------------------------|-0-------------------------------|-0-------------------------------|
A|---------------------------------|---------------------------------|---------------------------------|
E|---------------------------------|---------------------------------|---------------------------------|


E|-----------------0---------------|-----------------3---------------|-----------------0---------------|
B|---------5-----------5-------5---|---------5-----------5-------5---|---------5-----------5-------5---|
G|-----3-------3-----------3-------|-----4-------4-----------4-------|-----4-------4-----------4-------|
D|-0-------------------------------|-0-------------------------------|-0-------------------------------|
A|---------------------------------|---------------------------------|---------------------------------|
E|---------------------------------|---------------------------------|---------------------------------|


E|---------------------0-----------|---------0-------8---------------|---------0-------8---7-----------|
B|---------5-------5-------5-------|-----5-------5-------5-------5---|-----5-------------------5-------|
G|-----7-------7---------------7---|-5-----------------------5-------|-4-----------4---------------4---|
D|-0-------------------------------|---------------------------------|---------------------------------|
A|---------------------------------|---------------------------------|---------------------------------|
E|---------------------------------|---------------------------------|---------------------------------|


E|---------0-------7---6-----------|-----------------0---------------|-----------------0---------------|
B|-----5-------5-----------5-------|---------5-----------5-------5---|---------5-----------5-------5---|
G|-3---------------------------3---|-----2-------2-----------2-------|-----2-------2-----------2-------|
D|---------------------------------|-0-------------------------------|-0-------------------------------|
A|---------------------------------|---------------------------------|---------------------------------|
E|---------------------------------|---------------------------------|---------------------------------|


E|-----------------0---------------|-----------------0---------------|-----------------3---------------|
B|---------5-----------5-------5---|---------5-----------5-------5---|---------5-----------5-------5---|
G|-----3-------3-----------3-------|-----3-------3-----------3-------|-----4-------4-----------4-------|
D|-0-------------------------------|-0-------------------------------|-0-------------------------------|
A|---------------------------------|---------------------------------|---------------------------------|
E|---------------------------------|---------------------------------|---------------------------------|


E|-----------------0---------------|---------------------0-----------|---------0-------8---------------|
B|---------5-----------5-------5---|---------5-------5-------5-------|-----5-------5-------5-------5---|
G|-----4-------4-----------4-------|-----7-------7---------------7---|-5-----------------------5-------|
D|-0-------------------------------|-0-------------------------------|---------------------------------|
A|---------------------------------|---------------------------------|---------------------------------|
E|---------------------------------|---------------------------------|---------------------------------|


E|---------0-------8---7-----------|---------0-------7---6-----------|-0---------------0---------------|
B|-----5-------------------5-------|-----5-------5-----------5-------|-----3---------------3-----------|
G|-4-----------4---------------4---|-3---------------------------3---|---------2---------------3-------|
D|---------------------------------|---------------------------------|-------------0---------------0---|
A|---------------------------------|---------------------------------|---------------------------------|
E|---------------------------------|---------------------------------|---------------------------------|


E|-0---------------0---------------|-0---------------1---------------|-3---------------1---------------|
B|-----3---------------3-----------|-----3---------------3-----------|-----3---------------3-----------|
G|---------4---------------3-------|---------2---------------2-------|---------2---------------2-------|
D|-------------0---------------0---|-------------0---------------0---|-------------0---------------0---|
A|---------------------------------|---------------------------------|---------------------------------|
E|---------------------------------|---------------------------------|---------------------------------|


E|-1---------------0---------------|---------------------------------|-0---------------3---------------|
B|-----1---------------1-----------|-3---------------1---------------|-1---------------0---------------|
G|---------2---------------2-------|-----2---------------2-----------|-----0---------------0-----------|
D|-------------3---------------3---|---------3---------------3-------|---------2---------------2-------|
A|---------------------------------|-------------3---------------3---|-------------3---------------3---|
E|---------------------------------|---------------------------------|---------------------------------|


E|-0---------------1---------------|-0---------------0---------------|-0---------------0---------------|
B|-----------------0-------1-------|-------------------------0-------|-----------------0---------------|
G|-2-------------------2-----------|-2---------------2---------------|-1-------------------1-----------|
D|-----2---------------------------|-----2---------------2-----------|-----2-------------------0-------|
A|---------0-------------------0---|---------2-----------------------|---------2-------------------2---|
E|-------------0-------------------|-------------0---------------0---|-------------0-------------------|


E|-0---------------1---------------|-3---------------1---------------|-1---------------0---------------|
B|-----3---------------3-----------|-----3---------------3-----------|-----1---------------1-----------|
G|---------2---------------2-------|---------2---------------2-------|---------2---------------2-------|
D|-------------0---------------0---|-------------0---------------0---|-------------3---------------3---|
A|---------------------------------|---------------------------------|---------------------------------|
E|---------------------------------|---------------------------------|---------------------------------|


E|---------------------------------|-0---------------3---------------|-0---------------1---------------|
B|-3---------------1---------------|-1---------------0---------------|-----------------0-------1-------|
G|-----2---------------2-----------|-----0---------------0-----------|-2-------------------2-----------|
D|---------3---------------3-------|---------2---------------2-------|-----2---------------------------|
A|-------------3---------------3---|-------------3---------------3---|---------0-------------------0---|
E|---------------------------------|---------------------------------|-------------0-------------------|


E|-0---------------0---------------|-0---------------0---------------|---------------------0-----------|
B|-------------------------0-------|-----------------0---------------|---------5-------5-----------5---|
G|-2---------------2---------------|-1-------------------1-----------|-----3-------3-----------3-------|
D|-----2---------------2-----------|-----2-------------------0-------|-0-------------------------------|
A|---------2-----------------------|---------2-------------------2---|---------------------------------|
E|-------------0---------------0---|-------------0-------------------|---------------------------------|


E|---------------------0-----------|---------------------0-----------|---------------------0-----------|
B|---------5-------5-----------5---|---------5-------5-----------5---|---------5-------5-----------5---|
G|-----3-------3-----------3-------|-----7-------7-----------7-------|-----7-------7-----------7-------|
D|-0-------------------------------|-0-------------------------------|-0-------------------------------|
A|---------------------------------|---------------------------------|---------------------------------|
E|---------------------------------|---------------------------------|---------------------------------|


E|---------------------0-----------|---------------------0-----------|---------------------0-----------|
B|-------------0-----------0-------|---------0-------0-------0-------|---------5-------5-----------5---|
G|---------5-------5-----------5---|-------------5---------------0---|-----7-------7-----------7-------|
D|-----3---------------------------|-----3---------------------------|-0-------------------------------|
A|-0-------------------------------|-0-------------------------------|---------------------------------|
E|---------------------------------|---------------------------------|---------------------------------|


E|---------------------0-----------|---------------------0-----------|---------------------0-----------|
B|---------5-------5-----------5---|---------5-------5-----------5---|---------5-------5-----------5---|
G|-----7-------7-----------7-------|-----3-------3-----------3-------|-----3-------3-----------3-------|
D|-0-------------------------------|-0-------------------------------|-0-------------------------------|
A|---------------------------------|---------------------------------|---------------------------------|
E|---------------------------------|---------------------------------|---------------------------------|


E|---------------------0-----------|---------------------0-----------|---------------------0-----------|
B|---------5-------5-----------5---|---------5-------5-----------5---|-------------0-----------0-------|
G|-----7-------7-----------7-------|-----7-------7-----------7-------|---------5-------5-----------5---|
D|-0-------------------------------|-0-------------------------------|-----3---------------------------|
A|---------------------------------|---------------------------------|-0-------------------------------|
E|---------------------------------|---------------------------------|---------------------------------|


E|---------------------0-----------|---------------------0-----------|---------------------0-----------|
B|---------0-------0-------0-------|---------5-------5-----------5---|---------5-------5-----------5---|
G|-------------5---------------0---|-----7-------7-----------7-------|-----7-------7-----------7-------|
D|-----3---------------------------|-0-------------------------------|-0-------------------------------|
A|-0-------------------------------|---------------------------------|---------------------------------|
E|---------------------------------|---------------------------------|---------------------------------|


E|-----------------------|-----------0-----------|---------------------0-----------|
B|-------------0---------|---------------0-------|---------5-------5-----------5---|
G|---------5-------5-----|-5-----5-----------0---|-----7-------7-----------7-------|
D|-----3-----------------|-----------------------|-0-------------------------------|
A|-0---------------------|-----------------------|---------------------------------|
E|-----------------------|-----------------------|---------------------------------|


E|---------------------0-----------|-----------------0---------------|-----------------0---------------|
B|---------5-------5-----------5---|---------5-----------5-------5---|---------5-----------5-------5---|
G|-----7-------7-----------7-------|-----2-------2-----------2-------|-----7-------7-----------7-------|
D|-0-------------------------------|-0-------------------------------|-0-------------------------------|
A|---------------------------------|---------------------------------|---------------------------------|
E|---------------------------------|---------------------------------|---------------------------------|


E|-----------------0---------------|-----------------0---------------|-------------0-------------------|
B|---------0---------------0-------|---------0-----------0-------0---|-----0---------------0-------0---|
G|-----5-------5-------5-----------|-------------5-----------5-------|---------5-------5---------------|
D|-----------------------------7---|-----7---------------------------|-3-------------------------------|
A|-0-------------------------------|-0-------------------------------|-------------------------0-------|
E|---------------------------------|---------------------------------|---------------------------------|


E|---------------------------------|-------------------------0-------|---------------------------------|
B|---------0---------------0-------|-------------0---------------0---|---------0-------0---------------|
G|-----5-------5---------------5---|---------5-------5---------------|-------------5-------------------|
D|-3---------------3---------------|-----5---------------5-----------|-----5---------------5-------5---|
A|---------------------0-----------|-3-------------------------------|-3-----------------------3-------|
E|---------------------------------|---------------------------------|---------------------------------|


E|---------------------0-----------|---------------------------------|-----0---------------------------|
B|---------0-------0-------3-------|-------------0-------------------|---------0-----------0-------0---|
G|-------------5---------------5---|-4-------5-------0---------------|-------------5-----------5-------|
D|-----2---------------------------|-----2---------------2-----------|-----------------7---------------|
A|-2-------------------------------|-------------------------2-------|-0-------------------------------|
E|---------------------------------|-----------------------------0---|---------------------------------|


E|---------0-----------------------|---------------------------------|---------5-------3-------1---0---|
B|-----------------0-------3-------|---------0-------------------0---|-----0---------------3-----------|
G|-------------5-------5-------5---|-------------5-----------5-------|-------------5-------------------|
D|-7-------------------------------|-----3-----------3---------------|-3-------------------------------|
A|-----0---------------------------|-0-------------------0-----------|---------------------------------|
E|---------------------------------|---------------------------------|---------------------------------|


E|---------------------------------|-0-------------------------------|-0-------------------------------|
B|-3---------------0---------------|-----0---------------0-------3---|-----3---------------0-----------|
G|-----5---------------5-------5---|-----------------5-------5-------|---------5-------0-------0-------|
D|---------5---------------5-------|---------5-----------------------|-------------2---------------2---|
A|-------------3-------------------|-------------3-------------------|---------------------------------|
E|---------------------------------|---------------------------------|---------------------------------|


E|-------------------------0-------|-----------------0---------------|-----------------0---------------|
B|-----0-----------3-----------0---|---------0---------------0-------|---------0-----------0-------0---|
G|-5-------5---2-------5-----------|-----5-------5-------5-----------|-------------5-----------5-------|
D|---------------------------------|-----------------------------7---|-----7---------------------------|
A|---------------------------------|-0-------------------------------|-0-------------------------------|
E|---------------------------------|---------------------------------|---------------------------------|


E|-------------0-------------------|---------------------------------|-------------------------0-------|
B|-----0---------------0-------0---|---------0---------------0-------|-------------0---------------0---|
G|---------5-------5---------------|-----5-------5---------------5---|---------5-------5---------------|
D|-3-------------------------------|-3---------------3---------------|-----5---------------5-----------|
A|-------------------------0-------|---------------------0-----------|-3-------------------------------|
E|---------------------------------|---------------------------------|---------------------------------|


E|---------------------------------|---------------------0-----------|---------------------------------|
B|---------0-------0---------------|---------0-------0-------3-------|-------------0-------------------|
G|-------------5-------------------|-------------5---------------5---|-4-------5-------0---------------|
D|-----5---------------5-------5---|-----2---------------------------|-----2---------------2-----------|
A|-3-----------------------3-------|-2-------------------------------|-------------------------2-------|
E|---------------------------------|---------------------------------|-----------------------------0---|


E|-0-----1-----0----|-0---1-----0----1----|-0---------------1---------------|-3---------------1---------------|
B|-3----------------|---------------------|-----3---------------3-----------|-----3---------------3-----------|
G|-2----------------|---------------------|---------2---------------2-------|---------2---------------2-------|
D|------------------|---------------------|-------------0---------------0---|-------------0---------------0---|
A|------------------|---------------------|---------------------------------|---------------------------------|
E|------------------|---------------------|---------------------------------|---------------------------------|


E|-1---------------0---------------|-------------------------0-------|-0---------------3---------------|
B|-----1---------------1-----------|-3---------------1---------------|-1---------------0---------------|
G|---------2---------------2-------|-----2---------------2-----------|-----0---------------0-----------|
D|-------------3---------------3---|---------3-----------------------|---------2---------------2-------|
A|---------------------------------|-------------3---------------3---|-------------3---------------3---|
E|---------------------------------|---------------------------------|---------------------------------|


E|-0---------------1---------------|-0---------------0---------------|-0---------------0---------------|
B|-----------------0-------1-------|-------------------------0-------|-----------------0---------------|
G|-2-------------------2-----------|-2---------------2---------------|-1-------------------1-----------|
D|-----2---------------------------|-----2---------------2-----------|-----2-------------------0-------|
A|---------0-------------------0---|---------2-----------------------|---------2-------------------2---|
E|-------------0-------------------|-------------0---------------0---|-------------0-------------------|


E|-0---------------1---------------|-3---------------1---------------|-1---------------0---------------|
B|-----3---------------3-----------|-----3---------------3-----------|-----1---------------1-----------|
G|---------2---------------2-------|---------2---------------2-------|---------2---------------2-------|
D|-------------0---------------0---|-------------0---------------0---|-------------3---------------3---|
A|---------------------------------|---------------------------------|---------------------------------|
E|---------------------------------|---------------------------------|---------------------------------|


E|-------------------------0-------|-0---------------3---------------|-0---------------1---------------|
B|-3---------------1---------------|-1---------------0---------------|-----------------0-------1-------|
G|-----2---------------2-----------|-----0---------------0-----------|-2-------------------2-----------|
D|---------3-----------------------|---------2---------------2-------|-----2---------------------------|
A|-------------3---------------3---|-------------3---------------3---|---------0-------------------0---|
E|---------------------------------|---------------------------------|-------------0-------------------|


E|-0---------------0---------------|-0---------------0---------------|-0---------------1---------------|
B|-------------------------0-------|-----------------0---------------|-----3---------------3-----------|
G|-2---------------2---------------|-1-------------------1-----------|---------2---------------2-------|
D|-----2---------------2-----------|-----2-------------------0-------|-------------0---------------0---|
A|---------2-----------------------|---------2-------------------2---|---------------------------------|
E|-------------0---------------0---|-------------0-------------------|---------------------------------|


E|-3---------------1---------------|-1---------------0---------------|-------------------------0-------|
B|-----3---------------3-----------|-----1---------------1-----------|-3---------------1---------------|
G|---------2---------------2-------|---------2---------------2-------|-----2---------------2-----------|
D|-------------0---------------0---|-------------3---------------3---|---------3-----------------------|
A|---------------------------------|---------------------------------|-------------3---------------3---|
E|---------------------------------|---------------------------------|---------------------------------|


E|-0---------------3---------------|-0---------------1---------------|-0---------------0---------------|
B|-1---------------0---------------|-----------------0-------1-------|-------------------------0-------|
G|-----0---------------0-----------|-2-------------------2-----------|-2---------------2---------------|
D|---------2---------------2-------|-----2---------------------------|-----2---------------2-----------|
A|-------------3---------------3---|---------0-------------------0---|---------2-----------------------|
E|---------------------------------|-------------0-------------------|-------------0---------------0---|


E|-0---------------0---------------|
B|-----------------0---------------|
G|-1-------------------1-----------|
D|-----2-------------------0-------|
A|---------2-------------------2---|
E|-------------0-------------------|





Track 3: Slow Strings

E|--------|--------|--------|--------|--------|--------|--------|--------|--------|
B|--------|--------|--------|--------|--------|--------|--------|--------|--------|
G|--------|--------|--------|--------|--------|--------|--------|--------|--------|
D|--------|--------|--------|--------|--------|--------|--------|--------|--------|
A|--------|--------|--------|--------|--------|--------|--------|--------|--------|
E|--------|--------|--------|--------|--------|--------|--------|--------|--------|


E|--------|--------|--------|--------|--------|--------|--------|--------|--------|
B|--------|--------|--------|--------|--------|--------|--------|--------|--------|
G|--------|--------|--------|--------|--------|--------|--------|--------|--------|
D|--------|--------|--------|--------|--------|--------|--------|--------|--------|
A|--------|--------|--------|--------|--------|--------|--------|--------|--------|
E|--------|--------|--------|--------|--------|--------|--------|--------|--------|


E|--------|--------|--------|--------|--------|--------|--------|--------|--------|
B|--------|--------|--------|--------|--------|--------|--------|--------|--------|
G|--------|--------|--------|--------|--------|--------|--------|--------|--------|
D|--------|--------|--------|--------|--------|--------|--------|--------|--------|
A|--------|--------|--------|--------|--------|--------|--------|--------|--------|
E|--------|--------|--------|--------|--------|--------|--------|--------|--------|


E|--------|--------|--------|--------|--------|--------|--------|--------|--------|
B|--------|--------|--------|--------|--------|--------|--------|--------|--------|
G|--------|--------|--------|--------|--------|--------|--------|--------|--------|
D|--------|--------|--------|--------|--------|--------|--------|--------|--------|
A|--------|--------|--------|--------|--------|--------|--------|--------|--------|
E|--------|--------|--------|--------|--------|--------|--------|--------|--------|


E|--------|--------|--------|--------|--------|--------|--------|--------|--------|
B|--------|--------|--------|--------|--------|--------|--------|--------|--------|
G|--------|--------|--------|--------|--------|--------|--------|--------|--------|
D|--------|--------|--------|--------|--------|--------|--------|--------|--------|
A|--------|--------|--------|--------|--------|--------|--------|--------|--------|
E|--------|--------|--------|--------|--------|--------|--------|--------|--------|


E|--------|--------|--------|--------|--------|--------|--------|--------|--------|
B|--------|--------|--------|--------|--------|-5------|-5------|--------|--------|
G|--------|--------|--------|--------|--------|-4------|-3------|--------|--------|
D|--------|--------|--------|--------|--------|--------|--------|--------|--------|
A|--------|--------|--------|--------|--------|--------|--------|--------|--------|
E|--------|--------|--------|--------|--------|--------|--------|--------|--------|


E|--------|--------|--------|--------|--------|--------|--------|--------|--------|
B|--------|--------|--------|--------|--------|--------|--------|--------|--------|
G|--------|--------|--------|--------|--------|--------|--------|--------|--------|
D|--------|--------|--------|--------|--------|--------|--------|--------|--------|
A|--------|--------|--------|--------|--------|--------|--------|--------|--------|
E|--------|--------|--------|--------|--------|--------|--------|--------|--------|


E|--------|--------|--------|--------|--------|--------|--------|--------|--------|
B|--------|--------|--------|--------|--------|--------|--------|--------|--------|
G|--------|--------|--------|--------|--------|--------|--------|--------|--------|
D|--------|--------|--------|--------|--------|--------|--------|--------|--------|
A|--------|--------|--------|--------|--------|--------|--------|--------|--------|
E|--------|--------|--------|--------|--------|--------|--------|--------|--------|


E|--------|--------|--------|--------|--------|--------|--------|--------|--------|
B|--------|--------|--------|--------|--------|--------|--------|--------|--------|
G|--------|--------|--------|--------|--------|--------|--------|--------|--------|
D|--------|--------|--------|--------|--------|--------|--------|--------|--------|
A|--------|--------|--------|--------|--------|--------|--------|--------|--------|
E|--------|--------|--------|--------|--------|--------|--------|--------|--------|


E|--------|--------|--------|--------|--------|--------|--------|--------|--------|
B|--------|--------|--------|--------|--------|--------|--------|--------|--------|
G|--------|--------|--------|--------|--------|--------|--------|--------|--------|
D|--------|--------|--------|--------|--------|--------|--------|--------|--------|
A|--------|--------|--------|--------|--------|--------|--------|--------|--------|
E|--------|--------|--------|--------|--------|--------|--------|--------|--------|


E|--------|--------|--------|--------|--------|--------|--------|--------|--------|
B|--------|--------|--------|--------|--------|--------|--------|--------|--------|
G|--------|--------|--------|--------|--------|--------|--------|--------|--------|
D|--------|--------|--------|--------|--------|--------|--------|--------|--------|
A|--------|--------|--------|--------|--------|--------|--------|--------|--------|
E|--------|--------|--------|--------|--------|--------|--------|--------|--------|


E|--------|--------|--------|--------|--------|--------|--------|--------|--------|
B|--------|--------|--------|--------|--------|--------|--------|--------|--------|
G|--------|--------|--------|--------|--------|--------|--------|--------|--------|
D|--------|--------|--------|--------|--------|--------|--------|--------|--------|
A|--------|--------|--------|--------|--------|--------|--------|--------|--------|
E|--------|--------|--------|--------|--------|--------|--------|--------|--------|


E|--------|--------|--------|--------|--------|--------|--------|--------|--------|
B|--------|--------|--------|--------|--------|--------|--------|--------|--------|
G|--------|--------|--------|--------|--------|--------|--------|--------|--------|
D|--------|--------|--------|--------|--------|--------|--------|--------|--------|
A|--------|--------|--------|--------|--------|--------|--------|--------|--------|
E|--------|--------|--------|--------|--------|--------|--------|--------|--------|


E|--------|--------|--------|--------|--------|--------|--------|--------|--------|
B|--------|--------|--------|--------|--------|--------|--------|--------|--------|
G|--------|--------|--------|--------|--------|--------|--------|--------|--------|
D|--------|--------|--------|--------|--------|--------|--------|--------|--------|
A|--------|--------|--------|--------|--------|--------|--------|--------|--------|
E|--------|--------|--------|--------|--------|--------|--------|--------|--------|


E|--------|--------|--------|--------|--------|--------|--------|--------|--------|
B|--------|--------|--------|--------|--------|--------|--------|--------|--------|
G|--------|--------|--------|--------|--------|--------|--------|--------|--------|
D|--------|--------|--------|--------|--------|--------|--------|--------|--------|
A|--------|--------|--------|--------|--------|--------|--------|--------|--------|
E|--------|--------|--------|--------|--------|--------|--------|--------|--------|


E|--------|--------|--------|--------|--------|--------|--------|--------|--------|
B|--------|--------|--------|--------|--------|--------|--------|--------|--------|
G|--------|--------|--------|--------|--------|--------|--------|--------|--------|
D|--------|--------|--------|--------|--------|--------|--------|--------|--------|
A|--------|--------|--------|--------|--------|--------|--------|--------|--------|
E|--------|--------|--------|--------|--------|--------|--------|--------|--------|


E|--------|--------|--------|--------|--------|--------|--------|--------|--------|
B|--------|--------|--------|--------|--------|--------|--------|--------|--------|
G|--------|--------|--------|--------|--------|--------|--------|--------|--------|
D|--------|--------|--------|--------|--------|--------|--------|--------|--------|
A|--------|--------|--------|--------|--------|--------|--------|--------|--------|
E|--------|--------|--------|--------|--------|--------|--------|--------|--------|


E|--------|--------|--------|--------|--------|--------|--------|--------|--------|
B|--------|--------|--------|--------|--------|--------|--------|--------|--------|
G|--------|--------|--------|--------|--------|--------|--------|--------|--------|
D|--------|--------|--------|--------|--------|--------|--------|--------|--------|
A|--------|--------|--------|--------|--------|--------|--------|--------|--------|
E|--------|--------|--------|--------|--------|--------|--------|--------|--------|


E|--------|--------|--------|--------|--------|--------|--------|--------|--------|
B|--------|--------|--------|--------|--------|--------|--------|--------|--------|
G|--------|--------|--------|--------|--------|--------|--------|--------|--------|
D|--------|--------|--------|--------|--------|--------|--------|--------|--------|
A|--------|--------|--------|--------|--------|--------|--------|--------|--------|
E|--------|--------|--------|--------|--------|--------|--------|--------|--------|


E|--------|--------|--------|--------|--------|--------|--------|--------|--------|
B|--------|--------|--------|--------|--------|--------|--------|--------|--------|
G|--------|--------|--------|--------|--------|--------|--------|--------|--------|
D|--------|--------|--------|--------|--------|--------|--------|--------|--------|
A|--------|--------|--------|--------|--------|--------|--------|--------|--------|
E|--------|--------|--------|--------|--------|--------|--------|--------|--------|





Track 4: Piano

E|--------|--------|--------|--------|--------|--------|--------|--------|--------|
B|--------|--------|--------|--------|--------|--------|--------|--------|--------|
G|--------|--------|--------|--------|--------|--------|--------|--------|--------|
D|--------|--------|--------|--------|--------|--------|--------|--------|--------|
A|--------|--------|--------|--------|--------|--------|--------|--------|--------|
E|--------|--------|--------|--------|--------|--------|--------|--------|--------|


E|--------|--------|--------|--------|--------|--------|--------|--------|--------|
B|--------|--------|--------|--------|--------|--------|--------|--------|--------|
G|--------|--------|--------|--------|--------|--------|--------|--------|--------|
D|--------|--------|--------|--------|--------|--------|--------|--------|--------|
A|--------|--------|--------|--------|--------|--------|--------|--------|--------|
E|--------|--------|--------|--------|--------|--------|--------|--------|--------|


E|--------|--------|--------|--------|--------|--------|--------|--------|--------|
B|--------|--------|--------|--------|--------|--------|--------|--------|--------|
G|--------|--------|--------|--------|--------|--------|--------|--------|--------|
D|--------|--------|--------|--------|--------|--------|--------|--------|--------|
A|--------|--------|--------|--------|--------|--------|--------|--------|--------|
E|--------|--------|--------|--------|--------|--------|--------|--------|--------|


E|--------|--------|--------|--------|--------|--------|--------|--------|--------|
B|--------|--------|--------|--------|--------|--------|--------|--------|--------|
G|--------|--------|--------|--------|--------|--------|--------|--------|--------|
D|--------|--------|--------|--------|--------|--------|--------|--------|--------|
A|--------|--------|--------|--------|--------|--------|--------|--------|--------|
E|--------|--------|--------|--------|--------|--------|--------|--------|--------|


E|--------|--------|--------|--------|--------|--------|--------|--------|--------|
B|--------|--------|--------|--------|--------|--------|--------|--------|--------|
G|--------|--------|--------|--------|--------|--------|--------|--------|--------|
D|--------|--------|--------|--------|--------|--------|--------|--------|--------|
A|--------|--------|--------|--------|--------|--------|--------|--------|--------|
E|--------|--------|--------|--------|--------|--------|--------|--------|--------|


E|--------|--------|--------|--------|--------|--------|--------|-1---0---1---0---1---0---1---0---|
B|--------|--------|--------|--------|--------|--------|--------|---------------------------------|
G|--------|--------|--------|--------|--------|--------|--------|---------------------------------|
D|--------|--------|--------|--------|--------|--------|--------|---------------------------------|
A|--------|--------|--------|--------|--------|--------|--------|---------------------------------|
E|--------|--------|--------|--------|--------|--------|--------|---------------------------------|


E|-1---0---1---0---1---0---1---0---|-0---------------0---|-3----1---0-----0-------|
B|---------------------------------|-3-----------3-------|-3--------------3---1---|
G|---------------------------------|-------2-------------|----------2-------------|
D|---------------------------------|-------0-------------|------------------------|
A|---------------------------------|---------------------|------------------------|
E|---------------------------------|---------------------|------------------------|


E|---------------------------|------------0-------|-3---------------|-0----------------------|
B|-1---------1---3---5---1---|-1----------3---5---|-----------------|------0---1-----0-------|
G|-2---------2-----------2---|-2------------------|-0---------------|--------------------2---|
D|-0-----3---------------3---|-3------------------|-------2-----0---|-2----0---2-----0-------|
A|-------3-------------------|-------3------------|-------3---------|--------------------3---|
E|---------------------------|--------------------|-----------------|------------------------|


E|-0-------------------|-0-----------|-10-----10--10--|-10---12---13---15---|-17-----|
B|-0-----------0-------|-0-----------|-6------6---6---|-6----13---15---17---|-10-----|
G|---------------------|-1-----------|-2--------------|---------------------|--------|
D|-------------2-------|-------------|----------------|---------------------|--------|
A|-----------------2---|-------------|----------------|---------------------|--------|
E|-------0-------------|-------0-----|----------------|---------------------|--------|


E|-17-----17--15--|-15---13---12---10---|-12----10----8----|-12-----12------|-12----16----|
B|-10-----10--17--|-17---15---13---12---|-13----12----10---|------------12--|-12----12----|
G|----------------|---------------------|------------------|-14-----14------|-13----13----|
D|----------------|---------------------|------------------|----------------|-------14----|
A|----------------|---------------------|------------------|----------------|-------------|
E|----------------|---------------------|------------------|----------------|-------------|


E|-12-----|-------15--13--12--13--|-13-----|-------13--12--10--12--|-12-----12------|
B|-15-----|-------17--15--13--15--|-15-----|-------15--13--12--13--|-13-----13--17--|
G|-14-----|-----------------------|--------|-----------------------|------------15--|
D|-12-----|-----------------------|--------|-----------------------|----------------|
A|--------|-----------------------|--------|-----------------------|----------------|
E|--------|-----------------------|--------|-----------------------|----------------|


E|----------------|-----------------------|-----------------|-----------------------|
B|-17-----17--15--|-15----15--13--17--13--|-13----13--13----|-12----12--12--15--11--|
G|-15-----15--14--|-14----14----------12--|-12----12--11----|-11----11----------7---|
D|----------------|-----------------------|-----------------|-----------------------|
A|----------------|-----------------------|-----------------|-----------------------|
E|----------------|-----------------------|-----------------|-----------------------|


E|-----------------|--------|--------|--------|--------|--------|--------|--------|
B|-11----11--11----|-10-----|--------|--------|--------|--------|--------|--------|
G|-7-----7---7-----|-7------|--------|--------|--------|--------|--------|--------|
D|-----------------|--------|--------|--------|--------|--------|--------|--------|
A|-----------------|--------|--------|--------|--------|--------|--------|--------|
E|-----------------|--------|--------|--------|--------|--------|--------|--------|


E|--------|--------|--------|-1---0---1---0---1---0---1---0---|-1---0---1---0---1---0---1---0---|
B|--------|--------|--------|---------------------------------|---------------------------------|
G|--------|--------|--------|---------------------------------|---------------------------------|
D|--------|--------|--------|---------------------------------|---------------------------------|
A|--------|--------|--------|---------------------------------|---------------------------------|
E|--------|--------|--------|---------------------------------|---------------------------------|


E|-0------|-0------|--------|--------|--------|--------|--------|--------|-10-----10--10--|
B|-3------|-3------|--------|--------|--------|--------|--------|--------|-6------6---6---|
G|--------|--------|--------|--------|--------|--------|--------|--------|-2--------------|
D|--------|--------|--------|--------|--------|--------|--------|--------|----------------|
A|--------|--------|--------|--------|--------|--------|--------|--------|----------------|
E|--------|--------|--------|--------|--------|--------|--------|--------|----------------|


E|-10---12---13---15---|-17-----|-17-----17--15--|-15---13---12---10---|-12----10----8----|
B|-6----13---15---17---|-10-----|-10-----10--17--|-17---15---13---12---|-13----12----10---|
G|---------------------|--------|----------------|---------------------|------------------|
D|---------------------|--------|----------------|---------------------|------------------|
A|---------------------|--------|----------------|---------------------|------------------|
E|---------------------|--------|----------------|---------------------|------------------|


E|-12-----12------|-12----16---9---7---|-0-----------|-------0---------|------3--------1--------|
B|------------12--|-12----12---7---5---|-3-----------|-------3---------|------5--------5--------|
G|-14-----14------|-13----13-----------|-3-----------|-------3---------|------7--------7--------|
D|----------------|-------14---4---2---|-0-----------|-------0---------|------0--------0--------|
A|----------------|--------------------|-0-----------|-------0---------|------0--------0--------|
E|----------------|--------------------|-------------|-----------------|------------------------|


E|-------1----------|---------------------------------|---------------------------------|
B|-------5----------|---------------------------------|-----17--18----------------------|
G|-------7----------|---------16--17--16--------------|-17----------17----------17------|
D|-------0----------|-15--19--------------19--15--19--|-----------------19--15------19--|
A|-------0----------|---------------------------------|---------------------------------|
E|------------------|---------------------------------|---------------------------------|


E|---------------------------------|---------------------------------|------0----------|
B|---------17------18--17----------|-20--18--17------18--17----------|------3----------|
G|-----19------19----------17------|-------------17----------19--17--|------3----------|
D|-12--------------------------12--|---------------------------------|------0----------|
A|---------------------------------|---------------------------------|------0----------|
E|---------------------------------|---------------------------------|-----------------|


E|-3---------1---------|-----5----------|-------7----7----7----|-13------------------13------12--|
B|-3---------3---------|-----5----------|-------5----5----5----|-13------------------13------13--|
G|-3---------3---------|-----7----------|-------7----7----7----|-14--------------------------14--|
D|-0---------0---------|-----0----------|------------19---17---|---------10----------------------|
A|-0---------0---------|----------------|----------------------|-----3-------10--12------10------|
E|---------------------|----------------|----------------------|---------------------------------|


E|-------------15----12---|-13------------------13---12--|-12----------15-------12------|
B|-------------13----13---|-15-----------------------15--|-15----------15-------13------|
G|-------------14----14---|-14------14----------14-------|-----14--16--14-------14--14--|
D|---------10-------------|-15--14--15--14--15-----------|-----12-----------12------15--|
A|-10--12-----------------|------------------------------|------------------12----------|
E|------------------------|------------------------------|------------------------------|


E|-15-----|-15----12----|---------------------------------|-----13--12--17--15--13--12------|
B|-13-----|-13----13----|---------------------15--13--15--|-----------------------------15--|
G|-14-----|-14----14----|-----17--16--17------------------|-14------------------------------|
D|-15-----|-15----15----|-12--------------15--------------|---------------------------------|
A|--------|-------------|---------------------------------|---------------------------------|
E|--------|-------------|---------------------------------|---------------------------------|


E|--------|--------------------|--------|--------|--------|--------|--------|--------|
B|--------|--------------------|--------|--------|--------|--------|--------|--------|
G|--------|--------------12-14-|--------|--------|--------|--------|--------|--------|
D|--------|--------12-14-------|--------|--------|--------|--------|--------|--------|
A|--------|--------------------|--------|--------|--------|--------|--------|--------|
E|--------|--------------------|--------|--------|--------|--------|--------|--------|


E|--------|--------|--------|--------|--------|--------|--------|--------|--------|
B|--------|--------|--------|--------|--------|--------|--------|--------|--------|
G|--------|--------|--------|--------|--------|--------|--------|--------|--------|
D|--------|--------|--------|--------|--------|--------|--------|--------|--------|
A|--------|--------|--------|--------|--------|--------|--------|--------|--------|
E|--------|--------|--------|--------|--------|--------|--------|--------|--------|


E|--------|-------------5-----------5-----------15-14-12----|-------------7-----------7-----------17-15-14-12-|
B|--------|----------5-----------5-----------5-----------15-|----------5-----------5-----------5--------------|
G|--------|-------5-----------5-----------5-----------------|-------5-----------5-----------5-----------------|
D|--------|----7-----------7-----------7--------------------|----7-----------7-----------7--------------------|
A|--------|-0-----------------------------------------------|-0-----------------------------------------------|
E|--------|-------------------------------------------------|-------------------------------------------------|


E|-------------------------------------------------|-------------------------------------------------|
B|-------------6-----------6-----------------------|-------------8-----------8-----------8--6--------|
G|----------5-----------5-----------5--9--7--5--4--|----------5-----------5-----------5--------9--7--|
D|-------7-----------7-----------7-----------------|-------7-----------7-----------7-----------------|
A|----8-----------8-----------8--------------------|----8-----------8-----------8--------------------|
E|-1-----------------------------------------------|-1-----------------------------------------------|


E|-------------------------------------3-----------|----------1--3--1--3--5--6--5--3--1--5--3--1-----|
B|----------3--5--3--------6--5--3--------6--5--3--|-5--3--5--3--5--3--5--6--8--6--5--3--6--5--3--5--|
G|-5--4--5-----------5--4-----------5--------------|-5--4--5--------------------------------------5--|
D|-------------------------------------------------|-------------------------------------------------|
A|-------------------------------------------------|-------------------------------------------------|
E|-------------------------------------------------|-------------------------------------------------|


E|----------1-----------------------------1--3--1--|-5--3--5--7--5--3--1--0--8--7--5--3--10-8--7--8--|
B|-5--3--5-----5--3--1--0--3--1--0-----5-----------|----------6-----------------------------------5--|
G|----------------------------------2--------------|-9--7--9-----9--7--5--4--7--5--4-----5--4--5-----|
D|-------------------------------------------------|----------------------------------7--------------|
A|-------------------------------------------------|-------------------------------------------------|
E|-------------------------------------------------|-------------------------------------------------|


E|-0-------------------|-0-------------------|------------------|-----------------|
B|------3--------------|------3--------------|-15----10----13---|-8-----8---10----|
G|-19--------2---------|-----------2---------|------------------|-----------------|
D|-15-------------0----|----------------0----|------------------|-----------------|
A|---------------------|---------------------|------------------|-----------------|
E|---------------------|---------------------|------------------|-----------------|


E|-----------------|-----------------|-----------------|-----------------|-----------------|
B|-13----13--15----|-10----10--12----|-13----13--15----|-13----13--15----|-12----12--------|
G|-----------------|-----------------|-----------------|-----------------|-----------14----|
D|-----------------|-----------------|-----------------|-----------------|-----------------|
A|-----------------|-----------------|-----------------|-----------------|-----------------|
E|-----------------|-----------------|-----------------|-----------------|-----------------|


E|-----------------------|-10-----10--10--|-10---12---13---15---|-17-----|-17-----17--15--|
B|-12---1210---12---13---|-6------6---6---|-6----13---15---17---|-10-----|-10-----10--17--|
G|-----------------------|-2--------------|---------------------|--------|----------------|
D|-----------------------|----------------|---------------------|--------|----------------|
A|-----------------------|----------------|---------------------|--------|----------------|
E|-----------------------|----------------|---------------------|--------|----------------|


E|-15---13---12---10---|-12----10----8----|-12-----12------|-12----16----|-10-----10--10--|
B|-17---15---13---12---|-13----12----10---|------------12--|-12----12----|-6------6---6---|
G|---------------------|------------------|-14-----14------|-13----13----|-2--------------|
D|---------------------|------------------|----------------|-------14----|----------------|
A|---------------------|------------------|----------------|-------------|----------------|
E|---------------------|------------------|----------------|-------------|----------------|


E|-10---12---13---15---|-17-----|-17-----17--15--|-15---13---12---10---|-12----10----8----|
B|-6----13---15---17---|-10-----|-10-----10--17--|-17---15---13---12---|-13----12----10---|
G|---------------------|--------|----------------|---------------------|------------------|
D|---------------------|--------|----------------|---------------------|------------------|
A|---------------------|--------|----------------|---------------------|------------------|
E|---------------------|--------|----------------|---------------------|------------------|


E|-12-----12------|-12----16----|
B|------------12--|-12----12----|
G|-14-----14------|-13----13----|
D|----------------|-------14----|
A|----------------|-------------|
E|----------------|-------------|





Track 5: Guitar

E|--------|--------|--------|--------|--------|--------|--------|--------|--------|
B|--------|--------|--------|--------|--------|--------|--------|--------|--------|
G|--------|--------|--------|--------|--------|--------|--------|--------|--------|
D|--------|--------|--------|--------|--------|--------|--------|--------|--------|
A|--------|--------|--------|--------|--------|--------|--------|--------|--------|
E|--------|--------|--------|--------|--------|--------|--------|--------|--------|


E|--------|--------|--------|--------|--------|--------|--------|--------|--------|
B|--------|--------|--------|--------|--------|--------|--------|--------|--------|
G|--------|--------|--------|--------|--------|--------|--------|--------|--------|
D|--------|--------|--------|--------|--------|--------|--------|--------|--------|
A|--------|--------|--------|--------|--------|--------|--------|--------|--------|
E|--------|--------|--------|--------|--------|--------|--------|--------|--------|


E|--------|--------|--------|--------|--------|--------|--------|--------|--------|
B|--------|--------|--------|--------|--------|--------|--------|--------|--------|
G|--------|--------|--------|--------|--------|--------|--------|--------|--------|
D|--------|--------|--------|--------|--------|--------|--------|--------|--------|
A|--------|--------|--------|--------|--------|--------|--------|--------|--------|
E|--------|--------|--------|--------|--------|--------|--------|--------|--------|


E|--------|--------|--------|--------|--------|--------|--------|--------|--------|
B|--------|--------|--------|--------|--------|--------|--------|--------|--------|
G|--------|--------|--------|--------|--------|--------|--------|--------|--------|
D|--------|--------|--------|--------|--------|--------|--------|--------|--------|
A|--------|--------|--------|--------|--------|--------|--------|--------|--------|
E|--------|--------|--------|--------|--------|--------|--------|--------|--------|


E|--------|--------|--------|--------|--------|--------|--------|--------|--------|
B|--------|--------|--------|--------|--------|--------|--------|--------|--------|
G|--------|--------|--------|--------|--------|--------|--------|--------|--------|
D|--------|--------|--------|--------|--------|--------|--------|--------|--------|
A|--------|--------|--------|--------|--------|--------|--------|--------|--------|
E|--------|--------|--------|--------|--------|--------|--------|--------|--------|


E|--------|--------|--------|--------|--------|--------|--------|--------|--------|
B|--------|--------|--------|--------|--------|--------|--------|-5------|-5------|
G|--------|--------|--------|--------|--------|--------|--------|-2------|-2------|
D|--------|--------|--------|--------|--------|--------|--------|-12-----|-12-----|
A|--------|--------|--------|--------|--------|--------|--------|--------|--------|
E|--------|--------|--------|--------|--------|--------|--------|--------|--------|


E|--------|--------|--------|--------|--------|--------|--------|--------|--------|
B|--------|--------|--------|--------|--------|--------|--------|--------|--------|
G|--------|--------|--------|--------|--------|--------|--------|--------|--------|
D|--------|--------|--------|--------|--------|--------|--------|--------|--------|
A|--------|--------|--------|--------|--------|--------|--------|--------|--------|
E|--------|--------|--------|--------|--------|--------|--------|--------|--------|


E|--------|--------|--------|--------|--------|--------|--------|--------|--------|
B|--------|--------|--------|--------|--------|--------|--------|--------|--------|
G|--------|--------|--------|--------|--------|--------|--------|--------|--------|
D|--------|--------|--------|--------|--------|--------|--------|--------|--------|
A|--------|--------|--------|--------|--------|--------|--------|--------|--------|
E|--------|--------|--------|--------|--------|--------|--------|--------|--------|


E|--------|--------|--------|--------|--------|--------|--------|--------|--------|
B|--------|--------|--------|--------|--------|--------|--------|--------|--------|
G|--------|--------|--------|--------|--------|--------|--------|--------|--------|
D|--------|--------|--------|--------|--------|--------|--------|--------|--------|
A|--------|--------|--------|--------|--------|--------|--------|--------|--------|
E|--------|--------|--------|--------|--------|--------|--------|--------|--------|


E|--------|--------|--------|--------|--------|--------|--------|--------|--------|
B|--------|--------|--------|--------|--------|--------|--------|--------|--------|
G|--------|--------|--------|--------|--------|--------|--------|--------|--------|
D|--------|--------|--------|--------|--------|--------|--------|--------|--------|
A|--------|--------|--------|--------|--------|--------|--------|--------|--------|
E|--------|--------|--------|--------|--------|--------|--------|--------|--------|


E|--------|--------|--------|--------|--------|--------|--------|--------|--------|
B|--------|--------|--------|--------|--------|--------|--------|--------|--------|
G|--------|--------|--------|--------|--------|--------|--------|--------|--------|
D|--------|--------|--------|--------|--------|--------|--------|--------|--------|
A|--------|--------|--------|--------|--------|--------|--------|--------|--------|
E|--------|--------|--------|--------|--------|--------|--------|--------|--------|


E|--------|--------|--------|--------|--------|--------|--------|--------|--------|
B|--------|--------|--------|--------|--------|--------|--------|--------|--------|
G|--------|--------|--------|--------|--------|--------|--------|--------|--------|
D|--------|--------|--------|--------|--------|--------|--------|--------|--------|
A|--------|--------|--------|--------|--------|--------|--------|--------|--------|
E|--------|--------|--------|--------|--------|--------|--------|--------|--------|


E|--------|--------|--------|--------|--------|--------|--------|--------|--------|
B|--------|--------|--------|--------|--------|--------|--------|--------|--------|
G|--------|--------|--------|--------|--------|--------|--------|--------|--------|
D|--------|--------|--------|--------|--------|--------|--------|--------|--------|
A|--------|--------|--------|--------|--------|--------|--------|--------|--------|
E|--------|--------|--------|--------|--------|--------|--------|--------|--------|


E|--------|--------|--------|--------|--------|--------|--------|--------|--------|
B|--------|--------|--------|--------|--------|--------|--------|--------|--------|
G|--------|--------|--------|--------|--------|--------|--------|--------|--------|
D|--------|--------|--------|--------|--------|--------|--------|--------|--------|
A|--------|--------|--------|--------|--------|--------|--------|--------|--------|
E|--------|--------|--------|--------|--------|--------|--------|--------|--------|


E|--------|--------|--------|--------|--------|--------|--------|--------|--------|
B|--------|--------|--------|--------|--------|--------|--------|--------|--------|
G|--------|--------|--------|--------|--------|--------|--------|--------|--------|
D|--------|--------|--------|--------|--------|--------|--------|--------|--------|
A|--------|--------|--------|--------|--------|--------|--------|--------|--------|
E|--------|--------|--------|--------|--------|--------|--------|--------|--------|


E|--------|--------|--------|--------|--------|--------|--------|--------|--------|
B|--------|--------|--------|--------|--------|--------|--------|--------|--------|
G|--------|--------|--------|--------|--------|--------|--------|--------|--------|
D|--------|--------|--------|--------|--------|--------|--------|--------|--------|
A|--------|--------|--------|--------|--------|--------|--------|--------|--------|
E|--------|--------|--------|--------|--------|--------|--------|--------|--------|


E|--------|--------|--------|--------|--------|--------|--------|--------|--------|
B|--------|--------|--------|--------|--------|--------|--------|--------|--------|
G|--------|--------|--------|--------|--------|--------|--------|--------|--------|
D|--------|--------|--------|--------|--------|--------|--------|--------|--------|
A|--------|--------|--------|--------|--------|--------|--------|--------|--------|
E|--------|--------|--------|--------|--------|--------|--------|--------|--------|


E|--------|--------|--------|--------|--------|--------|--------|--------|--------|
B|--------|--------|--------|--------|--------|--------|--------|--------|--------|
G|--------|--------|--------|--------|--------|--------|--------|--------|--------|
D|--------|--------|--------|--------|--------|--------|--------|--------|--------|
A|--------|--------|--------|--------|--------|--------|--------|--------|--------|
E|--------|--------|--------|--------|--------|--------|--------|--------|--------|


E|--------|--------|--------|--------|--------|--------|--------|--------|--------|
B|--------|--------|--------|--------|--------|--------|--------|--------|--------|
G|--------|--------|--------|--------|--------|--------|--------|--------|--------|
D|--------|--------|--------|--------|--------|--------|--------|--------|--------|
A|--------|--------|--------|--------|--------|--------|--------|--------|--------|
E|--------|--------|--------|--------|--------|--------|--------|--------|--------|


E|--------|--------|--------|--------|--------|--------|--------|--------|--------|
B|--------|--------|--------|--------|--------|--------|--------|--------|--------|
G|--------|--------|--------|--------|--------|--------|--------|--------|--------|
D|--------|--------|--------|--------|--------|--------|--------|--------|--------|
A|--------|--------|--------|--------|--------|--------|--------|--------|--------|
E|--------|--------|--------|--------|--------|--------|--------|--------|--------|





Track 6: Strings

E|--------|--------|--------|--------|--------|--------|--------|--------|--------|
B|--------|--------|--------|--------|--------|--------|--------|--------|--------|
G|--------|--------|--------|--------|--------|--------|--------|--------|--------|
D|--------|--------|--------|--------|--------|--------|--------|--------|--------|
A|--------|--------|--------|--------|--------|--------|--------|--------|--------|
E|--------|--------|--------|--------|--------|--------|--------|--------|--------|


E|--------|--------|--------|--------|--------|--------|--------|--------|--------|
B|--------|--------|--------|--------|--------|--------|--------|--------|--------|
G|--------|--------|--------|--------|--------|--------|--------|--------|--------|
D|--------|--------|--------|--------|--------|--------|--------|--------|--------|
A|--------|--------|--------|--------|--------|--------|--------|--------|--------|
E|--------|--------|--------|--------|--------|--------|--------|--------|--------|


E|--------|--------|--------|--------|--------|--------|--------|--------|--------|
B|--------|--------|--------|--------|--------|--------|--------|--------|--------|
G|--------|--------|--------|--------|--------|--------|--------|--------|--------|
D|--------|--------|--------|--------|--------|--------|--------|--------|--------|
A|--------|--------|--------|--------|--------|--------|--------|--------|--------|
E|--------|--------|--------|--------|--------|--------|--------|--------|--------|


E|--------|--------|--------|--------|--------|--------|--------|--------|--------|
B|--------|--------|--------|--------|--------|--------|--------|--------|--------|
G|--------|--------|--------|--------|--------|--------|--------|--------|--------|
D|--------|--------|--------|--------|--------|--------|--------|--------|--------|
A|--------|--------|--------|--------|--------|--------|--------|--------|--------|
E|--------|--------|--------|--------|--------|--------|--------|--------|--------|


E|--------|--------|--------|--------|--------|--------|--------|--------|--------|
B|--------|--------|--------|--------|--------|--------|--------|--------|--------|
G|--------|--------|--------|--------|--------|--------|--------|--------|--------|
D|--------|--------|--------|--------|--------|--------|--------|--------|--------|
A|--------|--------|--------|--------|--------|--------|--------|--------|--------|
E|--------|--------|--------|--------|--------|--------|--------|--------|--------|


E|--------|--------|--------|--------|--------|--------|--------|--------|--------|
B|--------|--------|--------|--------|--------|--------|--------|--------|--------|
G|--------|--------|--------|--------|--------|--------|--------|--------|--------|
D|--------|--------|--------|--------|--------|--------|--------|--------|--------|
A|--------|--------|--------|--------|--------|--------|--------|--------|--------|
E|--------|--------|--------|--------|--------|--------|--------|--------|--------|


E|--------|--------|--------|--------|--------|--------|--------|--------|--------|
B|--------|--------|--------|--------|--------|--------|--------|--------|--------|
G|--------|--------|--------|--------|--------|--------|--------|--------|--------|
D|--------|--------|--------|--------|--------|--------|--------|--------|--------|
A|--------|--------|--------|--------|--------|--------|--------|--------|--------|
E|--------|--------|--------|--------|--------|--------|--------|--------|--------|


E|--------|--------|--------|--------|--------|--------|--------|----------------------------------|
B|--------|--------|--------|--------|--------|--------|--------|----------------------------------|
G|--------|--------|--------|--------|--------|--------|--------|-------------12-14----------12-14-|
D|--------|--------|--------|--------|--------|--------|--------|-------12-15-------12-14-15-------|
A|--------|--------|--------|--------|--------|--------|--------|----------------------------------|
E|--------|--------|--------|--------|--------|--------|--------|----------------------------------|


E|-------------|-------------15-17-15-17-18-15-17-|-22----------|-----------------------|
B|-15----------|-------15-18----------------------|-------------|-----------------------|
G|-------------|----------------------------------|-------------|-------10--9---7---9---|
D|-------------|----------------------------------|-------------|-----------------------|
A|-------------|----------------------------------|-------------|-----------------------|
E|-------------|----------------------------------|-------------|-----------------------|


E|-----------------------|--------|--------|-2-----2---------------2--4--6--7--8--|
B|-----------------------|--------|-5------|--------------2--4--5-----------------|
G|-9---------9---12--7---|-7------|--------|-----------4--------------------------|
D|-----------------------|--------|--------|--------------------------------------|
A|-----------------------|--------|--------|--------------------------------------|
E|-----------------------|--------|--------|--------------------------------------|


E|-10----12----|-10-----10-8--6--5--3-----|---------------------------------|--------|
B|-------------|-----------------------6--|-5--3--1--0----------------------|--------|
G|-------------|--------------------------|-------------3--2--0-------------|--------|
D|-------------|--------------------------|---------------------------------|--------|
A|-------------|--------------------------|---------------------------------|--------|
E|-------------|--------------------------|---------------------------------|--------|


E|--------|--------|--------|-7--8--10-12-13-12-10-12-13-12-10-12-13-12-10-8--|-----10-12-13-12-10-12-13--12--13--12--|
B|--------|--------|--------|-------------------------------------------------|---------------------------------------|
G|--------|--------|--------|-------------------------------------------------|---------------------------------------|
D|--------|--------|--------|-------------------------------------------------|---------------------------------------|
A|--------|--------|--------|-------------------------------------------------|---------------------------------------|
E|--------|--------|--------|-------------------------------------------------|---------------------------------------|


E|------8---7---8---7--------|-----7---8---7---8---7---6---4---|--------|--------|
B|---------------------------|---------------------------------|--------|--------|
G|---------------------------|---------------------------------|--------|--------|
D|---------------------------|---------------------------------|--------|--------|
A|---------------------------|---------------------------------|--------|--------|
E|---------------------------|---------------------------------|--------|--------|


E|--------|--------|--------|--------|--------|--------|--------|--------|--------|
B|--------|--------|--------|--------|--------|--------|--------|--------|--------|
G|--------|--------|--------|--------|--------|--------|--------|--------|--------|
D|--------|--------|--------|--------|--------|--------|--------|--------|--------|
A|--------|--------|--------|--------|--------|--------|--------|--------|--------|
E|--------|--------|--------|--------|--------|--------|--------|--------|--------|


E|--------|--------|--------|--------|--------|--------|--------|-12----------|-------12--------|
B|--------|--------|--------|--------|--------|--------|--------|-15----------|-------15--------|
G|--------|--------|--------|--------|--------|--------|--------|-15----------|-------15--------|
D|--------|--------|--------|--------|--------|--------|--------|-12----------|-------12--------|
A|--------|--------|--------|--------|--------|--------|--------|-------------|-----------------|
E|--------|--------|--------|--------|--------|--------|--------|-------------|-----------------|


E|------15-------13-------|-------13-------7--8--10-12-|-13---13--13--13---13--13--|
B|------17-------17-------|-------17-------------------|-13---13--13--13---13--13--|
G|------19-------19-------|-------19-------------------|-14---2---4---5----5---5---|
D|------12-------12-------|-------12-------------------|-------------------3---5---|
A|------------------------|----------------------------|---------------------------|
E|------------------------|----------------------------|---------------------------|


E|-13---12--13--10---10-10-10-10-|-13---------15---|-----------17-------|------20---20----|
B|-13---8---10--6----6--6--6--6--|-17---------17---|-----------17-------|------15---------|
G|-5----5---5---5----5--5--5--5--|-19---------19---|-----------19-------|------15---------|
D|-7----7---7---7----7--7--7--7--|-12---------12---|-----------12-------|------12---------|
A|-------------------31-29-27-26-|-----------------|--------------------|-----------------|
E|-------------------------------|-----------------|--------------------|-----------------|


E|-20--------18--------|---------------------------------|-------------------------7---8---|
B|-15--------15--------|---------------------------------|-------------6---8---10------6---|
G|-15--------15--------|-------------------------2---4---|-5---7---9---4---5---7---9---9---|
D|-12--------12--------|-------------2---3---5-------2---|-3---5---7---2---3---5---7-------|
A|---------------------|-----3---5-----------3---5-------|-----3---5-----------------------|
E|---------------------|---------------------------------|---------------------------------|


E|---------------------------------|---------------------------------|---------------------------------|
B|---------------------------------|-----17--18----------------------|---------17------18--17----------|
G|---------16--17--16--------------|-17----------17----------17------|-----19------19----------17------|
D|-15--19--------------19--15--19--|-----------------19--15------19--|-12--------------------------12--|
A|---------------------------------|---------------------------------|---------------------------------|
E|---------------------------------|---------------------------------|---------------------------------|


E|---------------------------------|------------------------|-----------13--12--13---|
B|-20--18--17------18--17----------|--------------------13--|-12--13----13--13--13---|
G|-------------17----------19--17--|-------14--12--14---14--|-14--14----14--14--14---|
D|---------------------------------|-15----15--15--15---15--|-15--15----15--15--15---|
A|---------------------------------|------------------------|------------------------|
E|---------------------------------|------------------------|------------------------|


E|---------------------------------|---------------------13--12--13--|---------------------------------|
B|---------------------------------|-----15--13--15------------------|---------------------------------|
G|---------------------12------12--|---------------------------------|-----------------22--21--19--17--|
D|-12--15--14--15--12------15------|-12--------------12--------------|-26--24--22--21--19--17--15--14--|
A|---------------------------------|---------------------------------|---------------------------------|
E|---------------------------------|---------------------------------|---------------------------------|


E|---------------------------------|--------|--------|--------|--------|--------|--------|
B|---------------------------------|--------|--------|--------|--------|--------|--------|
G|-16--14--12--10--9---7---5---4---|--------|--------|--------|--------|--------|--------|
D|-12--10--9---7---5---3---2---0---|--------|--------|--------|--------|--------|--------|
A|---------------------------------|--------|--------|--------|--------|--------|--------|
E|---------------------------------|--------|--------|--------|--------|--------|--------|


E|--------|-----------------|--------|-----------------|------------------|-------------|
B|--------|-----------------|--------|-----------------|------------------|-------------|
G|--------|-----------------|--------|-----------------|------------------|-------------|
D|--------|-----------------|--------|-----------------|------------------|-------------|
A|--------|-----------------|-12-----|-12----14---15---|-14-----14--15-14-|-12----10----|
E|--------|-----------12----|--------|-----------------|------------------|-------------|


E|--------|----------------|------------------|-------------|--------|--------|--------|
B|--------|----------------|------------------|-------------|--------|--------|--------|
G|--------|----------------|------------------|-------------|--------|--------|--------|
D|--------|----------10----|-9------9---10-9--|-7-----5-----|--------|--------|--------|
A|-10-----|-10----10-------|------------------|-------------|--------|--------|--------|
E|--------|----------------|------------------|-------------|--------|--------|--------|


E|--------|--------|--------|--------|--------|--------|--------|--------|--------|
B|--------|--------|--------|--------|--------|--------|--------|--------|--------|
G|--------|--------|--------|--------|--------|--------|--------|--------|--------|
D|--------|--------|--------|--------|--------|--------|--------|--------|--------|
A|--------|--------|--------|--------|--------|--------|--------|--------|--------|
E|--------|--------|--------|--------|--------|--------|--------|--------|--------|


E|--------|--------|--------|--------|--------|--------|--------|--------|--------|
B|--------|--------|--------|--------|--------|--------|--------|--------|--------|
G|--------|--------|--------|--------|--------|--------|--------|--------|--------|
D|--------|--------|--------|--------|--------|--------|--------|--------|--------|
A|--------|--------|--------|--------|--------|--------|--------|--------|--------|
E|--------|--------|--------|--------|--------|--------|--------|--------|--------|


E|--------|--------|--------|--------|--------|--------|--------|--------|--------|
B|--------|--------|--------|--------|--------|--------|--------|--------|--------|
G|--------|--------|--------|--------|--------|--------|--------|--------|--------|
D|--------|--------|--------|--------|--------|--------|--------|--------|--------|
A|--------|--------|--------|--------|--------|--------|--------|--------|--------|
E|--------|--------|--------|--------|--------|--------|--------|--------|--------|


E|--------|--------|--------|--------|
B|--------|--------|--------|--------|
G|--------|--------|--------|--------|
D|--------|--------|--------|--------|
A|--------|--------|--------|--------|
E|--------|--------|--------|--------|





Track 7: Guitar

E|--------|--------|--------|--------|--------|--------|--------|--------|--------|
B|--------|--------|--------|--------|--------|--------|--------|--------|--------|
G|--------|--------|--------|--------|--------|--------|--------|--------|--------|
D|--------|--------|--------|--------|--------|--------|--------|--------|--------|
A|--------|--------|--------|--------|--------|--------|--------|--------|--------|
E|--------|--------|--------|--------|--------|--------|--------|--------|--------|


E|--------|--------|--------|--------|--------|--------|--------|--------|--------|
B|--------|--------|--------|--------|--------|--------|--------|--------|--------|
G|--------|--------|--------|--------|--------|--------|--------|--------|--------|
D|--------|--------|--------|--------|--------|--------|--------|--------|--------|
A|--------|--------|--------|--------|--------|--------|--------|--------|--------|
E|--------|--------|--------|--------|--------|--------|--------|--------|--------|


E|--------|--------|--------|--------|--------|--------|--------|--------|--------|
B|--------|--------|--------|--------|--------|--------|--------|--------|--------|
G|--------|--------|--------|--------|--------|--------|--------|--------|--------|
D|--------|--------|--------|--------|--------|--------|--------|--------|--------|
A|--------|--------|--------|--------|--------|--------|--------|--------|--------|
E|--------|--------|--------|--------|--------|--------|--------|--------|--------|


E|--------|--------|--------|--------|--------|--------|--------|--------|--------|
B|--------|--------|--------|--------|--------|--------|--------|--------|--------|
G|--------|--------|--------|--------|--------|--------|--------|--------|--------|
D|--------|--------|--------|--------|--------|--------|--------|--------|--------|
A|--------|--------|--------|--------|--------|--------|--------|--------|--------|
E|--------|--------|--------|--------|--------|--------|--------|--------|--------|


E|--------|--------|--------|--------|--------|--------|--------|--------|--------|
B|--------|--------|--------|--------|--------|--------|--------|--------|--------|
G|--------|--------|--------|--------|--------|--------|--------|--------|--------|
D|--------|--------|--------|--------|--------|--------|--------|--------|--------|
A|--------|--------|--------|--------|--------|--------|--------|--------|--------|
E|--------|--------|--------|--------|--------|--------|--------|--------|--------|


E|--------|--------|--------|--------|--------|--------|--------|--------|--------|
B|--------|--------|--------|--------|--------|--------|--------|--------|--------|
G|--------|--------|--------|--------|--------|--------|--------|--------|--------|
D|--------|--------|--------|--------|--------|--------|--------|--------|--------|
A|--------|--------|--------|--------|--------|--------|--------|--------|--------|
E|--------|--------|--------|--------|--------|--------|--------|--------|--------|


E|--------|--------|--------|--------|--------|--------|--------|--------|--------|
B|--------|--------|--------|--------|--------|--------|--------|--------|--------|
G|--------|--------|--------|--------|--------|--------|--------|--------|--------|
D|--------|--------|--------|--------|--------|--------|--------|--------|--------|
A|--------|--------|--------|--------|--------|--------|--------|--------|--------|
E|--------|--------|--------|--------|--------|--------|--------|--------|--------|


E|--------|--------|--------|--------|--------|--------|--------|--------|--------|
B|--------|--------|--------|--------|--------|--------|--------|--------|--------|
G|--------|--------|--------|--------|--------|--------|--------|--------|--------|
D|--------|--------|--------|--------|--------|--------|--------|--------|--------|
A|--------|--------|--------|--------|--------|--------|--------|--------|--------|
E|--------|--------|--------|--------|--------|--------|--------|--------|--------|


E|--------|--------|--------|--------|--------|--------|--------|--------|--------|
B|--------|--------|--------|--------|--------|--------|--------|--------|--------|
G|--------|--------|--------|--------|--------|--------|--------|--------|--------|
D|--------|--------|--------|--------|--------|--------|--------|--------|--------|
A|--------|--------|--------|--------|--------|--------|--------|--------|--------|
E|--------|--------|--------|--------|--------|--------|--------|--------|--------|


E|--------|--------|--------|--------|--------|--------|--------|--------|--------|
B|--------|--------|--------|--------|--------|--------|--------|--------|--------|
G|--------|--------|--------|--------|--------|--------|--------|--------|--------|
D|--------|--------|--------|--------|--------|--------|--------|--------|--------|
A|--------|--------|--------|--------|--------|--------|--------|--------|--------|
E|--------|--------|--------|--------|--------|--------|--------|--------|--------|


E|-13--12--13--12---------------|------13--12--13--12--------------|--------|--------|
B|----------------------15--13--|----------------------15-13-12-10-|--------|--------|
G|------------------------------|----------------------------------|--------|--------|
D|------------------------------|----------------------------------|--------|--------|
A|------------------------------|----------------------------------|--------|--------|
E|------------------------------|----------------------------------|--------|--------|


E|--------|--------|--------|--------|--------|--------|--------|--------|--------|
B|--------|--------|--------|--------|--------|--------|--------|--------|--------|
G|--------|--------|--------|--------|--------|--------|--------|--------|--------|
D|--------|--------|--------|--------|--------|--------|--------|--------|--------|
A|--------|--------|--------|--------|--------|--------|--------|--------|--------|
E|--------|--------|--------|--------|--------|--------|--------|--------|--------|


E|--------|--------|--------|--------|--------|--------|--------|--------|--------|
B|--------|--------|--------|--------|--------|--------|--------|--------|--------|
G|--------|--------|--------|--------|--------|--------|--------|--------|--------|
D|--------|--------|--------|--------|--------|--------|--------|--------|--------|
A|--------|--------|--------|--------|--------|--------|--------|--------|--------|
E|--------|--------|--------|--------|--------|--------|--------|--------|--------|


E|--------|--------|--------|--------|--------|--------|--------|--------|--------|
B|--------|--------|--------|--------|--------|--------|--------|--------|--------|
G|--------|--------|--------|--------|--------|--------|--------|--------|--------|
D|--------|--------|--------|--------|--------|--------|--------|--------|--------|
A|--------|--------|--------|--------|--------|--------|--------|--------|--------|
E|--------|--------|--------|--------|--------|--------|--------|--------|--------|


E|--------|--------|--------|--------|--------|--------|--------|--------|--------|
B|--------|--------|--------|--------|--------|--------|--------|--------|--------|
G|--------|--------|--------|--------|--------|--------|--------|--------|--------|
D|--------|--------|--------|--------|--------|--------|--------|--------|--------|
A|--------|--------|--------|--------|--------|--------|--------|--------|--------|
E|--------|--------|--------|--------|--------|--------|--------|--------|--------|


E|--------|--------|--------|--------|--------|--------|--------|--------|--------|
B|--------|--------|--------|--------|--------|--------|--------|--------|--------|
G|--------|--------|--------|--------|--------|--------|--------|--------|--------|
D|--------|--------|--------|--------|--------|--------|--------|--------|--------|
A|--------|--------|--------|--------|--------|--------|--------|--------|--------|
E|--------|--------|--------|--------|--------|--------|--------|--------|--------|


E|--------|--------|--------|--------|--------|--------|--------|--------|--------|
B|--------|--------|--------|--------|--------|--------|--------|--------|--------|
G|--------|--------|--------|--------|--------|--------|--------|--------|--------|
D|--------|--------|--------|--------|--------|--------|--------|--------|--------|
A|--------|--------|--------|--------|--------|--------|--------|--------|--------|
E|--------|--------|--------|--------|--------|--------|--------|--------|--------|


E|--------|--------|--------|--------|--------|--------|--------|--------|--------|
B|--------|--------|--------|--------|--------|--------|--------|--------|--------|
G|--------|--------|--------|--------|--------|--------|--------|--------|--------|
D|--------|--------|--------|--------|--------|--------|--------|--------|--------|
A|--------|--------|--------|--------|--------|--------|--------|--------|--------|
E|--------|--------|--------|--------|--------|--------|--------|--------|--------|


E|--------|--------|--------|--------|--------|--------|--------|--------|--------|
B|--------|--------|--------|--------|--------|--------|--------|--------|--------|
G|--------|--------|--------|--------|--------|--------|--------|--------|--------|
D|--------|--------|--------|--------|--------|--------|--------|--------|--------|
A|--------|--------|--------|--------|--------|--------|--------|--------|--------|
E|--------|--------|--------|--------|--------|--------|--------|--------|--------|


E|--------|--------|--------|--------|--------|--------|--------|--------|--------|
B|--------|--------|--------|--------|--------|--------|--------|--------|--------|
G|--------|--------|--------|--------|--------|--------|--------|--------|--------|
D|--------|--------|--------|--------|--------|--------|--------|--------|--------|
A|--------|--------|--------|--------|--------|--------|--------|--------|--------|
E|--------|--------|--------|--------|--------|--------|--------|--------|--------|


E|--------|--------|--------|--------|--------|
B|--------|--------|--------|--------|--------|
G|--------|--------|--------|--------|--------|
D|--------|--------|--------|--------|--------|
A|--------|--------|--------|--------|--------|
E|--------|--------|--------|--------|--------|





Track 8: Guitar

E|--------|--------|--------|--------|--------|--------|--------|--------|--------|
B|--------|--------|--------|--------|--------|--------|--------|--------|--------|
G|--------|--------|--------|--------|--------|--------|--------|--------|--------|
D|--------|--------|--------|--------|--------|--------|--------|--------|--------|
A|--------|--------|--------|--------|--------|--------|--------|--------|--------|
E|--------|--------|--------|--------|--------|--------|--------|--------|--------|


E|--------|--------|--------|--------|--------|--------|--------|--------|--------|
B|--------|--------|--------|--------|--------|--------|--------|--------|--------|
G|--------|--------|--------|--------|--------|--------|--------|--------|--------|
D|--------|--------|--------|--------|--------|--------|--------|--------|--------|
A|--------|--------|--------|--------|--------|--------|--------|--------|--------|
E|--------|--------|--------|--------|--------|--------|--------|--------|--------|


E|--------|--------|--------|--------|--------|--------|--------|--------|--------|
B|--------|--------|--------|--------|--------|--------|--------|--------|--------|
G|--------|--------|--------|--------|--------|--------|--------|--------|--------|
D|--------|--------|--------|--------|--------|--------|--------|--------|--------|
A|--------|--------|--------|--------|--------|--------|--------|--------|--------|
E|--------|--------|--------|--------|--------|--------|--------|--------|--------|


E|--------|--------|--------|--------|--------|--------|--------|--------|--------|
B|--------|--------|--------|--------|--------|--------|--------|--------|--------|
G|--------|--------|--------|--------|--------|--------|--------|--------|--------|
D|--------|--------|--------|--------|--------|--------|--------|--------|--------|
A|--------|--------|--------|--------|--------|--------|--------|--------|--------|
E|--------|--------|--------|--------|--------|--------|--------|--------|--------|


E|--------|--------|--------|--------|--------|--------|--------|--------|--------|
B|--------|--------|--------|--------|--------|--------|--------|--------|--------|
G|--------|--------|--------|--------|--------|--------|--------|--------|--------|
D|--------|--------|--------|--------|--------|--------|--------|--------|--------|
A|--------|--------|--------|--------|--------|--------|--------|--------|--------|
E|--------|--------|--------|--------|--------|--------|--------|--------|--------|


E|--------|--------|--------|--------|--------|--------|--------|--------|--------|
B|--------|--------|--------|--------|--------|--------|--------|--------|--------|
G|--------|--------|--------|--------|--------|--------|--------|--------|--------|
D|--------|--------|--------|--------|--------|--------|--------|--------|--------|
A|--------|--------|--------|--------|--------|--------|--------|--------|--------|
E|--------|--------|--------|--------|--------|--------|--------|--------|--------|


E|--------|--------|--------|--------|--------|--------|--------|--------|--------|
B|--------|--------|--------|--------|--------|--------|--------|--------|--------|
G|--------|--------|--------|--------|--------|--------|--------|--------|--------|
D|--------|--------|--------|--------|--------|--------|--------|--------|--------|
A|--------|--------|--------|--------|--------|--------|--------|--------|--------|
E|--------|--------|--------|--------|--------|--------|--------|--------|--------|


E|--------|--------|--------|--------|--------|--------|--------|--------|--------|
B|--------|--------|--------|--------|--------|--------|--------|--------|--------|
G|--------|--------|--------|--------|--------|--------|--------|--------|--------|
D|--------|--------|--------|--------|--------|--------|--------|--------|--------|
A|--------|--------|--------|--------|--------|--------|--------|--------|--------|
E|--------|--------|--------|--------|--------|--------|--------|--------|--------|


E|--------|--------|--------|--------|--------|--------|--------|--------|--------|
B|--------|--------|--------|--------|--------|--------|--------|--------|--------|
G|--------|--------|--------|--------|--------|--------|--------|--------|--------|
D|--------|--------|--------|--------|--------|--------|--------|--------|--------|
A|--------|--------|--------|--------|--------|--------|--------|--------|--------|
E|--------|--------|--------|--------|--------|--------|--------|--------|--------|


E|--------|--------|--------|--------|--------|--------|--------|--------|--------|
B|--------|--------|--------|--------|--------|--------|--------|--------|--------|
G|--------|--------|--------|--------|--------|--------|--------|--------|--------|
D|--------|--------|--------|--------|--------|--------|--------|--------|--------|
A|--------|--------|--------|--------|--------|--------|--------|--------|--------|
E|--------|--------|--------|--------|--------|--------|--------|--------|--------|


E|--------|--------|--------|--------|--------|--------|--------|--------|--------|
B|--------|--------|--------|--------|--------|--------|--------|--------|--------|
G|--------|--------|--------|--------|--------|--------|--------|--------|--------|
D|--------|--------|--------|--------|--------|--------|--------|--------|--------|
A|--------|--------|--------|--------|--------|--------|--------|--------|--------|
E|--------|--------|--------|--------|--------|--------|--------|--------|--------|


E|--------|--------|--------|--------|--------|--------|--------|--------|--------|
B|--------|--------|--------|--------|--------|--------|--------|--------|--------|
G|--------|--------|--------|--------|--------|--------|--------|--------|--------|
D|--------|--------|--------|--------|--------|--------|--------|--------|--------|
A|--------|--------|--------|--------|--------|--------|--------|--------|--------|
E|--------|--------|--------|--------|--------|--------|--------|--------|--------|


E|--------|--------|--------|--------|--------|--------|--------|--------|--------|
B|--------|--------|--------|--------|--------|--------|--------|--------|--------|
G|--------|--------|--------|--------|--------|--------|--------|--------|--------|
D|--------|--------|--------|--------|--------|--------|--------|--------|--------|
A|--------|--------|--------|--------|--------|--------|--------|--------|--------|
E|--------|--------|--------|--------|--------|--------|--------|--------|--------|


E|--------|--------|--------|--------|--------|--------|--------|--------|--------|
B|--------|--------|--------|--------|--------|--------|--------|--------|--------|
G|--------|--------|--------|--------|--------|--------|--------|--------|--------|
D|--------|--------|--------|--------|--------|--------|--------|--------|--------|
A|--------|--------|--------|--------|--------|--------|--------|--------|--------|
E|--------|--------|--------|--------|--------|--------|--------|--------|--------|


E|--------|--------|--------|--------|-17-----|-17----17--12----|-13-----|-13----12---10---|
B|--------|--------|--------|--------|-17-----|-17----17--12----|-13-----|-13----13---13---|
G|--------|--------|--------|--------|-17-----|-17----17--17----|-14-----|-14----14---14---|
D|--------|--------|--------|--------|-19-----|-19----19--------|-15-----|-15--------------|
A|--------|--------|--------|--------|--------|-----------------|--------|-----------------|
E|--------|--------|--------|--------|--------|-----------------|--------|-----------------|


E|--------|-----------------|-12---------------12----|-------12--------------|--------|
B|-13-----|-13----13--17----|-15-----------12--------|-15-------15-13---12---|--------|
G|-12-----|-12----12--12----|-12-------12------------|-16----------14---12---|-14-----|
D|-14-----|-14----14--14----|-14---14----------------|-----------------------|-14-----|
A|-15-----|-15----15--------|------------------------|-----------------------|-15-----|
E|--------|-----------------|------------------------|-----------------------|-17-----|


E|-----------------|--------|------------------------|---------------------------------------------|
B|-----------15----|-13-----|-13---17--15-------13---|-15--13--12------13--12------12--------------|
G|-14----14--14----|-10-----|-10---12------17---12---|-12----------14----------14------14--12------|
D|-14----14--------|-10-----|-10----------------10---|-14--------------------------------------15--|
A|-15----15--------|-12-----|-12---------------------|-15------------------------------------------|
E|-17----17--------|-13-----|-13---------------------|-12------------------------------------------|


E|-------------------------------------|-----------------------------|-------------------------------|
B|-------------------------------------|-------------------12----12--|-12----------------------------|
G|-14--12------------------------------|----------------12-----------|-----14--12--------------------|
D|---------15--14--12------14--12------|----------14-16--------------|-------------16--14--12--------|
A|---------------------15----------15--|----12-14--------------------|-------------------------14----|
E|-------------------------------------|-12--------------------------|-------------------------12----|


E|--------|--------|--------|--------|--------|--------|--------|--------|--------|
B|--------|--------|--------|--------|--------|--------|--------|--------|--------|
G|--------|--------|--------|--------|--------|--------|--------|--------|--------|
D|--------|--------|--------|--------|--------|--------|--------|--------|--------|
A|--------|--------|--------|--------|--------|--------|--------|--------|--------|
E|--------|--------|--------|--------|--------|--------|--------|--------|--------|


E|--------|--------|--------|--------|--------|--------|--------|--------|--------|
B|--------|--------|--------|--------|--------|--------|--------|--------|--------|
G|--------|--------|--------|--------|--------|--------|--------|--------|--------|
D|--------|--------|--------|--------|--------|--------|--------|--------|--------|
A|--------|--------|--------|--------|--------|--------|--------|--------|--------|
E|--------|--------|--------|--------|--------|--------|--------|--------|--------|


E|--------|--------|--------|--------|--------|--------|--------|--------|--------|
B|--------|--------|--------|--------|--------|--------|--------|--------|--------|
G|--------|--------|--------|--------|--------|--------|--------|--------|--------|
D|--------|--------|--------|--------|--------|--------|--------|--------|--------|
A|--------|--------|--------|--------|--------|--------|--------|--------|--------|
E|--------|--------|--------|--------|--------|--------|--------|--------|--------|


E|--------|--------|--------|--------|--------|--------|--------|
B|--------|--------|--------|--------|--------|--------|--------|
G|--------|--------|--------|--------|--------|--------|--------|
D|--------|--------|--------|--------|--------|--------|--------|
A|--------|--------|--------|--------|--------|--------|--------|
E|--------|--------|--------|--------|--------|--------|--------|





Track 9: Guitar

E|--------|--------|--------|--------|--------|--------|--------|--------|--------|
B|--------|--------|--------|--------|--------|--------|--------|--------|--------|
G|--------|--------|--------|--------|--------|--------|--------|--------|--------|
D|--------|--------|--------|--------|--------|--------|--------|--------|--------|
A|--------|--------|--------|--------|--------|--------|--------|--------|--------|
E|--------|--------|--------|--------|--------|--------|--------|--------|--------|


E|--------|--------|--------|--------|--------|--------|--------|--------|--------|
B|--------|--------|--------|--------|--------|--------|--------|--------|--------|
G|--------|--------|--------|--------|--------|--------|--------|--------|--------|
D|--------|--------|--------|--------|--------|--------|--------|--------|--------|
A|--------|--------|--------|--------|--------|--------|--------|--------|--------|
E|--------|--------|--------|--------|--------|--------|--------|--------|--------|


E|--------|--------|--------|--------|--------|--------|--------|--------|--------|
B|--------|--------|--------|--------|--------|--------|--------|--------|--------|
G|--------|--------|--------|--------|--------|--------|--------|--------|--------|
D|--------|--------|--------|--------|--------|--------|--------|--------|--------|
A|--------|--------|--------|--------|--------|--------|--------|--------|--------|
E|--------|--------|--------|--------|--------|--------|--------|--------|--------|


E|--------|--------|--------|--------|--------|--------|--------|--------|--------|
B|--------|--------|--------|--------|--------|--------|--------|--------|--------|
G|--------|--------|--------|--------|--------|--------|--------|--------|--------|
D|--------|--------|--------|--------|--------|--------|--------|--------|--------|
A|--------|--------|--------|--------|--------|--------|--------|--------|--------|
E|--------|--------|--------|--------|--------|--------|--------|--------|--------|


E|--------|--------|--------|--------|--------|--------|--------|--------|--------|
B|--------|--------|--------|--------|--------|--------|--------|--------|--------|
G|--------|--------|--------|--------|--------|--------|--------|--------|--------|
D|--------|--------|--------|--------|--------|--------|--------|--------|--------|
A|--------|--------|--------|--------|--------|--------|--------|--------|--------|
E|--------|--------|--------|--------|--------|--------|--------|--------|--------|


E|--------|--------|--------|--------|--------|--------|--------|--------|--------|
B|--------|--------|--------|--------|--------|--------|--------|--------|--------|
G|--------|--------|--------|--------|--------|--------|--------|--------|--------|
D|--------|--------|--------|--------|--------|--------|--------|--------|--------|
A|--------|--------|--------|--------|--------|--------|--------|--------|--------|
E|--------|--------|--------|--------|--------|--------|--------|--------|--------|


E|--------|--------|--------|--------|--------|--------|--------|--------|--------|
B|--------|--------|--------|--------|--------|--------|--------|--------|--------|
G|--------|--------|--------|--------|--------|--------|--------|--------|--------|
D|--------|--------|--------|--------|--------|--------|--------|--------|--------|
A|--------|--------|--------|--------|--------|--------|--------|--------|--------|
E|--------|--------|--------|--------|--------|--------|--------|--------|--------|


E|--------|--------|--------|--------|--------|--------|--------|--------|--------|
B|--------|--------|--------|--------|--------|--------|--------|--------|--------|
G|--------|--------|--------|--------|--------|--------|--------|--------|--------|
D|--------|--------|--------|--------|--------|--------|--------|--------|--------|
A|--------|--------|--------|--------|--------|--------|--------|--------|--------|
E|--------|--------|--------|--------|--------|--------|--------|--------|--------|


E|--------|--------|--------|--------|--------|--------|--------|--------|--------|
B|--------|--------|--------|--------|--------|--------|--------|--------|--------|
G|--------|--------|--------|--------|--------|--------|--------|--------|--------|
D|--------|--------|--------|--------|--------|--------|--------|--------|--------|
A|--------|--------|--------|--------|--------|--------|--------|--------|--------|
E|--------|--------|--------|--------|--------|--------|--------|--------|--------|


E|--------|--------|--------|--------|--------|--------|--------|--------|--------|
B|--------|--------|--------|--------|--------|--------|--------|--------|--------|
G|--------|--------|--------|--------|--------|--------|--------|--------|--------|
D|--------|--------|--------|--------|--------|--------|--------|--------|--------|
A|--------|--------|--------|--------|--------|--------|--------|--------|--------|
E|--------|--------|--------|--------|--------|--------|--------|--------|--------|


E|--------|--------|--------|--------|--------|--------|--------|--------|--------|
B|--------|--------|--------|--------|--------|--------|--------|--------|--------|
G|--------|--------|--------|--------|--------|--------|--------|--------|--------|
D|--------|--------|--------|--------|--------|--------|--------|--------|--------|
A|--------|--------|--------|--------|--------|--------|--------|--------|--------|
E|--------|--------|--------|--------|--------|--------|--------|--------|--------|


E|--------|--------|--------|--------|--------|--------|--------|--------|--------|
B|--------|--------|--------|--------|--------|--------|--------|--------|--------|
G|--------|--------|--------|--------|--------|--------|--------|--------|--------|
D|--------|--------|--------|--------|--------|--------|--------|--------|--------|
A|--------|--------|--------|--------|--------|--------|--------|--------|--------|
E|--------|--------|--------|--------|--------|--------|--------|--------|--------|


E|--------|--------|--------|--------|--------|--------|--------|--------|--------|
B|--------|--------|--------|--------|--------|--------|--------|--------|--------|
G|--------|--------|--------|--------|--------|--------|--------|--------|--------|
D|--------|--------|--------|--------|--------|--------|--------|--------|--------|
A|--------|--------|--------|--------|--------|--------|--------|--------|--------|
E|--------|--------|--------|--------|--------|--------|--------|--------|--------|


E|--------|--------|--------|--------|--------|--------|--------|--------|--------|
B|--------|--------|--------|--------|--------|--------|--------|--------|--------|
G|--------|--------|--------|--------|--------|--------|--------|--------|--------|
D|--------|--------|--------|--------|--------|--------|--------|--------|--------|
A|--------|--------|--------|--------|--------|--------|--------|--------|--------|
E|--------|--------|--------|--------|--------|--------|--------|--------|--------|


E|--------|--------|--------|--------|--------|--------|--------|--------|--------|
B|--------|--------|--------|--------|--------|--------|--------|--------|--------|
G|--------|--------|--------|--------|--------|--------|--------|--------|--------|
D|--------|--------|--------|--------|--------|--------|--------|--------|--------|
A|--------|--------|--------|--------|--------|--------|--------|--------|--------|
E|--------|--------|--------|--------|--------|--------|--------|--------|--------|


E|--------|--------|--------|--------|--------|--------|--------|--------|--------|
B|--------|--------|--------|--------|--------|--------|--------|--------|--------|
G|--------|--------|--------|--------|--------|--------|--------|--------|--------|
D|--------|--------|--------|--------|--------|--------|--------|--------|--------|
A|--------|--------|--------|--------|--------|--------|--------|--------|--------|
E|--------|--------|--------|--------|--------|--------|--------|--------|--------|


E|--------|--------|--------|--------|--------|--------|--------|--------|--------|
B|--------|--------|--------|--------|--------|--------|--------|--------|--------|
G|--------|--------|--------|--------|--------|--------|--------|--------|--------|
D|--------|--------|-7------|-7------|-7------|--------|--------|--------|--------|
A|--------|--------|--------|--------|--------|--------|--------|--------|--------|
E|--------|--------|--------|--------|--------|--------|--------|--------|--------|


E|--------|--------|--------|--------|--------|--------|--------|--------|--------|
B|--------|--------|--------|--------|--------|--------|--------|--------|--------|
G|--------|--------|--------|--------|--------|--------|--------|--------|--------|
D|--------|--------|--------|--------|--------|--------|--------|--------|--------|
A|--------|--------|--------|--------|--------|--------|--------|--------|--------|
E|--------|--------|--------|--------|--------|--------|--------|--------|--------|


E|--------|--------|--------|--------|--------|--------|--------|--------|--------|
B|--------|--------|--------|--------|--------|--------|--------|--------|--------|
G|--------|--------|--------|--------|--------|--------|--------|--------|--------|
D|--------|--------|--------|--------|--------|--------|--------|--------|--------|
A|--------|--------|--------|--------|--------|--------|--------|--------|--------|
E|--------|--------|--------|--------|--------|--------|--------|--------|--------|


E|--------|--------|--------|--------|--------|--------|--------|--------|--------|
B|--------|--------|--------|--------|--------|--------|--------|--------|--------|
G|--------|--------|--------|--------|--------|--------|--------|--------|--------|
D|--------|--------|--------|--------|--------|--------|--------|--------|--------|
A|--------|--------|--------|--------|--------|--------|--------|--------|--------|
E|--------|--------|--------|--------|--------|--------|--------|--------|--------|





Track 10: Bass

G|--------|--------|--------|--------|--------|--------|--------|--------|--------|
D|--------|--------|--------|--------|--------|--------|--------|--------|--------|
A|--------|--------|--------|--------|--------|--------|--------|--------|--------|
D|--------|--------|--------|--------|--------|--------|--------|--------|--------|


G|--------|--------|--------|--------|--------|--------|--------|--------|--------|
D|--------|--------|--------|--------|--------|--------|--------|--------|--------|
A|--------|--------|--------|--------|--------|--------|--------|--------|--------|
D|--------|--------|--------|--------|--------|--------|--------|--------|--------|


G|--------|--------|--------|--------|--------|--------|--------|--------|--------|
D|--------|--------|--------|--------|--------|--------|--------|--------|--------|
A|--------|--------|--------|--------|--------|--------|--------|--------|--------|
D|--------|--------|--------|--------|--------|--------|--------|--------|--------|


G|--------|--------|--------|--------|--------|--------|--------|--------|--------|
D|--------|--------|--------|--------|--------|--------|--------|--------|--------|
A|--------|--------|--------|--------|--------|--------|--------|--------|--------|
D|--------|--------|--------|--------|--------|--------|--------|--------|--------|


G|--------|--------|--------|--------|--------|--------|--------|--------|--------|
D|--------|--------|--------|--------|--------|--------|--------|--------|--------|
A|--------|--------|--------|--------|--------|--------|--------|--------|--------|
D|--------|--------|--------|--------|--------|--------|-0------|-0------|-0------|


G|--------|--------|--------|--------|--------|--------|--------|--------|--------|
D|--------|--------|--------|-0------|--------|--------|--------|--------|--------|
A|--------|--------|--------|--------|-3------|-2------|-1------|--------|--------|
D|-0------|-0------|-0------|--------|--------|--------|--------|-0------|-0------|


G|--------|--------|--------|--------|--------|--------|--------|--------|--------|
D|--------|--------|--------|--------|--------|--------|--------|--------|--------|
A|--------|--------|--------|--------|-3------|-0------|--------|--------|--------|
D|-0------|-0------|-3------|-3------|--------|--------|-2------|-2------|-0------|


G|--------|--------|--------|--------|--------|--------|--------|--------|--------|
D|--------|--------|--------|--------|--------|--------|--------|--------|--------|
A|--------|--------|--------|-3------|-0------|--------|--------|--------|--------|
D|-0------|-3------|-3------|--------|--------|-2------|-2------|-0------|-0------|


G|--------|--------|--------|--------|--------|--------|--------|--------|--------|
D|--------|--------|--------|--------|-0------|--------|--------|--------|--------|
A|--------|--------|--------|--------|--------|-3------|-2------|-1------|--------|
D|-0------|-0------|-0------|-0------|--------|--------|--------|--------|-0------|


G|--------|--------|--------|--------|--------|--------|--------|--------|--------|
D|--------|--------|--------|--------|--------|-0------|--------|--------|--------|
A|--------|--------|--------|--------|--------|--------|-3------|-2------|-1------|
D|-0------|-0------|-0------|-0------|-0------|--------|--------|--------|--------|


G|--------|--------|--------|--------|--------|--------|--------|--------|--------|
D|--------|--------|--------|--------|--------|--------|--------|--------|--------|
A|--------|--------|--------|--------|--------|--------|-3------|-0------|--------|
D|-0------|-0------|-0------|-0------|-3------|-3------|--------|--------|-2------|


G|--------|--------|--------|--------|--------|--------|--------|--------|--------|
D|--------|--------|--------|--------|--------|--------|--------|--------|--------|
A|--------|--------|--------|--------|--------|-3------|-0------|--------|--------|
D|-2------|-0------|-0------|-3------|-3------|--------|--------|-2------|-2------|


G|------------------------|---------------------------|---------------------------|
D|------------------------|---------------------------|---------------------------|
A|------------------------|---------------------------|---------------------------|
D|-0----0---0----0---0----|-0---0----0---0----0---0---|-0---0---0----0---0----0---|


G|------------------------|---------------------------|---------------------------|
D|------------------------|---------------------------|---------------------------|
A|------------------------|---------------------------|---------------------------|
D|-0----0---0----0---0----|-3---3----3---3----3---3---|-3---3---3----3---3----3---|


G|------------------------|------------------------------|---------------------------|
D|------------------------|------------------------------|---------------------------|
A|------------------------|------------------------------|---------------------------|
D|-0----0---0----0---0----|-0---0----0---0---0---0---0---|-0---0---0----0---0----0---|


G|------------------------|---------------------------|------------------------------|
D|------------------------|---------------------------|------------------------------|
A|------------------------|---------------------------|------------------------------|
D|-0----0---0----0---0----|-0---0----0---0----0---0---|-0---0---0---0---0---0----0---|


G|------------------------|---------------------------|---------------------------|
D|------------------------|---------------------------|---------------------------|
A|------------------------|---------------------------|---------------------------|
D|-3----3---3----3---3----|-3---3----3---3----3---3---|-0---0---0----0---0----0---|


G|------------------------|--------|-------------------------|------------------------|
D|------------------------|--------|-------------------------|------------------------|
A|------------------------|--------|-------------------------|------------------------|
D|-0----0---0----0---0----|-3------|-3---3--3--3---3---3-----|-0----0---0----0---0----|


G|---------------------------|------------------------|---------------------------|
D|---------------------------|------------------------|---------------------------|
A|---------------------------|------------------------|---------------------------|
D|-0---0----0---0----0---0---|-0----0---2----2---2----|-3---3----3---5----5---5---|


G|--------|--------|--------|--------|--------|--------|--------|--------|--------|
D|--------|--------|--------|--------|--------|--------|--------|--------|--------|
A|-0------|-0------|--------|--------|-3------|-3------|--------|--------|-0------|
D|--------|--------|-3------|-3------|--------|--------|-2------|-2------|--------|


G|--------|--------|--------|--------|--------|--------|--------|--------|--------|
D|--------|--------|--------|--------|--------|--------|--------|--------|--------|
A|-0------|--------|--------|-3------|-3------|--------|--------|-0------|-0------|
D|--------|-3------|-3------|--------|--------|-2------|-2------|--------|--------|


G|--------|--------|--------|--------|--------|--------|--------|-----------------------|
D|--------|--------|--------|--------|--------|--------|--------|-----------------------|
A|--------|--------|-3------|-3------|--------|--------|--------|-----------5-----------|
D|-3------|-3------|--------|--------|-2------|-2------|-0------|-0-----0-------7---3---|


G|--------|--------|--------|--------|--------|--------|--------|--------|--------|
D|--------|--------|--------|--------|--------|--------|--------|--------|--------|
A|--------|--------|--------|--------|-3------|-0------|--------|--------|--------|
D|-0------|-0------|-3------|-3------|--------|--------|-2------|-2------|-0------|


G|--------|--------|--------|--------|--------|--------|--------|--------|--------|
D|--------|--------|--------|--------|--------|--------|--------|--------|--------|
A|--------|--------|--------|-3------|-0------|--------|--------|--------|--------|
D|-0------|-3------|-3------|--------|--------|-2------|-2------|-0------|-0------|


G|--------|--------|--------|--------|--------|--------|
D|--------|--------|--------|--------|--------|--------|
A|--------|--------|-3------|-0------|--------|--------|
D|-3------|-3------|--------|--------|-2------|-2------|





Track 11: Strings

E|--------|--------|--------|--------|--------|--------|--------|--------|--------|
B|--------|--------|--------|--------|--------|--------|--------|--------|--------|
G|--------|--------|--------|--------|--------|--------|--------|--------|--------|
D|--------|--------|--------|--------|--------|--------|--------|--------|--------|
A|--------|--------|--------|--------|--------|--------|--------|--------|--------|
E|--------|--------|--------|--------|--------|--------|--------|--------|--------|


E|--------|--------|--------|--------|--------|--------|--------|--------|--------|
B|--------|--------|--------|--------|--------|--------|--------|--------|--------|
G|--------|--------|--------|--------|--------|--------|--------|--------|--------|
D|--------|--------|--------|--------|--------|--------|--------|--------|--------|
A|--------|--------|--------|--------|--------|--------|--------|--------|--------|
E|--------|--------|--------|--------|--------|--------|--------|--------|--------|


E|--------|--------|--------|--------|--------|--------|--------|--------|--------|
B|--------|--------|--------|--------|--------|--------|--------|--------|--------|
G|--------|--------|--------|--------|--------|--------|--------|--------|--------|
D|--------|--------|--------|--------|--------|--------|--------|--------|--------|
A|--------|--------|--------|--------|--------|--------|--------|--------|--------|
E|--------|--------|--------|--------|--------|--------|--------|--------|--------|


E|--------|--------|--------|--------|--------|--------|--------|--------|--------|
B|--------|--------|--------|--------|--------|--------|--------|--------|--------|
G|--------|--------|--------|--------|--------|--------|--------|--------|--------|
D|--------|--------|--------|--------|--------|--------|--------|--------|--------|
A|--------|--------|--------|--------|--------|--------|--------|--------|--------|
E|--------|--------|--------|--------|--------|--------|--------|--------|--------|


E|--------|--------|--------|--------|--------|--------|--------|--------|--------|
B|--------|--------|--------|--------|--------|--------|--------|--------|--------|
G|--------|--------|--------|--------|--------|--------|--------|--------|--------|
D|--------|--------|--------|--------|--------|--------|--------|--------|--------|
A|--------|--------|--------|--------|--------|--------|--------|--------|--------|
E|--------|--------|--------|--------|--------|--------|--------|--------|--------|


E|--------|--------|--------|--------|--------|--------|--------|----------------|
B|--------|--------|--------|--------|--------|--------|--------|----------------|
G|--------|--------|--------|--------|--------|--------|--------|----------------|
D|--------|--------|--------|--------|--------|--------|--------|----------------|
A|--------|--------|--------|--------|--------|--------|--------|----------------|
E|--------|--------|--------|--------|--------|--------|--------|--------10--12--|


E|---------------------------------|--------|------12---13---15---|--------|-----------------------|
B|-------------------------15--17--|-15-----|-15------------------|-13-----|-13--15--17--13----13--|
G|---------------------14----------|--------|---------------------|--------|-----------------------|
D|---------12--14--15--------------|--------|---------------------|--------|-----------------------|
A|-----12--------------------------|--------|---------------------|--------|-----------------------|
E|-13------------------------------|--------|---------------------|--------|-----------------------|


E|--------|--------|--------|--------|--------|--------|-10---12---13---15---|-17-----|
B|-13-----|-13-----|-12-----|--------|--------|--------|---------------------|--------|
G|--------|--------|--------|-13-----|-14-----|-14-----|---------------------|--------|
D|--------|--------|--------|--------|--------|--------|---------------------|--------|
A|--------|--------|--------|--------|--------|--------|---------------------|--------|
E|--------|--------|--------|--------|--------|--------|---------------------|--------|


E|-15-----|-12-----|-----------14--16--12--|-12-----|--------|--------|--------|--------|
B|--------|--------|-12----12--------------|--------|--------|--------|--------|--------|
G|--------|--------|-----------------------|--------|--------|--------|--------|--------|
D|--------|--------|-----------------------|--------|--------|--------|--------|--------|
A|--------|--------|-----------------------|--------|--------|--------|--------|--------|
E|--------|--------|-----------------------|--------|--------|--------|--------|--------|


E|--------|--------|--------|--------|--------|--------|---------------------------------|
B|--------|--------|--------|--------|--------|--------|---------------------------------|
G|--------|--------|--------|--------|--------|--------|---------------------------------|
D|--------|--------|--------|--------|--------|--------|---------------------------------|
A|--------|--------|--------|--------|--------|--------|-----7---8---7---8---7---5---7---|
E|--------|--------|--------|--------|--------|--------|---------------------------------|


E|------------------------------|---------------------------------|------------------------------|
B|------------------------------|---------------------------------|------------------------------|
G|------------------------------|---------------------------------|----------------------5---7---|
D|------------------------------|---------------------------------|------7---8---7---8-----------|
A|------8---7---8---7---5---4---|-----7---8---7---8---7---5---7---|------8---7---8---7---5---4---|
E|------------------------------|---------------------------------|------------------------------|


E|---------------------------------|------------------------------|--------------------|
B|---------------------------------|------------------------------|--------------------|
G|-----4---5---4---5---4---2---4---|------5---4---5---4---2---0---|-9-----9---10---7---|
D|---------------------------------|------------------------------|-0-----0---0----0---|
A|-----7---8---7---8---7---5---7---|------8---7---8---7---5---4---|--------------------|
E|---------------------------------|------------------------------|--------------------|


E|-----------------------|--------------------|------------------------------|------------------------------|
B|-----------------------|--------------------|------------------------------|------------------------------|
G|-7-----7---7---7---7---|-7-----7---10---9---|-9-----8----7--5--3--2--0-----|------------------------------|
D|-2-----2---3---5---7---|-7-----7---7----7---|-7-----9-------------------3--|-2---3---2---3--------3---2---|
A|-----------------------|--------------------|------------------------------|------------------------------|
E|-----------------------|--------------------|------------------------------|------------------------------|


E|------------------------------|---------------------------------|---------------------------------|
B|------------------------------|---------------------------------|---------------------------------|
G|------------------------------|---------------------------------|---------------------------------|
D|------3---2---3---2---3---2---|---------------------------------|---------------------------------|
A|------------------------------|-8---7---8---7---8---7---8---10--|-8---7---8---7---8---7---8---7---|
E|------------------------------|---------------------------------|---------------------------------|


E|---------------------------------|---------------------------------|---------------------------------|
B|---------------------------------|---------------------------------|---------------------------------|
G|---------------------------------|---------------------------------|---------------------------------|
D|---------------------------------|-----------------------------2---|-3---2---3---2---3---2---3---5---|
A|-5---3---5---3---5---3---1---3---|-5---3---5---3---5---3---5-------|---------------------------------|
E|---------------------------------|---------------------------------|---------------------------------|


E|---------------------------------|-----------------------------------------------------|
B|---------------------------------|-----------------------------------------------------|
G|---------------------------------|-----------------------------------------------------|
D|-3---2---3---2---3---2---0-------|-------------2---------------------1--2--1-----------|
A|-----------------------------3---|-2---3---5----------------0--2--4-----------4--2--0--|
E|---------------------------------|-----------------0--2--4-----------------------------|


E|-------------------------------------------------------------------------|--------|
B|-------------------------------------------------------------------------|-17-----|
G|----------------------------------------------------------------14-16-18-|-14-----|
D|-------1--------------------13-14-13----------------13-14-16-18----------|--------|
A|-2--4--------------12-14-16----------16-14-12-14-16----------------------|--------|
E|----------12-14-16-------------------------------------------------------|--------|


E|--------|-10---12---13---15---|-17-----|-20-----|-17-----|-----------14--16------|
B|-17-----|-18---18---18---18---|-18-----|--------|--------|-12----12----------17--|
G|-14-----|---------------------|--------|--------|--------|-----------------------|
D|--------|---------------------|--------|--------|--------|-----------------------|
A|--------|---------------------|--------|--------|--------|-----------------------|
E|--------|---------------------|--------|--------|--------|-----------------------|


E|-19-17-------------------------------------------------------------------|------------------------|
B|-17-17-21-19-17-16----------17-16----------------------------------------|-3----3---3----3---3----|
G|-------------------18-16-14-------18-16-14-------------------------------|------------------------|
D|-------------------------------------------18-16-14-13-------------------|-0----0---0----0---0----|
A|-------------------------------------------------------16-14-12----------|------------------------|
E|----------------------------------------------------------------16-14-12-|------------------------|


E|---------------------------|---------------------------|------------------------|
B|-3---3----3---3----3---3---|-3---3---3----3---3----3---|-3----3---3----3---3----|
G|---------------------------|---------------------------|------------------------|
D|-0---0----0---0----0---0---|-0---0---0----0---0----0---|-0----0---0----0---0----|
A|---------------------------|---------------------------|------------------------|
E|---------------------------|---------------------------|------------------------|


E|---------------------------|---------------------------|------------------------|
B|-1---1----1---1----1---1---|-1---1---1----1---1----1---|-3----3---3----3---3----|
G|---------------------------|---------------------------|------------------------|
D|-3---3----3---3----3---3---|-3---3---3----3---3----3---|-0----0---0----0---0----|
A|---------------------------|---------------------------|------------------------|
E|---------------------------|---------------------------|------------------------|


E|------------------------------|---------------------------|------------------------|
B|-3---3----3---3---3---3---3---|-3---3---3----3---3----3---|-3----3---3----3---3----|
G|------------------------------|---------------------------|------------------------|
D|-0---0----0---0---0---0---0---|-0---0---0----0---0----0---|-0----0---0----0---0----|
A|------------------------------|---------------------------|------------------------|
E|------------------------------|---------------------------|------------------------|


E|---------------------------|------------------------------|------------------------|
B|-3---3----3---3----3---3---|-3---3---3---3---3---3----3---|-1----1---1----1---1----|
G|---------------------------|------------------------------|------------------------|
D|-0---0----0---0----0---0---|-0---0---0---0---0---0----0---|-3----3---3----3---3----|
A|---------------------------|------------------------------|------------------------|
E|---------------------------|------------------------------|------------------------|


E|---------------------------|---------------------------|------------------------|
B|-1---1----1---1----1---1---|-3---3---3----3---3----3---|-3----3---3----3---3----|
G|---------------------------|---------------------------|------------------------|
D|-3---3----3---3----3---3---|-0---0---0----0---0----0---|-0----0---0----0---0----|
A|---------------------------|---------------------------|------------------------|
E|---------------------------|---------------------------|------------------------|


E|--------|-------------------------|------------------------|---------------------------|
B|-1------|-1---1--1--1---1---1-----|-3----3---3----3---3----|-3---3----3---3----3---3---|
G|--------|-------------------------|------------------------|---------------------------|
D|-3------|-3---3--3--3---3---3-----|-0----0---0----0---0----|-0---0----0---0----0---0---|
A|--------|-------------------------|------------------------|---------------------------|
E|--------|-------------------------|------------------------|---------------------------|


E|------------------------|---------------------------|--------|--------|--------|
B|------------------------|---------------------------|--------|--------|--------|
G|------------------------|---------------------------|--------|--------|--------|
D|-0----0---2----2---2----|-3---3----3---5----5---5---|--------|--------|--------|
A|------------------------|---------------------------|--------|--------|--------|
E|------------------------|---------------------------|--------|--------|--------|


E|--------|--------|--------|--------|--------|--------|--------|--------|--------|
B|--------|--------|--------|--------|--------|--------|--------|--------|--------|
G|--------|--------|--------|--------|--------|--------|--------|--------|--------|
D|--------|--------|--------|--------|--------|--------|--------|--------|--------|
A|--------|--------|--------|--------|--------|--------|--------|--------|--------|
E|--------|--------|--------|--------|--------|--------|--------|--------|--------|


E|--------|--------|--------|--------|---------------------------------|---------------------------------|
B|--------|--------|--------|--------|---------13--------------15------|---------17--------------15------|
G|--------|--------|--------|--------|-----14------14------14------14--|-----14------14------14------14--|
D|--------|--------|--------|--------|---------------------------------|---------------------------------|
A|--------|--------|--------|--------|---------------------------------|---------------------------------|
E|--------|--------|--------|--------|---------------------------------|---------------------------------|


E|---------------------------------|---------------------------------|---------------------------------|
B|---------17--------------18------|---------20--------------18------|---------20--------------18------|
G|---------------------------------|---------------------------------|-----17------17------17------17--|
D|-----15------15------15------15--|-----15------15------15------15--|---------------------------------|
A|---------------------------------|---------------------------------|---------------------------------|
E|---------------------------------|---------------------------------|---------------------------------|


E|---------------------------------|---------------------------------|---------------------------------|
B|---------17--------------15------|---------18--------------17------|---------15--------------13------|
G|-----17------17------17------17--|---------------------------------|---------------------------------|
D|---------------------------------|-----14------14------14------14--|-----14------14------14------14--|
A|---------------------------------|---------------------------------|---------------------------------|
E|---------------------------------|---------------------------------|---------------------------------|


E|---------------------------------|---------------------12--12--12--|-13-----|-13-----|
B|---------------------------------|-----10--10--10------10--10--10--|--------|--------|
G|---------------------10--10--10--|-----10--10--10------10--10--10--|--------|--------|
D|---------------------------------|---------------------------------|--------|--------|
A|-----17--17--17------17--17--17--|-----17--17--17------17--17--17--|--------|--------|
E|---------------------------------|---------------------------------|--------|--------|


E|-13-----|-13-----|-15-----|-15-----|-17-----|-16-----|-17-----|--------|-10---12---13---15---|
B|--------|--------|--------|--------|--------|--------|--------|-13-----|-13---13---13---13---|
G|--------|--------|--------|--------|--------|--------|-14-----|-14-----|-14---14---14---14---|
D|--------|--------|--------|--------|--------|--------|--------|--------|---------------------|
A|--------|--------|--------|--------|--------|--------|--------|--------|---------------------|
E|--------|--------|--------|--------|--------|--------|--------|--------|---------------------|


E|-17--17--17--17----17--|-15-----|-17-----|-17----17--17--17--17--|-17----16----|
B|-13--15--17--13----13--|--------|--------|-12----12--19--21--17--|-17----17----|
G|-----------------------|-12-----|-12-----|-14--------------------|-13----13----|
D|-----------------------|--------|--------|-----------------------|-------------|
A|-----------------------|--------|--------|-----------------------|-------------|
E|-----------------------|--------|--------|-----------------------|-------------|


E|-17-----|--------|-10---12---13---15---|-17--17--17--17----17--|-15-----|-17-----|
B|--------|-13-----|-13---13---13---13---|-13--15--17--13----13--|--------|--------|
G|-14-----|-14-----|-14---14---14---14---|-----------------------|-12-----|-12-----|
D|--------|--------|---------------------|-----------------------|--------|--------|
A|--------|--------|---------------------|-----------------------|--------|--------|
E|--------|--------|---------------------|-----------------------|--------|--------|


E|-17----17--17--17--17--|-17----16----|
B|-12----12--19--21--17--|-17----17----|
G|-14--------------------|-13----13----|
D|-----------------------|-------------|
A|-----------------------|-------------|
E|-----------------------|-------------|





Track 12: Piano

E|--------|--------|--------|--------|--------|--------|--------|--------|--------|
B|--------|--------|--------|--------|--------|--------|--------|--------|--------|
G|--------|--------|--------|--------|--------|--------|--------|--------|--------|
D|--------|--------|--------|--------|--------|--------|--------|--------|--------|
A|--------|--------|--------|--------|--------|--------|--------|--------|--------|
E|--------|--------|--------|--------|--------|--------|--------|--------|--------|


E|--------|--------|--------|--------|--------|--------|--------|--------|--------|
B|--------|--------|--------|--------|--------|--------|--------|--------|--------|
G|--------|--------|--------|--------|--------|--------|--------|--------|--------|
D|--------|--------|--------|--------|--------|--------|--------|--------|--------|
A|--------|--------|--------|--------|--------|--------|--------|--------|--------|
E|--------|--------|--------|--------|--------|--------|--------|--------|--------|


E|--------|--------|--------|--------|--------|--------|--------|--------|--------|
B|--------|--------|--------|--------|--------|--------|--------|--------|--------|
G|--------|--------|--------|--------|--------|--------|--------|--------|--------|
D|--------|--------|--------|--------|--------|--------|--------|--------|--------|
A|--------|--------|--------|--------|--------|--------|--------|--------|--------|
E|--------|--------|--------|--------|--------|--------|--------|--------|--------|


E|--------|--------|--------|--------|--------|--------|--------|--------|--------|
B|--------|--------|--------|--------|--------|--------|--------|--------|--------|
G|--------|--------|--------|--------|--------|--------|--------|--------|--------|
D|--------|--------|--------|--------|--------|--------|--------|--------|--------|
A|--------|--------|--------|--------|--------|--------|--------|--------|--------|
E|--------|--------|--------|--------|--------|--------|--------|--------|--------|


E|--------|--------|--------|--------|--------|--------|--------|--------|--------|
B|--------|--------|--------|--------|--------|--------|--------|--------|--------|
G|--------|--------|--------|--------|--------|--------|--------|--------|--------|
D|--------|--------|--------|--------|--------|--------|--------|--------|--------|
A|--------|--------|--------|--------|--------|--------|--------|--------|--------|
E|--------|--------|--------|--------|--------|--------|--------|--------|--------|


E|--------|--------|--------|--------|--------|--------|--------|--------|--------|
B|--------|--------|--------|--------|--------|--------|--------|--------|--------|
G|--------|--------|--------|--------|--------|--------|--------|--------|--------|
D|--------|--------|--------|--------|--------|--------|--------|--------|--------|
A|--------|--------|--------|--------|--------|--------|--------|--------|--------|
E|--------|--------|--------|--------|--------|--------|--------|--------|--------|


E|--------|--------|--------|--------|--------|--------|--------|--------|-0---------------0---|
B|--------|--------|--------|--------|--------|--------|--------|--------|-3-----------3-------|
G|--------|--------|--------|--------|--------|--------|--------|--------|-------2-------------|
D|--------|--------|--------|--------|--------|--------|--------|--------|-------0-------------|
A|--------|--------|--------|--------|--------|--------|--------|--------|---------------------|
E|--------|--------|--------|--------|--------|--------|--------|--------|---------------------|


E|-3----1---0-----0-------|---------------------------|------------0-------|-3---------------|
B|-3--------------3---1---|-1---------1---3---5---1---|-1----------3---5---|-----------------|
G|----------2-------------|-2---------2-----------2---|-2------------------|-0---------------|
D|------------------------|-0-----3---------------3---|-3------------------|-------2-----0---|
A|------------------------|-------3-------------------|-------3------------|-------3---------|
E|------------------------|---------------------------|--------------------|-----------------|


E|-0----------------------|-0-------------------|-0-----------|--------|--------|--------|
B|------0---1-----0-------|-0-----------0-------|-0-----------|--------|--------|--------|
G|--------------------2---|---------------------|-1-----------|--------|--------|--------|
D|-2----0---2-----0-------|-------------2-------|-------------|--------|--------|--------|
A|--------------------3---|-----------------2---|-------------|--------|--------|--------|
E|------------------------|-------0-------------|-------0-----|--------|--------|--------|


E|--------|--------|--------|--------|--------|--------|--------|--------|--------|
B|--------|--------|--------|--------|--------|--------|--------|--------|--------|
G|--------|--------|--------|--------|--------|--------|--------|--------|--------|
D|--------|--------|--------|--------|--------|--------|--------|--------|--------|
A|--------|--------|--------|--------|--------|--------|--------|--------|--------|
E|--------|--------|--------|--------|--------|--------|--------|--------|--------|


E|--------|--------|--------|--------|--------|--------|--------|--------|--------|
B|--------|--------|--------|--------|--------|--------|--------|--------|--------|
G|--------|--------|--------|--------|--------|--------|--------|--------|--------|
D|--------|--------|--------|--------|--------|--------|--------|--------|--------|
A|--------|--------|--------|--------|--------|--------|--------|--------|--------|
E|--------|--------|--------|--------|--------|--------|--------|--------|--------|


E|--------|--------|--------|--------|--------|--------|--------|--------|--------|
B|--------|--------|--------|--------|--------|--------|--------|--------|--------|
G|--------|--------|--------|--------|--------|--------|--------|--------|--------|
D|--------|--------|--------|--------|--------|--------|--------|--------|--------|
A|--------|--------|--------|--------|--------|--------|--------|--------|--------|
E|--------|--------|--------|--------|--------|--------|--------|--------|--------|


E|-0---------------0---|-3----1---0-----0-------|---------------------------|------------0-------|
B|-3-----------3-------|-3--------------3---1---|-1---------1---3---5---1---|-1----------3---5---|
G|-------2-------------|----------2-------------|-2---------2-----------2---|-2------------------|
D|-------0-------------|------------------------|-0-----3---------------3---|-3------------------|
A|---------------------|------------------------|-------3-------------------|-------3------------|
E|---------------------|------------------------|---------------------------|--------------------|


E|-3---------------|-0----------------------|-0-------------------|-0-----------|--------|
B|-----------------|------0---1-----0-------|-0-----------0-------|-0-----------|--------|
G|-0---------------|--------------------2---|---------------------|-1-----------|--------|
D|-------2-----0---|-2----0---2-----0-------|-------------2-------|-------------|--------|
A|-------3---------|--------------------3---|-----------------2---|-------------|--------|
E|-----------------|------------------------|-------0-------------|-------0-----|--------|


E|--------|--------|--------|--------|--------|--------|--------|--------|--------|
B|--------|--------|--------|--------|--------|--------|--------|--------|--------|
G|--------|--------|--------|--------|--------|--------|--------|--------|--------|
D|--------|--------|--------|--------|--------|--------|--------|--------|--------|
A|--------|--------|--------|--------|--------|--------|--------|--------|--------|
E|--------|--------|--------|--------|--------|--------|--------|--------|--------|


E|--------|--------|--------|--------|--------|--------|--------|--------|--------|
B|--------|--------|--------|--------|--------|--------|--------|--------|--------|
G|--------|--------|--------|--------|--------|--------|--------|--------|--------|
D|--------|--------|--------|--------|--------|--------|--------|--------|--------|
A|--------|--------|--------|--------|--------|--------|--------|--------|--------|
E|--------|--------|--------|--------|--------|--------|--------|--------|--------|


E|--------|--------|--------|--------|--------|--------|--------|--------|--------|
B|--------|--------|--------|--------|--------|--------|--------|--------|--------|
G|--------|--------|--------|--------|--------|--------|--------|--------|--------|
D|--------|--------|--------|--------|--------|--------|--------|--------|--------|
A|--------|--------|--------|--------|--------|--------|--------|--------|--------|
E|--------|--------|--------|--------|--------|--------|--------|--------|--------|


E|--------|--------|--------|--------|--------|--------|--------|--------|--------|
B|--------|--------|--------|--------|--------|--------|--------|--------|--------|
G|--------|--------|--------|--------|--------|--------|--------|--------|--------|
D|--------|--------|--------|--------|--------|--------|--------|--------|--------|
A|--------|--------|--------|--------|--------|--------|--------|--------|--------|
E|--------|--------|--------|--------|--------|--------|--------|--------|--------|


E|--------|--------|--------|--------|--------|--------|--------|--------|--------|
B|--------|--------|--------|--------|--------|--------|--------|--------|--------|
G|--------|--------|--------|--------|--------|--------|--------|--------|--------|
D|--------|--------|--------|--------|--------|--------|--------|--------|--------|
A|--------|--------|--------|--------|--------|--------|--------|--------|--------|
E|--------|--------|--------|--------|--------|--------|--------|--------|--------|


E|--------|--------|-0---------------0---|-3----1---0-----0-------|---------------------------|
B|--------|--------|-3-----------3-------|-3--------------3---1---|-1---------1---3---5---1---|
G|--------|--------|-------2-------------|----------2-------------|-2---------2-----------2---|
D|--------|--------|-------0-------------|------------------------|-0-----3---------------3---|
A|--------|--------|---------------------|------------------------|-------3-------------------|
E|--------|--------|---------------------|------------------------|---------------------------|


E|------------0-------|-3---------------|-0----------------------|-0-------------------|
B|-1----------3---5---|-----------------|------0---1-----0-------|-0-----------0-------|
G|-2------------------|-0---------------|--------------------2---|---------------------|
D|-3------------------|-------2-----0---|-2----0---2-----0-------|-------------2-------|
A|-------3------------|-------3---------|--------------------3---|-----------------2---|
E|--------------------|-----------------|------------------------|-------0-------------|


E|-0-----------|-0---------------0---|-3----1---0-----0-------|---------------------------|
B|-0-----------|-3-----------3-------|-3--------------3---1---|-1---------1---3---5---1---|
G|-1-----------|-------2-------------|----------2-------------|-2---------2-----------2---|
D|-------------|-------0-------------|------------------------|-0-----3---------------3---|
A|-------------|---------------------|------------------------|-------3-------------------|
E|-------0-----|---------------------|------------------------|---------------------------|


E|------------0-------|-3---------------|-0----------------------|-0-------------------|
B|-1----------3---5---|-----------------|------0---1-----0-------|-0-----------0-------|
G|-2------------------|-0---------------|--------------------2---|---------------------|
D|-3------------------|-------2-----0---|-2----0---2-----0-------|-------------2-------|
A|-------3------------|-------3---------|--------------------3---|-----------------2---|
E|--------------------|-----------------|------------------------|-------0-------------|


E|-0-----------|-0---------------0---|-3----1---0-----0-------|---------------------------|
B|-0-----------|-3-----------3-------|-3--------------3---1---|-1---------1---3---5---1---|
G|-1-----------|-------2-------------|----------2-------------|-2---------2-----------2---|
D|-------------|-------0-------------|------------------------|-0-----3---------------3---|
A|-------------|---------------------|------------------------|-------3-------------------|
E|-------0-----|---------------------|------------------------|---------------------------|


E|------------0-------|-3---------------|-0----------------------|-0-------------------|
B|-1----------3---5---|-----------------|------0---1-----0-------|-0-----------0-------|
G|-2------------------|-0---------------|--------------------2---|---------------------|
D|-3------------------|-------2-----0---|-2----0---2-----0-------|-------------2-------|
A|-------3------------|-------3---------|--------------------3---|-----------------2---|
E|--------------------|-----------------|------------------------|-------0-------------|


E|-0-----------|
B|-0-----------|
G|-1-----------|
D|-------------|
A|-------------|
E|-------0-----|