Site menu:

    

Browse: 0-9 A B C D E F G H I J K L N O P Q R S T U V W X Y Z

purple monkey magic fish - easy:



Title: Easy
Artist: 
Album: 
Author: Matt Coles


Track 1: piano

E|-------------|---------------------------------|---------------------------------|
B|-------------|---------------------------------|---------------------------------|
G|-------------|---------------------------------|---------------------------------|
D|--------9----|-10----------10--------------10--|-------------10--------------9---|
A|-------------|-----7---12----------7---12------|-----7---12----------7---12------|
E|-------------|-----------------8---------------|-8---------------8---------------|


E|---------------------------------|---------------------------------|---------------------------------|
B|---------------------------------|---------------------------------|---------------------------------|
G|---------------------------------|---------------------------------|---------------------------------|
D|-10----------10--------------10--|-------------10--------------9---|-10----------10--------------10--|
A|-----6---10----------6---10------|-----6---10----------6---10------|-----8---11----------8---11------|
E|-----------------8---------------|-8---------------8---------------|-----------------8---------------|


E|---------------------------------|---------------------------------|---------------------------------|
B|---------------------------------|---------------------------------|---------------------------------|
G|---------------------------------|---------------------------------|---------------------------------|
D|-------------10--------------9---|-10----------10--------------10--|---------9---10--------------9---|
A|-----8---11----------8---11------|-----6---11----------6---11------|-7---11----------7---11--7-------|
E|-8---------------8---------------|-----------------8---------------|---------------------------------|


E|---------------------------------|---------------------------------|---------------------------------|
B|---------------------------------|---------------------------------|---------------------------------|
G|---------------------------------|---------------------------------|---------------------------------|
D|-10----------10--------------10--|-------------10--------------9---|-10----------10--------------10--|
A|-----7---12----------7---12------|-----7---12----------7---12------|-----6---10----------6---10------|
E|-----------------8---------------|-8---------------8---------------|-----------------8---------------|


E|---------------------------------|---------------------------------|---------------------------------|
B|---------------------------------|---------------------------------|---------------------------------|
G|---------------------------------|---------------------------------|---------------------------------|
D|-------------10--------------9---|-10----------10--------------10--|-------------10--------------9---|
A|-----6---10----------6---10------|-----8---11----------8---11------|-----8---11----------8---11------|
E|-8---------------8---------------|-----------------8---------------|-8---------------8---------------|


E|---------------------------------|-7----7---------6----|-7----7----6----6----|-7----7----6----6----|
B|---------------------------------|-9----9----7----7----|-7----7----7----7----|-7----7----7----7----|
G|---------------------------------|-8----8----8----8----|-8----8----8----8----|-8----8----8----8----|
D|-10----------10--------------10--|-6----6----9----9----|-9----9----8----8----|-9----9----8----8----|
A|-----6---11----------6---11------|---------------------|---------------------|---------------------|
E|-----------------8---------------|---------------------|---------------------|---------------------|


E|-7----7----6----6----|-7----7----6----6----|-7----7----6----6----|-7----7----6----6----|
B|-7----7----7----7----|-7----7----7----7----|-8----8----8----8----|-8----8----8----8----|
G|-8----8----8----8----|-8----8----8----8----|-7----7----7----7----|-7----7----7----7----|
D|-9----9----8----8----|-9----9----8----8----|-9----9----8----8----|-9----9----8----8----|
A|---------------------|---------------------|---------------------|---------------------|
E|---------------------|---------------------|---------------------|---------------------|


E|-7----7----7----7----|-7----7----6----6----|-7----7----6----6----|-7----7----6----6----|
B|-9----9----9----9----|---------------------|-7----7----7----7----|-7----7----7----7----|
G|-9----9----9----9----|-11---11---11---11---|-8----8----8----8----|-8----8----8----8----|
D|-11---11---11---11---|-11---11---11---11---|-9----9----8----8----|-9----9----8----8----|
A|---------------------|---------------------|---------------------|---------------------|
E|---------------------|---------------------|---------------------|---------------------|


E|-7----7----6----6----|-7----7----6----6----|-7----7----6----6----|-7----7----6----6----|
B|-7----7----7----7----|-7----7----7----7----|-8----8----8----8----|-8----8----8----8----|
G|-8----8----8----8----|-8----8----8----8----|-7----7----7----7----|-7----7----7----7----|
D|-9----9----8----8----|-9----9----8----8----|-9----9----8----8----|-9----9----8----8----|
A|---------------------|---------------------|---------------------|---------------------|
E|---------------------|---------------------|---------------------|---------------------|


E|-7----7----7----7----|-7----7----6----6----|--------|--------|---------------------------------|
B|-9----9----9----9----|---------------------|--------|--------|---------------------------------|
G|-9----9----9----9----|-11---11---11---11---|--------|--------|---------------------------------|
D|-11---11---11---11---|-11---11---11---11---|--------|--------|-9-----------9---------------9---|
A|---------------------|---------------------|--------|--------|-----6---11----------6---11------|
E|---------------------|---------------------|--------|--------|-----------------7---------------|


E|---------------------------------|---------------------------------|---------------------------------|
B|---------------------------------|---------------------------------|---------------------------------|
G|---------------------------------|---------------------------------|---------------------------------|
D|-9-----------9---------------9---|-9-----------9---------------9---|-9-----------9---------------8---|
A|-----6---11----------6---11------|-----5---9-----------5---9-------|-----5---9-----------5---9-------|
E|-----------------7---------------|-----------------7---------------|-----------------7---------------|


E|---------------------------------|---------------------------------|---------------------------------|
B|---------------------------------|---------------------------------|---------------------------------|
G|---------------------------------|---------------------------------|---------------------------------|
D|-9-----------9---------------9---|-9-----------9---------------9---|-9-----------9---------------9---|
A|-----7---10----------7---10------|-----7---10----------7---10------|-----5---10----------5---10------|
E|-----------------7---------------|-----------------7---------------|-----------------7---------------|


E|---------------------------------|--------|--------|--------|--------|--------|--------|
B|---------------------------------|--------|--------|--------|--------|--------|--------|
G|---------------------------------|--------|--------|--------|--------|--------|--------|
D|-9-----------9---------------8---|--------|--------|--------|--------|--------|--------|
A|-----5---10----------5---10------|--------|--------|--------|--------|--------|--------|
E|-----------------7---------------|--------|--------|--------|--------|--------|--------|


E|--------|--------|--------|--------|--------|--------|--------|--------|--------|
B|--------|--------|--------|--------|--------|--------|--------|--------|--------|
G|--------|--------|--------|--------|--------|--------|--------|--------|--------|
D|--------|--------|--------|--------|--------|--------|--------|--------|--------|
A|--------|--------|--------|--------|--------|--------|--------|--------|--------|
E|--------|--------|--------|--------|--------|--------|--------|--------|--------|


E|--------|--------|--------|--------|--------|--------|--------|--------|
B|--------|--------|--------|--------|--------|--------|--------|--------|
G|--------|--------|--------|--------|--------|--------|--------|--------|
D|--------|--------|--------|--------|--------|--------|--------|--------|
A|--------|--------|--------|--------|--------|--------|--------|--------|
E|--------|--------|--------|--------|--------|--------|--------|--------|





Track 2: piano

E|-------------|------------------|------------------|------------------|------------------|
B|-------------|------------------|------------------|------------------|------------------|
G|-------------|------------------|------------------|-5-----5-----5----|-5-----5-----5----|
D|-------------|-7-----7-----7----|-7-----7-----7----|------------------|------------------|
A|--------7----|-0-----0-----0----|-0-----0-----0----|-3-----3-----3----|-3-----3-----3----|
E|--------0----|------------------|------------------|------------------|------------------|


E|------------------|------------------|------------------|---------------------|------------------|
B|------------------|------------------|------------------|---------------------|------------------|
G|------------------|------------------|------------------|---------------------|------------------|
D|-3-----3-----3----|-3-----3-----3----|-6-----6-----6----|---------------------|-7-----7-----7----|
A|------------------|------------------|------------------|-7----7----7----7----|-0-----0-----0----|
E|-1-----1-----1----|-1-----1-----1----|-4-----4-----4----|-0----0----0----0----|------------------|


E|------------------|------------------|------------------|------------------|------------------|
B|------------------|------------------|------------------|------------------|------------------|
G|------------------|-5-----5-----5----|-5-----5-----5----|------------------|------------------|
D|-7-----7-----7----|------------------|------------------|-3-----3-----3----|-3-----3-----3----|
A|-0-----0-----0----|-3-----3-----3----|-3-----3-----3----|------------------|------------------|
E|------------------|------------------|------------------|-1-----1-----1----|-1-----1-----1----|


E|------------------|---------------------|---------------------------------|---------------------------------|
B|------------------|---------------------|---------------------------------|---------------------------------|
G|------------------|---------------------|---------------------------------|---------------------------------|
D|-6-----6-----6----|-6----2----9----4----|---------9---------------9-------|---------9---------------9-------|
A|------------------|---------------------|-----9-------9-------9-------9---|-----9-------9-------9-------9---|
E|-4-----4-----4----|-4----0----7----2----|-7---------------7---------------|-7---------------7---------------|


E|---------------------------------|---------------------------------|---------------------------------|
B|---------------------------------|---------------------------------|---------------------------------|
G|---------------------------------|---------------------------------|---------4---------------3-------|
D|---------9---------------9-------|---------9---------------9-------|---------------------------------|
A|-----6-------6-------6-------6---|-----6-------6-------6-------6---|-----5-------5-------5-------5---|
E|-4---------------4---------------|-4---------------4---------------|-3---------------3---------------|


E|---------------------------------|---------------------------------|---------------------------------|
B|---------------------------------|---------------------------------|---------------------------------|
G|---------4---------------3-------|---------6---------------6-------|---------------------------------|
D|---------------------------------|-----6-------6-------6-------6---|---------4---------------4-------|
A|-----5-------5-------5-------5---|-4---------------4---------------|-----4-------4-------4-------4---|
E|-3---------------3---------------|---------------------------------|-2---------------2---------------|


E|---------------------------------|---------------------------------|---------------------------------|
B|---------------------------------|---------------------------------|---------------------------------|
G|---------------------------------|---------------------------------|---------------------------------|
D|---------9---------------9-------|---------9---------------9-------|---------9---------------9-------|
A|-----9-------9-------9-------9---|-----9-------9-------9-------9---|-----6-------6-------6-------6---|
E|-7---------------7---------------|-7---------------7---------------|-4---------------4---------------|


E|---------------------------------|---------------------------------|---------------------------------|
B|---------------------------------|---------------------------------|---------------------------------|
G|---------------------------------|---------4---------------3-------|---------4---------------3-------|
D|---------9---------------9-------|---------------------------------|---------------------------------|
A|-----6-------6-------6-------6---|-----5-------5-------5-------5---|-----5-------5-------5-------5---|
E|-4---------------4---------------|-3---------------3---------------|-3---------------3---------------|


E|---------------------------------|---------------------------------|-7----7----9----6----|
B|---------------------------------|---------------------------------|-9----9----9----9----|
G|---------6---------------6-------|---------------------------------|-8----8----8----8----|
D|-----6-------6-------6-------6---|---------4---------------4-------|-9----9----9----9----|
A|-4---------------4---------------|-----4-------4-------4-------4---|---------------------|
E|---------------------------------|-2---------------2---------------|---------------------|


E|-7----7----7---------------|-7----7----7----7----|-7----7----7----7----|-7----7----7----7----|
B|---------------------------|-9----9----9----9----|-9----9----9----9----|-7----7----7----7----|
G|-11---11---11--------------|-8----8----8----8----|-8----8----8----8----|-7----7----7----7----|
D|-11---11---13--11--9---8---|-9----9----9----9----|-9----9----9----9----|-9----9----9----9----|
A|---------------------------|---------------------|---------------------|---------------------|
E|---------------------------|---------------------|---------------------|---------------------|


E|-7----7----7----7----|-7----7----7----7----|-7----7----7----7----|-7----7----7----7----|
B|-7----7----7----7----|-8----8----8----8----|-8----8----8----8----|-8----8----8----8----|
G|-7----7----7----7----|-9----9----9----9----|-9----9----9----9----|-7----7----7----7----|
D|-9----9----9----9----|-9----9----9----9----|-9----9----9----9----|-9----9----9----9----|
A|---------------------|---------------------|---------------------|---------------------|
E|---------------------|---------------------|---------------------|---------------------|


E|-7----7----7----7----|--------|--------|--------|--------|--------|--------|--------|
B|-8----8----8----8----|--------|--------|--------|--------|--------|--------|--------|
G|-7----7----7----7----|--------|--------|--------|--------|--------|--------|--------|
D|-9----9----9----9----|--------|--------|--------|--------|--------|--------|--------|
A|---------------------|--------|--------|--------|--------|--------|--------|--------|
E|---------------------|--------|--------|--------|--------|--------|--------|--------|


E|--------|--------|--------|--------|--------|--------|--------|--------|--------|
B|--------|--------|--------|--------|--------|--------|--------|--------|--------|
G|--------|--------|--------|--------|--------|--------|--------|--------|--------|
D|--------|--------|--------|--------|--------|--------|--------|--------|--------|
A|--------|--------|--------|--------|--------|--------|--------|--------|--------|
E|--------|--------|--------|--------|--------|--------|--------|--------|--------|


E|--------|--------|--------|--------|--------|--------|--------|
B|--------|--------|--------|--------|--------|--------|--------|
G|--------|--------|--------|--------|--------|--------|--------|
D|--------|--------|--------|--------|--------|--------|--------|
A|--------|--------|--------|--------|--------|--------|--------|
E|--------|--------|--------|--------|--------|--------|--------|





Track 3: pizz.

E|--------|--------|--------|--------|--------|--------|--------|--------|--------|
B|--------|--------|--------|--------|--------|--------|--------|--------|--------|
G|--------|--------|--------|--------|--------|--------|--------|--------|--------|
D|--------|--------|--------|--------|--------|--------|--------|--------|--------|
A|--------|--------|--------|--------|--------|--------|--------|--------|--------|
E|--------|--------|--------|--------|--------|--------|--------|--------|--------|


E|--------|--------|--------|--------|--------|--------|--------|--------|--------|
B|--------|--------|--------|--------|--------|--------|--------|--------|--------|
G|--------|--------|--------|--------|--------|--------|--------|--------|--------|
D|--------|--------|--------|--------|--------|--------|--------|--------|--------|
A|--------|--------|--------|--------|--------|--------|--------|--------|--------|
E|--------|--------|--------|--------|--------|--------|--------|--------|--------|


E|--------|--------|--------|--------|--------|--------|--------|--------|--------|
B|--------|--------|--------|--------|--------|--------|--------|--------|--------|
G|--------|--------|--------|--------|--------|--------|--------|--------|--------|
D|--------|--------|--------|--------|--------|--------|--------|--------|--------|
A|--------|--------|--------|--------|--------|--------|--------|--------|--------|
E|--------|--------|--------|--------|--------|--------|--------|--------|--------|


E|--------|--------|--------|--------|--------|--------|--------|--------|--------|
B|--------|--------|--------|--------|--------|--------|--------|--------|--------|
G|--------|--------|--------|--------|--------|--------|--------|--------|--------|
D|--------|--------|--------|--------|--------|--------|--------|--------|--------|
A|--------|--------|--------|--------|--------|--------|--------|--------|--------|
E|--------|--------|--------|--------|--------|--------|--------|--------|--------|


E|--------4----|-7----12--10--9----10--9---|-7----14-----|-------15--17--15--14--|
B|-------------|---------------------------|-------------|-----------------------|
G|-------------|---------------------------|-------------|-----------------------|
D|-------------|---------------------------|-------------|-----------------------|
A|-------------|---------------------------|-------------|-----------------------|
E|-------------|---------------------------|-------------|-----------------------|


E|-15----15--17--15--14--|-15----19--20--19--17--|-19-----|--------|--------|---------------------2--------|
B|-----------------------|-------20--22--20--19--|-20-----|--------|--------|-----------------3-------5----|
G|-----------------------|-----------------------|--------|--------|--------|-------------2----------------|
D|-----------------------|-----------------------|--------|--------|--------|-----0---4--------------------|
A|-----------------------|-----------------------|--------|--------|--------|-5----------------------------|
E|-----------------------|-----------------------|--------|--------|--------|------------------------------|


E|--------|--------|--------|--------|--------|--------|--------|--------|--------|
B|--------|--------|--------|--------|--------|--------|--------|--------|--------|
G|--------|--------|--------|--------|--------|--------|--------|--------|--------|
D|--------|--------|--------|--------|--------|--------|--------|--------|--------|
A|--------|--------|--------|--------|--------|--------|--------|--------|--------|
E|--------|--------|--------|--------|--------|--------|--------|--------|--------|


E|--------|--------|--------|--------|--------|--------|--------|--------|--------|
B|--------|--------|--------|--------|--------|--------|--------|--------|--------|
G|--------|--------|--------|--------|--------|--------|--------|--------|--------|
D|--------|--------|--------|--------|--------|--------|--------|--------|--------|
A|--------|--------|--------|--------|--------|--------|--------|--------|--------|
E|--------|--------|--------|--------|--------|--------|--------|--------|--------|


E|--------|--------|
B|--------|--------|
G|--------|--------|
D|--------|--------|
A|--------|--------|
E|--------|--------|





Track 4: piano

E|--------|--------|--------|--------|--------|--------|--------|--------|--------|
B|--------|--------|--------|--------|--------|--------|--------|--------|--------|
G|--------|--------|--------|--------|--------|--------|--------|--------|--------|
D|--------|--------|--------|--------|--------|--------|--------|--------|--------|
A|--------|--------|--------|--------|--------|--------|--------|--------|--------|
E|--------|--------|--------|--------|--------|--------|--------|--------|--------|


E|--------|--------|--------|--------|--------|--------|--------|--------|--------|
B|--------|--------|--------|--------|--------|--------|--------|--------|--------|
G|--------|--------|--------|--------|--------|--------|--------|--------|--------|
D|--------|--------|--------|--------|--------|--------|--------|--------|--------|
A|--------|--------|--------|--------|--------|--------|--------|--------|--------|
E|--------|--------|--------|--------|--------|--------|--------|--------|--------|


E|--------|--------|--------|--------|--------|--------|--------|--------|--------|
B|--------|--------|--------|--------|--------|--------|--------|--------|--------|
G|--------|--------|--------|--------|--------|--------|--------|--------|--------|
D|--------|--------|--------|--------|--------|--------|--------|--------|--------|
A|--------|--------|--------|--------|--------|--------|--------|--------|--------|
E|--------|--------|--------|--------|--------|--------|--------|--------|--------|


E|--------|--------|--------|--------|--------|--------|--------|--------|--------|
B|--------|--------|--------|--------|--------|--------|--------|--------|--------|
G|--------|--------|--------|--------|--------|--------|--------|--------|--------|
D|--------|--------|--------|--------|--------|--------|--------|--------|--------|
A|--------|--------|--------|--------|--------|--------|--------|--------|--------|
E|--------|--------|--------|--------|--------|--------|--------|--------|--------|


E|--------|--------|--------|--------|--------|--------|--------|-2------|-----------------5---4---2---0---|
B|--------|--------|--------|--------|--------|--------|--------|-3------|-----0---3---7-------------------|
G|--------|--------|--------|--------|--------|--------|--------|-4------|---------------------------------|
D|--------|--------|--------|--------|--------|--------|--------|-4------|---------------------------------|
A|--------|--------|--------|--------|--------|--------|--------|-2------|-1-------------------------------|
E|--------|--------|--------|--------|--------|--------|--------|--------|---------------------------------|


E|-----------------5---------------|-----------------5---------------|--------|--------|
B|-3---5---3---2-------3---5---2---|-3---5---3---2-------3---5---2---|--------|--------|
G|---------------------------------|---------------------------------|--------|--------|
D|---------------------------------|---------------------------------|--------|--------|
A|---------------------------------|---------------------------------|--------|--------|
E|---------------------------------|---------------------------------|--------|--------|


E|--------|--------|--------|--------|--------|--------|--------|--------|--------|
B|--------|--------|--------|--------|--------|--------|--------|--------|--------|
G|--------|--------|--------|--------|--------|--------|--------|--------|--------|
D|--------|--------|--------|--------|--------|--------|--------|--------|--------|
A|--------|--------|--------|--------|--------|--------|--------|--------|--------|
E|--------|--------|--------|--------|--------|--------|--------|--------|--------|


E|--------|--------|--------|--------|--------|--------|--------|--------|
B|--------|--------|--------|--------|--------|--------|--------|--------|
G|--------|--------|--------|--------|--------|--------|--------|--------|
D|--------|--------|--------|--------|--------|--------|--------|--------|
A|--------|--------|--------|--------|--------|--------|--------|--------|
E|--------|--------|--------|--------|--------|--------|--------|--------|





Track 5: piano

E|--------|--------|--------|--------|--------|--------|--------|--------|--------|
B|--------|--------|--------|--------|--------|--------|--------|--------|--------|
G|--------|--------|--------|--------|--------|--------|--------|--------|--------|
D|--------|--------|--------|--------|--------|--------|--------|--------|--------|
A|--------|--------|--------|--------|--------|--------|--------|--------|--------|
E|--------|--------|--------|--------|--------|--------|--------|--------|--------|


E|--------|--------|--------|--------|--------|--------|--------|--------|--------|
B|--------|--------|--------|--------|--------|--------|--------|--------|--------|
G|--------|--------|--------|--------|--------|--------|--------|--------|--------|
D|--------|--------|--------|--------|--------|--------|--------|--------|--------|
A|--------|--------|--------|--------|--------|--------|--------|--------|--------|
E|--------|--------|--------|--------|--------|--------|--------|--------|--------|


E|--------|--------|--------|--------|--------|--------|--------|--------|--------|
B|--------|--------|--------|--------|--------|--------|--------|--------|--------|
G|--------|--------|--------|--------|--------|--------|--------|--------|--------|
D|--------|--------|--------|--------|--------|--------|--------|--------|--------|
A|--------|--------|--------|--------|--------|--------|--------|--------|--------|
E|--------|--------|--------|--------|--------|--------|--------|--------|--------|


E|--------|--------|--------|--------|--------|--------|--------|--------|--------|
B|--------|--------|--------|--------|--------|--------|--------|--------|--------|
G|--------|--------|--------|--------|--------|--------|--------|--------|--------|
D|--------|--------|--------|--------|--------|--------|--------|--------|--------|
A|--------|--------|--------|--------|--------|--------|--------|--------|--------|
E|--------|--------|--------|--------|--------|--------|--------|--------|--------|


E|--------|--------|--------|--------|--------|--------|--------|-----------------5---4---2---0---|
B|--------|--------|--------|--------|--------|--------|--------|-----0---3---7-------------------|
G|--------|--------|--------|--------|--------|--------|--------|---------------------------------|
D|--------|--------|--------|--------|--------|--------|--------|---------------------------------|
A|--------|--------|--------|--------|--------|--------|--------|-1-------------------------------|
E|--------|--------|--------|--------|--------|--------|--------|---------------------------------|


E|-----------------5---------------|-----------------5---------------|-----------------5---------------|
B|-3---5---3---2-------3---5---3---|-3---5---3---2-------3---5---2---|-3---5---3---2-------2---3---2---|
G|---------------------------------|---------------------------------|---------------------------------|
D|---------------------------------|---------------------------------|---------------------------------|
A|---------------------------------|---------------------------------|---------------------------------|
E|---------------------------------|---------------------------------|---------------------------------|


E|--------|--------|--------|--------|--------|--------|--------|--------|--------|
B|--------|--------|--------|--------|--------|--------|--------|--------|--------|
G|--------|--------|--------|--------|--------|--------|--------|--------|--------|
D|--------|--------|--------|--------|--------|--------|--------|--------|--------|
A|--------|--------|--------|--------|--------|--------|--------|--------|--------|
E|--------|--------|--------|--------|--------|--------|--------|--------|--------|


E|--------|--------|--------|--------|--------|--------|--------|--------|--------|
B|--------|--------|--------|--------|--------|--------|--------|--------|--------|
G|--------|--------|--------|--------|--------|--------|--------|--------|--------|
D|--------|--------|--------|--------|--------|--------|--------|--------|--------|
A|--------|--------|--------|--------|--------|--------|--------|--------|--------|
E|--------|--------|--------|--------|--------|--------|--------|--------|--------|


E|--------|
B|--------|
G|--------|
D|--------|
A|--------|
E|--------|





Track 6: guitar

E|--------|--------|--------|--------|--------|--------|--------|--------|--------|
B|--------|--------|--------|--------|--------|--------|--------|--------|--------|
G|--------|--------|--------|--------|--------|--------|--------|--------|--------|
D|--------|--------|--------|--------|--------|--------|--------|--------|--------|
A|--------|--------|--------|--------|--------|--------|--------|--------|--------|
E|--------|--------|--------|--------|--------|--------|--------|--------|--------|


E|--------|--------|--------|--------|--------|--------|--------|--------|--------|
B|--------|--------|--------|--------|--------|--------|--------|--------|--------|
G|--------|--------|--------|--------|--------|--------|--------|--------|--------|
D|--------|--------|--------|--------|--------|--------|--------|--------|--------|
A|--------|--------|--------|--------|--------|--------|--------|--------|--------|
E|--------|--------|--------|--------|--------|--------|--------|--------|--------|


E|--------|--------|--------|--------|--------|--------|--------|--------|--------|
B|--------|--------|--------|--------|--------|--------|--------|--------|--------|
G|--------|--------|--------|--------|--------|--------|--------|--------|--------|
D|--------|--------|--------|--------|--------|--------|--------|--------|--------|
A|--------|--------|--------|--------|--------|--------|--------|--------|--------|
E|--------|--------|--------|--------|--------|--------|--------|--------|--------|


E|--------|--------|--------|--------|--------|--------|--------|--------|--------|
B|--------|--------|--------|--------|--------|--------|--------|--------|--------|
G|--------|--------|--------|--------|--------|--------|--------|--------|--------|
D|--------|--------|--------|--------|--------|--------|--------|--------|--------|
A|--------|--------|--------|--------|--------|--------|--------|--------|--------|
E|--------|--------|--------|--------|--------|--------|--------|--------|--------|


E|--------|--------|--------|--------|--------|--------|--------|--------|--------|
B|--------|--------|--------|--------|--------|--------|--------|--------|--------|
G|--------|--------|--------|--------|--------|--------|--------|--------|--------|
D|--------|--------|--------|--------|--------|--------|--------|--------|--------|
A|--------|--------|--------|--------|--------|--------|--------|--------|--------|
E|--------|--------|--------|--------|--------|--------|--------|--------|--------|


E|--------|--------|-----------------------|--------|--------|--------|--------|--------|
B|--------|--------|---------3---2---3-----|--------|--------|--------|--------|--------|
G|--------|--------|-----------------------|--------|--------|--------|--------|--------|
D|--------|--------|-----4-----------------|--------|--------|--------|--------|--------|
A|--------|--------|-2---------------------|--------|--------|--------|--------|--------|
E|--------|--------|-----------------------|--------|--------|--------|--------|--------|


E|--------|--------|--------|--------|--------|--------|--------|--------|--------|
B|--------|--------|--------|--------|--------|--------|--------|--------|--------|
G|--------|--------|--------|--------|--------|--------|--------|--------|--------|
D|--------|--------|--------|--------|--------|--------|--------|--------|--------|
A|--------|--------|--------|--------|--------|--------|--------|--------|--------|
E|--------|--------|--------|--------|--------|--------|--------|--------|--------|


E|--------|--------|--------|--------|
B|--------|--------|--------|--------|
G|--------|--------|--------|--------|
D|--------|--------|--------|--------|
A|--------|--------|--------|--------|
E|--------|--------|--------|--------|





Track 7: piano

E|--------|--------|--------|--------|--------|--------|--------|--------|--------|
B|--------|--------|--------|--------|--------|--------|--------|--------|--------|
G|--------|--------|--------|--------|--------|--------|--------|--------|--------|
D|--------|--------|--------|--------|--------|--------|--------|--------|--------|
A|--------|--------|--------|--------|--------|--------|--------|--------|--------|
E|--------|--------|--------|--------|--------|--------|--------|--------|--------|


E|--------|--------|--------|--------|--------|--------|--------|--------|--------|
B|--------|--------|--------|--------|--------|--------|--------|--------|--------|
G|--------|--------|--------|--------|--------|--------|--------|--------|--------|
D|--------|--------|--------|--------|--------|--------|--------|--------|--------|
A|--------|--------|--------|--------|--------|--------|--------|--------|--------|
E|--------|--------|--------|--------|--------|--------|--------|--------|--------|


E|--------|--------|--------|--------|--------|--------|--------|--------|--------|
B|--------|--------|--------|--------|--------|--------|--------|--------|--------|
G|--------|--------|--------|--------|--------|--------|--------|--------|--------|
D|--------|--------|--------|--------|--------|--------|--------|--------|--------|
A|--------|--------|--------|--------|--------|--------|--------|--------|--------|
E|--------|--------|--------|--------|--------|--------|--------|--------|--------|


E|--------|--------|--------|--------|--------|--------|--------|--------|--------|
B|--------|--------|--------|--------|--------|--------|--------|--------|--------|
G|--------|--------|--------|--------|--------|--------|--------|--------|--------|
D|--------|--------|--------|--------|--------|--------|--------|--------|--------|
A|--------|--------|--------|--------|--------|--------|--------|--------|--------|
E|--------|--------|--------|--------|--------|--------|--------|--------|--------|


E|--------|--------|--------|--------|--------|--------|--------|--------|--------|
B|--------|--------|--------|--------|--------|--------|--------|--------|--------|
G|--------|--------|--------|--------|--------|--------|--------|--------|--------|
D|--------|--------|--------|--------|--------|--------|--------|--------|--------|
A|--------|--------|--------|--------|--------|--------|--------|--------|--------|
E|--------|--------|--------|--------|--------|--------|--------|--------|--------|


E|--------|--------|-2------|--------|--------|--------|--------|--------|--------|
B|--------|--------|-3------|--------|--------|--------|--------|--------|--------|
G|--------|--------|-4------|--------|--------|--------|--------|--------|--------|
D|--------|--------|-4------|--------|--------|--------|--------|--------|--------|
A|--------|--------|-2------|--------|--------|--------|--------|--------|--------|
E|--------|--------|--------|--------|--------|--------|--------|--------|--------|


E|--------|--------|--------|--------|--------|--------|--------|--------|--------|
B|--------|--------|--------|--------|--------|--------|--------|--------|--------|
G|--------|--------|--------|--------|--------|--------|--------|--------|--------|
D|--------|--------|--------|--------|--------|--------|--------|--------|--------|
A|--------|--------|--------|--------|--------|--------|--------|--------|--------|
E|--------|--------|--------|--------|--------|--------|--------|--------|--------|


E|--------|--------|--------|
B|--------|--------|--------|
G|--------|--------|--------|
D|--------|--------|--------|
A|--------|--------|--------|
E|--------|--------|--------|





Track 8: piano

E|--------|--------|--------|--------|--------|--------|--------|--------|--------|
B|--------|--------|--------|--------|--------|--------|--------|--------|--------|
G|--------|--------|--------|--------|--------|--------|--------|--------|--------|
D|--------|--------|--------|--------|--------|--------|--------|--------|--------|
A|--------|--------|--------|--------|--------|--------|--------|--------|--------|
E|--------|--------|--------|--------|--------|--------|--------|--------|--------|


E|--------|--------|--------|--------|--------|--------|--------|--------|--------|
B|--------|--------|--------|--------|--------|--------|--------|--------|--------|
G|--------|--------|--------|--------|--------|--------|--------|--------|--------|
D|--------|--------|--------|--------|--------|--------|--------|--------|--------|
A|--------|--------|--------|--------|--------|--------|--------|--------|--------|
E|--------|--------|--------|--------|--------|--------|--------|--------|--------|


E|--------|--------|--------|--------|--------|--------|--------|--------|--------|
B|--------|--------|--------|--------|--------|--------|--------|--------|--------|
G|--------|--------|--------|--------|--------|--------|--------|--------|--------|
D|--------|--------|--------|--------|--------|--------|--------|--------|--------|
A|--------|--------|--------|--------|--------|--------|--------|--------|--------|
E|--------|--------|--------|--------|--------|--------|--------|--------|--------|


E|--------|--------|--------|--------|--------|--------|--------|--------|--------|
B|--------|--------|--------|--------|--------|--------|--------|--------|--------|
G|--------|--------|--------|--------|--------|--------|--------|--------|--------|
D|--------|--------|--------|--------|--------|--------|--------|--------|--------|
A|--------|--------|--------|--------|--------|--------|--------|--------|--------|
E|--------|--------|--------|--------|--------|--------|--------|--------|--------|


E|--------|--------|--------|--------|--------|--------|--------|--------|--------|
B|--------|--------|--------|--------|--------|--------|--------|--------|--------|
G|--------|--------|--------|--------|--------|--------|--------|--------|--------|
D|--------|--------|--------|--------|--------|--------|--------|--------|--------|
A|--------|--------|--------|--------|--------|--------|--------|--------|--------|
E|--------|--------|--------|--------|--------|--------|--------|--------|--------|


E|--------|--------|-----------------5---4---2---0---|--------|--------|--------|--------|
B|--------|--------|-----0---3---7-------------------|--------|--------|--------|--------|
G|--------|--------|---------------------------------|--------|--------|--------|--------|
D|--------|--------|---------------------------------|--------|--------|--------|--------|
A|--------|--------|-1-------------------------------|--------|--------|--------|--------|
E|--------|--------|---------------------------------|--------|--------|--------|--------|


E|--------|--------|--------|--------|--------|--------|--------|--------|--------|
B|--------|--------|--------|--------|--------|--------|--------|--------|--------|
G|--------|--------|--------|--------|--------|--------|--------|--------|--------|
D|--------|--------|--------|--------|--------|--------|--------|--------|--------|
A|--------|--------|--------|--------|--------|--------|--------|--------|--------|
E|--------|--------|--------|--------|--------|--------|--------|--------|--------|


E|--------|--------|--------|--------|--------|
B|--------|--------|--------|--------|--------|
G|--------|--------|--------|--------|--------|
D|--------|--------|--------|--------|--------|
A|--------|--------|--------|--------|--------|
E|--------|--------|--------|--------|--------|





Track 9: guitar

E|--------|--------|--------|--------|--------|--------|--------|--------|--------|
B|--------|--------|--------|--------|--------|--------|--------|--------|--------|
G|--------|--------|--------|--------|--------|--------|--------|--------|--------|
D|--------|--------|--------|--------|--------|--------|--------|--------|--------|
A|--------|--------|--------|--------|--------|--------|--------|--------|--------|
E|--------|--------|--------|--------|--------|--------|--------|--------|--------|


E|--------|--------|--------|--------|--------|--------|--------|--------|--------|
B|--------|--------|--------|--------|--------|--------|--------|--------|--------|
G|--------|--------|--------|--------|--------|--------|--------|--------|--------|
D|--------|--------|--------|--------|--------|--------|--------|--------|--------|
A|--------|--------|--------|--------|--------|--------|--------|--------|--------|
E|--------|--------|--------|--------|--------|--------|--------|--------|--------|


E|--------|--------|--------|--------|--------|--------|--------|--------|--------|
B|--------|--------|--------|--------|--------|--------|--------|--------|--------|
G|--------|--------|--------|--------|--------|--------|--------|--------|--------|
D|--------|--------|--------|--------|--------|--------|--------|--------|--------|
A|--------|--------|--------|--------|--------|--------|--------|--------|--------|
E|--------|--------|--------|--------|--------|--------|--------|--------|--------|


E|--------|--------|--------|--------|--------|--------|--------|--------|--------|
B|--------|--------|--------|--------|--------|--------|--------|--------|--------|
G|--------|--------|--------|--------|--------|--------|--------|--------|--------|
D|--------|--------|--------|--------|--------|--------|--------|--------|--------|
A|--------|--------|--------|--------|--------|--------|--------|--------|--------|
E|--------|--------|--------|--------|--------|--------|--------|--------|--------|


E|--------|--------|--------|--------|--------|--------|--------|--------|--------|
B|--------|--------|--------|--------|--------|--------|--------|--------|--------|
G|--------|--------|--------|--------|--------|--------|--------|--------|--------|
D|--------|--------|--------|--------|--------|--------|--------|--------|--------|
A|--------|--------|--------|--------|--------|--------|--------|--------|--------|
E|--------|--------|--------|--------|--------|--------|--------|--------|--------|


E|--------|--------|--------|-----------------5---4---2---0---|--------|--------|--------|
B|--------|--------|--------|-----0---3---7-------------------|--------|--------|--------|
G|--------|--------|--------|---------------------------------|--------|--------|--------|
D|--------|--------|--------|---------------------------------|--------|--------|--------|
A|--------|--------|--------|-1-------------------------------|--------|--------|--------|
E|--------|--------|--------|---------------------------------|--------|--------|--------|


E|--------|--------|--------|--------|--------|--------|--------|--------|--------|
B|--------|--------|--------|--------|--------|--------|--------|--------|--------|
G|--------|--------|--------|--------|--------|--------|--------|--------|--------|
D|--------|--------|--------|--------|--------|--------|--------|--------|--------|
A|--------|--------|--------|--------|--------|--------|--------|--------|--------|
E|--------|--------|--------|--------|--------|--------|--------|--------|--------|


E|--------|--------|--------|--------|--------|
B|--------|--------|--------|--------|--------|
G|--------|--------|--------|--------|--------|
D|--------|--------|--------|--------|--------|
A|--------|--------|--------|--------|--------|
E|--------|--------|--------|--------|--------|





Track 10: piano

E|--------|--------|--------|--------|--------|--------|--------|--------|--------|
B|--------|--------|--------|--------|--------|--------|--------|--------|--------|
G|--------|--------|--------|--------|--------|--------|--------|--------|--------|
D|--------|--------|--------|--------|--------|--------|--------|--------|--------|
A|--------|--------|--------|--------|--------|--------|--------|--------|--------|
E|--------|--------|--------|--------|--------|--------|--------|--------|--------|


E|--------|--------|--------|--------|--------|--------|--------|--------|--------|
B|--------|--------|--------|--------|--------|--------|--------|--------|--------|
G|--------|--------|--------|--------|--------|--------|--------|--------|--------|
D|--------|--------|--------|--------|--------|--------|--------|--------|--------|
A|--------|--------|--------|--------|--------|--------|--------|--------|--------|
E|--------|--------|--------|--------|--------|--------|--------|--------|--------|


E|--------|--------|--------|--------|--------|--------|--------|--------|--------|
B|--------|--------|--------|--------|--------|--------|--------|--------|--------|
G|--------|--------|--------|--------|--------|--------|--------|--------|--------|
D|--------|--------|--------|--------|--------|--------|--------|--------|--------|
A|--------|--------|--------|--------|--------|--------|--------|--------|--------|
E|--------|--------|--------|--------|--------|--------|--------|--------|--------|


E|--------|--------|--------|--------|--------|--------|--------|--------|--------|
B|--------|--------|--------|--------|--------|--------|--------|--------|--------|
G|--------|--------|--------|--------|--------|--------|--------|--------|--------|
D|--------|--------|--------|--------|--------|--------|--------|--------|--------|
A|--------|--------|--------|--------|--------|--------|--------|--------|--------|
E|--------|--------|--------|--------|--------|--------|--------|--------|--------|


E|--------|--------|--------|--------|--------|--------|--------|--------|--------|
B|--------|--------|--------|--------|--------|--------|--------|--------|--------|
G|--------|--------|--------|--------|--------|--------|--------|--------|--------|
D|--------|--------|--------|--------|--------|--------|--------|--------|--------|
A|--------|--------|--------|--------|--------|--------|--------|--------|--------|
E|--------|--------|--------|--------|--------|--------|--------|--------|--------|


E|--------|--------|--------|-----------------5---------------|--------|--------|--------|
B|--------|--------|--------|-3---5---3---2-------3---5---3---|--------|--------|--------|
G|--------|--------|--------|---------------------------------|--------|--------|--------|
D|--------|--------|--------|---------------------------------|--------|--------|--------|
A|--------|--------|--------|---------------------------------|--------|--------|--------|
E|--------|--------|--------|---------------------------------|--------|--------|--------|


E|--------|--------|--------|--------|--------|--------|--------|--------|--------|
B|--------|--------|--------|--------|--------|--------|--------|--------|--------|
G|--------|--------|--------|--------|--------|--------|--------|--------|--------|
D|--------|--------|--------|--------|--------|--------|--------|--------|--------|
A|--------|--------|--------|--------|--------|--------|--------|--------|--------|
E|--------|--------|--------|--------|--------|--------|--------|--------|--------|


E|--------|--------|--------|--------|--------|
B|--------|--------|--------|--------|--------|
G|--------|--------|--------|--------|--------|
D|--------|--------|--------|--------|--------|
A|--------|--------|--------|--------|--------|
E|--------|--------|--------|--------|--------|





Track 11: strings

E|--------|--------|--------|--------|--------|--------|--------|--------|--------|
B|--------|--------|--------|--------|--------|--------|--------|--------|--------|
G|--------|--------|--------|--------|--------|--------|--------|--------|--------|
D|--------|--------|--------|--------|--------|--------|--------|--------|--------|
A|--------|--------|--------|--------|--------|--------|--------|--------|--------|
E|--------|--------|--------|--------|--------|--------|--------|--------|--------|


E|--------|--------|--------|--------|--------|--------|--------|--------|--------|
B|--------|--------|--------|--------|--------|--------|--------|--------|--------|
G|--------|--------|--------|--------|--------|--------|--------|--------|--------|
D|--------|--------|--------|--------|--------|--------|--------|--------|--------|
A|--------|--------|--------|--------|--------|--------|--------|--------|--------|
E|--------|--------|--------|--------|--------|--------|--------|--------|--------|


E|--------|--------|--------|--------|--------|--------|--------|--------|--------|
B|--------|--------|--------|--------|--------|--------|--------|--------|--------|
G|--------|--------|--------|--------|--------|--------|--------|--------|--------|
D|--------|--------|--------|--------|--------|--------|--------|--------|--------|
A|--------|--------|--------|--------|--------|--------|--------|--------|--------|
E|--------|--------|--------|--------|--------|--------|--------|--------|--------|


E|--------|--------|--------|--------|--------|--------|--------|--------|--------|
B|--------|--------|--------|--------|--------|--------|--------|--------|--------|
G|--------|--------|--------|--------|--------|--------|--------|--------|--------|
D|--------|--------|--------|--------|--------|--------|--------|--------|--------|
A|--------|--------|--------|--------|--------|--------|--------|--------|--------|
E|--------|--------|--------|--------|--------|--------|--------|--------|--------|


E|--------|--------|--------|--------|--------|--------|--------|--------|--------|
B|--------|--------|--------|--------|--------|--------|--------|--------|--------|
G|--------|--------|--------|--------|--------|--------|--------|--------|--------|
D|--------|--------|--------|--------|--------|--------|--------|--------|--------|
A|--------|--------|--------|--------|--------|--------|--------|--------|--------|
E|--------|--------|--------|--------|--------|--------|--------|--------|--------|


E|--------|--------|--------|--------|---------------------2--------|---------------------------------|
B|--------|--------|--------|--------|-----------------3-------5----|---------------------------------|
G|--------|--------|--------|--------|-------------2----------------|---------------------1---2---1---|
D|--------|--------|--------|--------|-----0---4--------------------|-----------------2---------------|
A|--------|--------|--------|--------|-5----------------------------|-2-----------2-------------------|
E|--------|--------|--------|--------|------------------------------|-----0---4-----------------------|


E|-2-------------2---5---|--------|-5----------5---2---|--------2----|-5--1--0-----5--1--0-----5--1--0-----5--1--0-----|
B|-2-------------2---2---|--------|-5----------5---5---|-------------|----------3-----------3-----------3-----------3--|
G|-2-------------2---2---|--------|-5----------5---5---|-------------|-------------------------------------------------|
D|-4-------------4---4---|--------|-7----------7---7---|-------------|-------------------------------------------------|
A|-----------------------|--------|--------------------|-------------|-------------------------------------------------|
E|-----------------------|--------|--------------------|-------------|-------------------------------------------------|


E|-1--3--4--8--1--3--4--8--1--3--4--8--1--3--4--8--|-7--1--0-----7--1--0-----7--1--0-----7--1--0-----|
B|-------------------------------------------------|----------3-----------3-----------3-----------3--|
G|-------------------------------------------------|-------------------------------------------------|
D|-------------------------------------------------|-------------------------------------------------|
A|-------------------------------------------------|-------------------------------------------------|
E|-------------------------------------------------|-------------------------------------------------|


E|-5--1--0-----5--1--0-----5--1--0-----5--1--0-----|--------|--------|-5--7--8--12-5--7--8--12-5--7--8--12-5--7--8--12-|
B|----------3-----------3-----------3-----------3--|--------|--------|-------------------------------------------------|
G|-------------------------------------------------|--------|--------|-------------------------------------------------|
D|-------------------------------------------------|--------|--------|-------------------------------------------------|
A|-------------------------------------------------|--------|--------|-------------------------------------------------|
E|-------------------------------------------------|--------|--------|-------------------------------------------------|


E|-5--7--8--12-5--7--8--12-5--7--8--12-5--7--8--12-|--------|--------|--------|
B|-------------------------------------------------|--------|--------|--------|
G|-------------------------------------------------|--------|--------|--------|
D|-------------------------------------------------|--------|--------|--------|
A|-------------------------------------------------|--------|--------|--------|
E|-------------------------------------------------|--------|--------|--------|





Track 12: piano

E|--------|--------|--------|--------|--------|--------|--------|--------|--------|
B|--------|--------|--------|--------|--------|--------|--------|--------|--------|
G|--------|--------|--------|--------|--------|--------|--------|--------|--------|
D|--------|--------|--------|--------|--------|--------|--------|--------|--------|
A|--------|--------|--------|--------|--------|--------|--------|--------|--------|
E|--------|--------|--------|--------|--------|--------|--------|--------|--------|


E|--------|--------|--------|--------|--------|--------|--------|--------|--------|
B|--------|--------|--------|--------|--------|--------|--------|--------|--------|
G|--------|--------|--------|--------|--------|--------|--------|--------|--------|
D|--------|--------|--------|--------|--------|--------|--------|--------|--------|
A|--------|--------|--------|--------|--------|--------|--------|--------|--------|
E|--------|--------|--------|--------|--------|--------|--------|--------|--------|


E|--------|--------|--------|--------|--------|--------|--------|--------|--------|
B|--------|--------|--------|--------|--------|--------|--------|--------|--------|
G|--------|--------|--------|--------|--------|--------|--------|--------|--------|
D|--------|--------|--------|--------|--------|--------|--------|--------|--------|
A|--------|--------|--------|--------|--------|--------|--------|--------|--------|
E|--------|--------|--------|--------|--------|--------|--------|--------|--------|


E|--------|--------|--------|--------|--------|--------|--------|--------|--------|
B|--------|--------|--------|--------|--------|--------|--------|--------|--------|
G|--------|--------|--------|--------|--------|--------|--------|--------|--------|
D|--------|--------|--------|--------|--------|--------|--------|--------|--------|
A|--------|--------|--------|--------|--------|--------|--------|--------|--------|
E|--------|--------|--------|--------|--------|--------|--------|--------|--------|


E|--------|--------|--------|--------|--------|--------|--------|--------|--------|
B|--------|--------|--------|--------|--------|--------|--------|--------|--------|
G|--------|--------|--------|--------|--------|--------|--------|--------|--------|
D|--------|--------|--------|--------|--------|--------|--------|--------|--------|
A|--------|--------|--------|--------|--------|--------|--------|--------|--------|
E|--------|--------|--------|--------|--------|--------|--------|--------|--------|


E|--------|--------|--------|--------|-----------------5---------------|-----------------5---------------|
B|--------|--------|--------|--------|-3---5---3---2-------3---5---2---|-3---5---3---2-------2---3---2---|
G|--------|--------|--------|--------|---------------------------------|---------------------------------|
D|--------|--------|--------|--------|---------------------------------|---------------------------------|
A|--------|--------|--------|--------|---------------------------------|---------------------------------|
E|--------|--------|--------|--------|---------------------------------|---------------------------------|


E|--------|-----------------------|--------|-----------------------|--------|--------|
B|--------|-----------------------|--------|-------------0---1-----|--------|--------|
G|--------|-------------4---2-----|--------|-----------------------|--------|--------|
D|--------|-----------------------|--------|---------2-------------|--------|--------|
A|--------|---------4-------------|--------|-----0-----------------|--------|--------|
E|--------|-----2-----------------|--------|-----------------------|--------|--------|


E|--------|--------|--------|--------|--------|--------|--------|--------|--------|
B|--------|--------|--------|--------|--------|--------|--------|--------|--------|
G|--------|--------|--------|--------|--------|--------|--------|--------|--------|
D|--------|--------|--------|--------|--------|--------|--------|--------|--------|
A|--------|--------|--------|--------|--------|--------|--------|--------|--------|
E|--------|--------|--------|--------|--------|--------|--------|--------|--------|





Track 13: piano

E|--------|--------|--------|--------|--------|--------|--------|--------|--------|
B|--------|--------|--------|--------|--------|--------|--------|--------|--------|
G|--------|--------|--------|--------|--------|--------|--------|--------|--------|
D|--------|--------|--------|--------|--------|--------|--------|--------|--------|
A|--------|--------|--------|--------|--------|--------|--------|--------|--------|
E|--------|--------|--------|--------|--------|--------|--------|--------|--------|


E|--------|--------|--------|--------|--------|--------|--------|--------|--------|
B|--------|--------|--------|--------|--------|--------|--------|--------|--------|
G|--------|--------|--------|--------|--------|--------|--------|--------|--------|
D|--------|--------|--------|--------|--------|--------|--------|--------|--------|
A|--------|--------|--------|--------|--------|--------|--------|--------|--------|
E|--------|--------|--------|--------|--------|--------|--------|--------|--------|


E|--------|--------|--------|--------|--------|--------|--------|--------|--------|
B|--------|--------|--------|--------|--------|--------|--------|--------|--------|
G|--------|--------|--------|--------|--------|--------|--------|--------|--------|
D|--------|--------|--------|--------|--------|--------|--------|--------|--------|
A|--------|--------|--------|--------|--------|--------|--------|--------|--------|
E|--------|--------|--------|--------|--------|--------|--------|--------|--------|


E|--------|--------|--------|--------|--------|--------|--------|--------|--------|
B|--------|--------|--------|--------|--------|--------|--------|--------|--------|
G|--------|--------|--------|--------|--------|--------|--------|--------|--------|
D|--------|--------|--------|--------|--------|--------|--------|--------|--------|
A|--------|--------|--------|--------|--------|--------|--------|--------|--------|
E|--------|--------|--------|--------|--------|--------|--------|--------|--------|


E|--------|--------|--------|--------|--------|--------|--------|--------|--------|
B|--------|--------|--------|--------|--------|--------|--------|--------|--------|
G|--------|--------|--------|--------|--------|--------|--------|--------|--------|
D|--------|--------|--------|--------|--------|--------|--------|--------|--------|
A|--------|--------|--------|--------|--------|--------|--------|--------|--------|
E|--------|--------|--------|--------|--------|--------|--------|--------|--------|


E|--------|--------|--------|--------|-----------------5---------------|-----------------5---------------|
B|--------|--------|--------|--------|-3---5---3---2-------3---5---2---|-3---5---3---2-------2---3---2---|
G|--------|--------|--------|--------|---------------------------------|---------------------------------|
D|--------|--------|--------|--------|---------------------------------|---------------------------------|
A|--------|--------|--------|--------|---------------------------------|---------------------------------|
E|--------|--------|--------|--------|---------------------------------|---------------------------------|


E|--------|-----------------------|--------|-----------------------|--------|--------|
B|--------|-----------------------|--------|-------------0---1-----|--------|--------|
G|--------|-------------4---2-----|--------|-----------------------|--------|--------|
D|--------|-----------------------|--------|---------2-------------|--------|--------|
A|--------|---------4-------------|--------|-----0-----------------|--------|--------|
E|--------|-----2-----------------|--------|-----------------------|--------|--------|


E|--------|--------|--------|--------|--------|--------|--------|--------|--------|
B|--------|--------|--------|--------|--------|--------|--------|--------|--------|
G|--------|--------|--------|--------|--------|--------|--------|--------|--------|
D|--------|--------|--------|--------|--------|--------|--------|--------|--------|
A|--------|--------|--------|--------|--------|--------|--------|--------|--------|
E|--------|--------|--------|--------|--------|--------|--------|--------|--------|





Track 14: strings

E|--------|--------|--------|--------|--------|--------|--------|--------|--------|
B|--------|--------|--------|--------|--------|--------|--------|--------|--------|
G|--------|--------|--------|--------|--------|--------|--------|--------|--------|
D|--------|--------|--------|--------|--------|--------|--------|--------|--------|
A|--------|--------|--------|--------|--------|--------|--------|--------|--------|
E|--------|--------|--------|--------|--------|--------|--------|--------|--------|


E|--------|--------|--------|--------|--------|--------|--------|--------|--------|
B|--------|--------|--------|--------|--------|--------|--------|--------|--------|
G|--------|--------|--------|--------|--------|--------|--------|--------|--------|
D|--------|--------|--------|--------|--------|--------|--------|--------|--------|
A|--------|--------|--------|--------|--------|--------|--------|--------|--------|
E|--------|--------|--------|--------|--------|--------|--------|--------|--------|


E|--------|--------|--------|--------|--------|--------|--------|--------|--------|
B|--------|--------|--------|--------|--------|--------|--------|--------|--------|
G|--------|--------|--------|--------|--------|--------|--------|--------|--------|
D|--------|--------|--------|--------|--------|--------|--------|--------|--------|
A|--------|--------|--------|--------|--------|--------|--------|--------|--------|
E|--------|--------|--------|--------|--------|--------|--------|--------|--------|


E|--------|--------|--------|--------|--------|--------|--------|--------|--------|
B|--------|--------|--------|--------|--------|--------|--------|--------|--------|
G|--------|--------|--------|--------|--------|--------|--------|--------|--------|
D|--------|--------|--------|--------|--------|--------|--------|--------|--------|
A|--------|--------|--------|--------|--------|--------|--------|--------|--------|
E|--------|--------|--------|--------|--------|--------|--------|--------|--------|


E|--------|--------|--------|--------|--------|--------|--------|--------|--------|
B|--------|--------|--------|--------|--------|--------|--------|--------|--------|
G|--------|--------|--------|--------|--------|--------|--------|--------|--------|
D|--------|--------|--------|--------|--------|--------|--------|--------|--------|
A|--------|--------|--------|--------|--------|--------|--------|--------|--------|
E|--------|--------|--------|--------|--------|--------|--------|--------|--------|


E|--------|--------|--------|--------|--------|--------|--------|--------|--------|
B|--------|--------|--------|--------|--------|--------|--------|--------|--------|
G|--------|--------|--------|--------|--------|--------|--------|--------|--------|
D|--------|--------|--------|--------|--------|--------|--------|--------|--------|
A|--------|--------|--------|--------|--------|--------|--------|--------|--------|
E|--------|--------|--------|--------|--------|--------|--------|--------|--------|


E|--------|-10------10------10------10------|-13------13------13------13------|-19------19------19------19------|
B|--------|-----3-------3-------3-------3---|-----6-------6-------6-------6---|-----12------12------12------12--|
G|--------|---------------------------------|---------------------------------|---------------------------------|
D|--------|---------------------------------|---------------------------------|---------------------------------|
A|--------|---------------------------------|---------------------------------|---------------------------------|
E|--------|---------------------------------|---------------------------------|---------------------------------|


E|-22------22------22------22------|-------------------------------------|-------------------------------------|
B|-----15------15------15------15--|-------------------------------------|-------------------------------------|
G|---------------------------------|-------------------------------------|-------------------------------------|
D|---------------------------------|-----7------6------------------------|-----10-----9------------------------|
A|---------------------------------|-4-------4------4--6---6--7---7--9---|-7-------7------7--9---9--10--10-12--|
E|---------------------------------|-------------------------------------|-------------------------------------|


E|-17------17------17------17------|-17------17------17------17------|--------|--------|
B|-----10------10------10------10--|-----10------10------10------10--|--------|--------|
G|---------------------------------|---------------------------------|--------|--------|
D|---------------------------------|---------------------------------|--------|--------|
A|---------------------------------|---------------------------------|--------|--------|
E|---------------------------------|---------------------------------|--------|--------|


E|--------|
B|--------|
G|--------|
D|--------|
A|--------|
E|--------|





Track 15: piano

E|--------|--------|--------|--------|--------|--------|--------|--------|--------|
B|--------|--------|--------|--------|--------|--------|--------|--------|--------|
G|--------|--------|--------|--------|--------|--------|--------|--------|--------|
D|--------|--------|--------|--------|--------|--------|--------|--------|--------|
A|--------|--------|--------|--------|--------|--------|--------|--------|--------|
E|--------|--------|--------|--------|--------|--------|--------|--------|--------|


E|--------|--------|--------|--------|--------|--------|--------|--------|--------|
B|--------|--------|--------|--------|--------|--------|--------|--------|--------|
G|--------|--------|--------|--------|--------|--------|--------|--------|--------|
D|--------|--------|--------|--------|--------|--------|--------|--------|--------|
A|--------|--------|--------|--------|--------|--------|--------|--------|--------|
E|--------|--------|--------|--------|--------|--------|--------|--------|--------|


E|--------|--------|--------|--------|--------|--------|--------|--------|--------|
B|--------|--------|--------|--------|--------|--------|--------|--------|--------|
G|--------|--------|--------|--------|--------|--------|--------|--------|--------|
D|--------|--------|--------|--------|--------|--------|--------|--------|--------|
A|--------|--------|--------|--------|--------|--------|--------|--------|--------|
E|--------|--------|--------|--------|--------|--------|--------|--------|--------|


E|--------|--------|--------|--------|--------|--------|--------|--------|--------|
B|--------|--------|--------|--------|--------|--------|--------|--------|--------|
G|--------|--------|--------|--------|--------|--------|--------|--------|--------|
D|--------|--------|--------|--------|--------|--------|--------|--------|--------|
A|--------|--------|--------|--------|--------|--------|--------|--------|--------|
E|--------|--------|--------|--------|--------|--------|--------|--------|--------|


E|--------|--------|--------|--------|--------|--------|--------|--------|--------|
B|--------|--------|--------|--------|--------|--------|--------|--------|--------|
G|--------|--------|--------|--------|--------|--------|--------|--------|--------|
D|--------|--------|--------|--------|--------|--------|--------|--------|--------|
A|--------|--------|--------|--------|--------|--------|--------|--------|--------|
E|--------|--------|--------|--------|--------|--------|--------|--------|--------|


E|--------|--------|--------|--------|--------|--------|--------|--------|--------|
B|--------|--------|--------|--------|--------|--------|--------|--------|--------|
G|--------|--------|--------|--------|--------|--------|--------|--------|--------|
D|--------|--------|--------|--------|--------|--------|--------|--------|--------|
A|--------|--------|--------|--------|--------|--------|--------|--------|--------|
E|--------|--------|--------|--------|--------|--------|--------|--------|--------|


E|--------|--------|--------|--------|--------|--------|--------|--------|--------|
B|--------|--------|--------|--------|--------|--------|--------|--------|--------|
G|--------|--------|--------|--------|--------|--------|--------|--------|--------|
D|--------|--------|--------|--------|--------|--------|--------|--------|--------|
A|--------|--------|--------|--------|--------|--------|--------|--------|--------|
E|--------|--------|--------|--------|--------|--------|--------|--------|--------|


E|--------|--------|--------|
B|--------|--------|--------|
G|--------|--------|--------|
D|--------|--------|--------|
A|--------|--------|--------|
E|--------|--------|--------|





Track 16: strings

E|--------|--------|--------|--------|--------|--------|--------|--------|--------|
B|--------|--------|--------|--------|--------|--------|--------|--------|--------|
G|--------|--------|--------|--------|--------|--------|--------|--------|--------|
D|--------|--------|--------|--------|--------|--------|--------|--------|--------|
A|--------|--------|--------|--------|--------|--------|--------|--------|--------|
E|--------|--------|--------|--------|--------|--------|--------|--------|--------|


E|--------|--------|--------|--------|--------|--------|--------|--------|--------|
B|--------|--------|--------|--------|--------|--------|--------|--------|--------|
G|--------|--------|--------|--------|--------|--------|--------|--------|--------|
D|--------|--------|--------|--------|--------|--------|--------|--------|--------|
A|--------|--------|--------|--------|--------|--------|--------|--------|--------|
E|--------|--------|--------|--------|--------|--------|--------|--------|--------|


E|--------|--------|--------|--------|--------|--------|--------|--------|--------|
B|--------|--------|--------|--------|--------|--------|--------|--------|--------|
G|--------|--------|--------|--------|--------|--------|--------|--------|--------|
D|--------|--------|--------|--------|--------|--------|--------|--------|--------|
A|--------|--------|--------|--------|--------|--------|--------|--------|--------|
E|--------|--------|--------|--------|--------|--------|--------|--------|--------|


E|--------|--------|--------|--------|--------|--------|--------|--------|--------|
B|--------|--------|--------|--------|--------|--------|--------|--------|--------|
G|--------|--------|--------|--------|--------|--------|--------|--------|--------|
D|--------|--------|--------|--------|--------|--------|--------|--------|--------|
A|--------|--------|--------|--------|--------|--------|--------|--------|--------|
E|--------|--------|--------|--------|--------|--------|--------|--------|--------|


E|--------|--------|--------|--------|--------|--------|--------|--------|--------|
B|--------|--------|--------|--------|--------|--------|--------|--------|--------|
G|--------|--------|--------|--------|--------|--------|--------|--------|--------|
D|--------|--------|--------|--------|--------|--------|--------|--------|--------|
A|--------|--------|--------|--------|--------|--------|--------|--------|--------|
E|--------|--------|--------|--------|--------|--------|--------|--------|--------|


E|--------|--------|--------|--------|--------|--------|--------|--------|--------|
B|--------|--------|--------|--------|--------|--------|--------|--------|--------|
G|--------|--------|--------|--------|--------|--------|--------|--------|--------|
D|--------|--------|--------|--------|--------|--------|--------|--------|--------|
A|--------|--------|--------|--------|--------|--------|--------|--------|--------|
E|--------|--------|--------|--------|--------|--------|--------|--------|--------|


E|--------|--------|--------|--------|-10-12-13-17-10-12-13-17-10-12-13-17-10-12-13-17-|
B|--------|--------|--------|--------|-------------------------------------------------|
G|--------|--------|--------|--------|-------------------------------------------------|
D|--------|--------|--------|--------|-------------------------------------------------|
A|--------|--------|--------|--------|-------------------------------------------------|
E|--------|--------|--------|--------|-------------------------------------------------|


E|--------|--------|-------------------------------------------------|-------------------------------------------------|
B|--------|--------|----------1-----------1-----------1-----------1--|----------1-----------1-----------1-----------1--|
G|--------|--------|-------2-----------2-----------2-----------2-----|-------2-----------2-----------2-----------2-----|
D|--------|--------|----2-----------2-----------2-----------2--------|----2-----------2-----------2-----------2--------|
A|--------|--------|-0-----------0-----------0-----------0-----------|-0-----------0-----------0-----------0-----------|
E|--------|--------|-------------------------------------------------|-------------------------------------------------|


E|--------|--------|--------|
B|--------|--------|--------|
G|--------|--------|--------|
D|--------|--------|--------|
A|--------|--------|--------|
E|--------|--------|--------|





Track 17: bass

G|--------|--------|--------|--------|--------|--------|--------|--------|--------|
D|--------|--------|--------|--------|--------|--------|--------|--------|--------|
A|--------|--------|--------|--------|--------|--------|--------|--------|--------|
E|--------|--------|--------|--------|--------|--------|--------|--------|--------|


G|--------|--------|--------|--------|--------|--------|--------|--------|-------------|
D|--------|--------|--------|--------|--------|--------|--------|--------|-------------|
A|--------|--------|--------|--------|--------|--------|--------|--------|-2-----------|
E|--------|--------|--------|--------|--------|--------|--------|--------|--------2----|


G|-------------|-------------|-------------|---------------------------------|---------------------------------|
D|-------------|-------------|-------------|---------------------------------|---------------------------------|
A|-2-----------|-------------|-------------|---------------------------------|---------------------------------|
E|--------2----|-4------4----|-4------4----|-3---3---3---2---3---3---3---2---|-3---3---3---2---3---3---3---2---|


G|---------------------------|---------------------------|-------------|-------------|
D|---------------------------|---------------------------|-------------|-------------|
A|-4---4---4----4---4---4----|---------------------------|-2-----------|-2-----------|
E|---------------------------|-2---2---2----2---2---2----|--------2----|--------2----|


G|-------------|-------------|---------------------------------|---------------------------------|
D|-------------|-------------|---------------------------------|---------------------------------|
A|-------------|-------------|---------------------------------|---------------------------------|
E|-4------4----|-4------4----|-3---3---3---2---3---3---3---2---|-3---3---3---2---3---3---3---2---|


G|---------------------------|---------------------------|---------------------|---------------------|
D|---------------------------|---------------------------|---------------------|---------------------|
A|-4---4---4----4---4---4----|---------------------------|---------------------|-----------6----6----|
E|---------------------------|-2---2---2----2---2---2----|-4----4----4----4----|-4----4--------------|


G|--------|-----------------|--------------------|-----------------|--------|-----------------|
D|--------|-----------------|--------------------|-----------------|--------|-----------------|
A|--------|-----------------|------------9---5---|-----------------|-7------|-7-----7----7----|
E|-4------|-4----4----4-----|-7----7-------------|-7-----7----7----|--------|-----------------|


G|-----------------|-------------|--------|--------|--------|--------|--------|--------|
D|-----------------|-------------|--------|--------|--------|--------|--------|--------|
A|-10---10----12---|-10---10-----|-2------|-2------|-5------|--------|-2------|-2------|
E|-----------------|-------------|--------|--------|--------|-5------|--------|--------|


G|---------------------|---------------------------------|---------------------|---------------------|
D|---------------------|---------------------------------|---------------------|---------------------|
A|-5----5----5----5----|-7---7---7---7---7---7---7---7---|-9----9----9----9----|-9----9----9----9----|
E|---------------------|---------------------------------|---------------------|---------------------|


G|---------------------|---------------------|-7-------7-------7-------7-------|---------------------------------|
D|---------------------|---------------------|-----0-------0-------0-------0---|---------------------------------|
A|-12---12---12---12---|-12---12---12---12---|---------------------------------|-----3-------3-------3-------3---|
E|---------------------|---------------------|---------------------------------|-1-------1-------1-------1-------|


G|---------------------------------|-7-------7-------7-------7-------|-------------|
D|-----9-------9-------9-------9---|-----0-------0-------0-------0---|-------------|
A|-2-------2-------2-------2-------|---------------------------------|-4------6----|
E|---------------------------------|---------------------------------|-------------|


G|-------------|---------------------------------|---------------------------------|
D|-------------|-----7-------7-------7-------7---|-----7-------7-------7-------7---|
A|-7------6----|-0-------0-------0-------0-------|-0-------0-------0-------0-------|
E|-------------|---------------------------------|---------------------------------|


G|--------|--------|--------|
D|--------|--------|--------|
A|--------|--------|--------|
E|--------|--------|--------|





Track 18: cello

G|--------|--------|--------|--------|--------|--------|--------|--------|--------|
D|--------|--------|--------|--------|--------|--------|--------|--------|--------|
A|--------|--------|--------|--------|--------|--------|--------|--------|--------|
E|--------|--------|--------|--------|--------|--------|--------|--------|--------|


G|--------|--------|--------|--------|--------|--------|--------|--------|--------|
D|--------|--------|--------|--------|--------|--------|--------|--------|--------|
A|--------|--------|--------|--------|--------|--------|--------|--------|--------|
E|--------|--------|--------|--------|--------|--------|--------|--------|--------|


G|--------|--------|--------|--------|--------|--------|--------|--------|--------|
D|--------|--------|--------|--------|--------|--------|--------|--------|--------|
A|--------|--------|--------|--------|--------|--------|--------|--------|--------|
E|--------|--------|--------|--------|--------|--------|--------|--------|--------|


G|--------|--------|--------|--------|--------|--------|--------|--------|-8----11--10--8----13--11--|
D|--------|--------|--------|--------|--------|--------|--------|--------|---------------------------|
A|--------|--------|--------|--------|--------|--------|--------|--------|---------------------------|
E|--------|--------|--------|--------|--------|--------|--------|--------|---------------------------|


G|-10---8------|--------|--------11---|-12--14--12--11--12----|-12--14--12--11--12----|
D|-------------|--------|-------------|-----------------------|-----------------------|
A|-------------|--------|-------------|-----------------------|-----------------------|
E|-------------|--------|-------------|-----------------------|-----------------------|


G|-16--17--16--14--16----|-12--11--9---11--9---7---5----|-4-----6----7----|-7----6---4---2----4----|
D|-17--19--17--16--17----|------------------------------|-----------------|------------------------|
A|-----------------------|------------------------------|-----------------|------------------------|
E|-----------------------|------------------------------|-----------------|------------------------|


G|-7------|--------|-4-----6----7----|-7----6---4---2----4----|-7------|-9------|-11-----|
D|--------|-7------|-----------------|------------------------|--------|--------|--------|
A|--------|--------|-----------------|------------------------|--------|--------|--------|
E|--------|--------|-----------------|------------------------|--------|--------|--------|


G|------------------------|--------|------------------------|-2----4----5----7----|
D|-----6----7----6----9---|-7------|-----9----10---9----12--|---------------------|
A|------------------------|--------|------------------------|---------------------|
E|------------------------|--------|------------------------|---------------------|


G|-5----7----8----10---|-11----7----6----|-7------|--------|--------|--------|--------|
D|---------------------|-----------------|-9------|--------|--------|-7------|-7------|
A|---------------------|-----------------|--------|--------|-7------|-0------|-0------|
E|---------------------|-----------------|--------|--------|--------|--------|--------|


G|--------|--------|--------|
D|--------|--------|--------|
A|--------|--------|--------|
E|-0------|-0------|-0------|