Site menu:

    

Browse: 0-9 A B C D E F G H I J K L N O P Q R S T U V W X Y Z

purple lemons - he ran fast:



Title: He Ran (fast)
Artist: 
Album: 
Author: Matt Needham


Track 1: Lauren (guitar)

E|---------------------------------|---------------------------------|---------------------------------|
B|---------------------------------|---------------------------------|---------------------------------|
G|-5---5---5---5---5---5---5---5---|-5---5---5---5---5---5---5---5---|-5---5---5---5---5---5---5---5---|
D|-3---3---3---3---3---3---3---3---|-2---2---2---2---2---2---2---2---|-0---0---0---0---0---0---0---0---|
A|---------------------------------|---------------------------------|---------------------------------|
E|---------------------------------|---------------------------------|---------------------------------|


E|---------------------------------|---------------------------------|---------------------------------|
B|---------------------------------|---------------------------------|---------------------------------|
G|-5---5---5---5---5---5---5---5---|-5---5---5---5---5---5---5---5---|-5---5---5---5---5---5---5---5---|
D|-2---2---2---2---2---2---2---2---|-3---3---3---3---3---3---3---3---|-2---2---2---2---2---2---2---2---|
A|---------------------------------|---------------------------------|---------------------------------|
E|---------------------------------|---------------------------------|---------------------------------|


E|---------------------------------|---------------------------------|---------------------------------|
B|---------------------------------|---------------------------------|---------------------------------|
G|-5---5---5---5---5---5---5---5---|-5---5---5---5---5---5---5---5---|-5---5---5---5---5---5---5---5---|
D|-0---0---0---0---0---0---0---0---|-2---2---2---2---2---2---2---2---|-3---3---3---3---3---3---3---3---|
A|---------------------------------|---------------------------------|---------------------------------|
E|---------------------------------|---------------------------------|---------------------------------|


E|---------------------------------|---------------------------------|---------------------------------|
B|---------------------------------|---------------------------------|---------------------------------|
G|-5---5---5---5---5---5---5---5---|-5---5---5---5---5---5---5---5---|-5---5---5---5---5---5---5---5---|
D|-2---2---2---2---2---2---2---2---|-0---0---0---0---0---0---0---0---|-2---2---2---2---2---2---2---2---|
A|---------------------------------|---------------------------------|---------------------------------|
E|---------------------------------|---------------------------------|---------------------------------|


E|-----------------------------------|-----------------------------------|-----------------------------------|
B|-----------------------------------|-----------------------------------|-----------------------------------|
G|-5---5---5--5---5---5--5---5---5---|-5---5---5--5---5---5--5---5---5---|-5---5---5--5---5---5--5---5---5---|
D|-3---3---5--5---5---5--3---3---3---|-2---2---5--5---5---5--2---2---2---|-0---0---5--5---5---5--0---0---0---|
A|-----------------------------------|-----------------------------------|-----------------------------------|
E|-----------------------------------|-----------------------------------|-----------------------------------|


E|---------------------------------|-----------------------------------|-----------------------------------|
B|---------------------------------|-----------------------------------|-----------------------------------|
G|-5---5---5---5---5---5---5---5---|-5---5---5--5---5---5--5---5---5---|-5---5---5--5---5---5--5---5---5---|
D|-2---2---2---2---2---2---2---2---|-3---3---5--5---5---5--3---3---3---|-2---2---5--5---5---5--2---2---2---|
A|---------------------------------|-----------------------------------|-----------------------------------|
E|---------------------------------|-----------------------------------|-----------------------------------|


E|-----------------------------------|---------------------------------|-----------------------------------|
B|-----------------------------------|---------------------------------|-----------------------------------|
G|-5---5---5--5---5---5--5---5---5---|-5---5---5---5---5---5---5---5---|-5---5---5--5---5---5--5---5---5---|
D|-0---0---5--5---5---5--0---0---0---|-2---2---2---2---2---2---2---2---|-3---3---5--5---5---5--3---3---3---|
A|-----------------------------------|---------------------------------|-----------------------------------|
E|-----------------------------------|---------------------------------|-----------------------------------|


E|-----------------------------------|-----------------------------------|---------------------------------|
B|-----------------------------------|-----------------------------------|---------------------------------|
G|-5---5---5--5---5---5--5---5---5---|-5---5---5--5---5---5--5---5---5---|-5---5---5---5---5---5---5---5---|
D|-2---2---5--5---5---5--2---2---2---|-0---0---5--5---5---5--0---0---0---|-2---2---2---2---2---2---2---2---|
A|-----------------------------------|-----------------------------------|---------------------------------|
E|-----------------------------------|-----------------------------------|---------------------------------|


E|---------------------------------|---------------------------------|---------------------------------|
B|---------------------------------|---------------------------------|---------------------------------|
G|-5---5---5---5---5---5---5---5---|-5---5---5---5---5---5---5---5---|-5---5---5---5---5---5---5---5---|
D|-3---3---3---3---3---3---3---3---|-2---2---2---2---2---2---2---2---|-0---0---0---0---0---0---0---0---|
A|---------------------------------|---------------------------------|---------------------------------|
E|---------------------------------|---------------------------------|---------------------------------|


E|---------------------------------|---------------------------------|---------------------------------|
B|---------------------------------|---------------------------------|---------------------------------|
G|-5---5---5---5---5---5---5---5---|-5---5---5---5---5---5---5---5---|-5---5---5---5---5---5---5---5---|
D|-2---2---2---2---2---2---2---2---|-3---3---3---3---3---3---3---3---|-2---2---2---2---2---2---2---2---|
A|---------------------------------|---------------------------------|---------------------------------|
E|---------------------------------|---------------------------------|---------------------------------|


E|---------------------------------|---------------------------------|---------------------------------|
B|---------------------------------|---------------------------------|---------------------------------|
G|-5---5---5---5---5---5---5---5---|-5---5---5---5---5---5---5---5---|-5---5---5---5---5---5---5---5---|
D|-0---0---0---0---0---0---0---0---|-2---2---2---2---2---2---2---2---|-3---3---3---3---3---3---3---3---|
A|---------------------------------|---------------------------------|---------------------------------|
E|---------------------------------|---------------------------------|---------------------------------|


E|---------------------------------|---------------------------------|---------------------------------|
B|---------------------------------|---------------------------------|---------------------------------|
G|-5---5---5---5---5---5---5---5---|-5---5---5---5---5---5---5---5---|-5---5---5---5---5---5---5---5---|
D|-2---2---2---2---2---2---2---2---|-0---0---0---0---0---0---0---0---|-2---2---2---2---2---2---2---2---|
A|---------------------------------|---------------------------------|---------------------------------|
E|---------------------------------|---------------------------------|---------------------------------|


E|---------------------------------|---------------------------------|---------------------------------|
B|---------------------------------|---------------------------------|---------------------------------|
G|-5---5---5---5---5---5---5---5---|-5---5---5---5---5---5---5---5---|-5---5---5---5---5---5---5---5---|
D|-3---3---3---3---3---3---3---3---|-2---2---2---2---2---2---2---2---|-0---0---0---0---0---0---0---0---|
A|---------------------------------|---------------------------------|---------------------------------|
E|---------------------------------|---------------------------------|---------------------------------|


E|---------------------------------|---------------------------------|---------------------------------|
B|---------------------------------|---------------------------------|---------------------------------|
G|-5---5---5---5---5---5---5---5---|-5---5---5---5---5---5---5---5---|-5---5---5---5---5---5---5---5---|
D|-2---2---2---2---2---2---2---2---|-3---3---3---3---3---3---3---3---|-2---2---2---2---2---2---2---2---|
A|---------------------------------|---------------------------------|---------------------------------|
E|---------------------------------|---------------------------------|---------------------------------|


E|---------------------------------|---------------------------------|---------------------------------|
B|---------------------------------|---------------------------------|---------------------------------|
G|-5---5---5---5---5---5---5---5---|-5---5---5---5---5---5---5---5---|-5---5---5---5---5---5---5---5---|
D|-0---0---0---0---0---0---0---0---|-2---2---2---2---2---2---2---2---|-3---3---3---3---3---3---3---3---|
A|---------------------------------|---------------------------------|---------------------------------|
E|---------------------------------|---------------------------------|---------------------------------|


E|---------------------------------|---------------------------------|---------------------------------|
B|---------------------------------|---------------------------------|---------------------------------|
G|-5---5---5---5---5---5---5---5---|-5---5---5---5---5---5---5---5---|-5---5---5---5---5---5---5---5---|
D|-2---2---2---2---2---2---2---2---|-0---0---0---0---0---0---0---0---|-2---2---2---2---2---2---2---2---|
A|---------------------------------|---------------------------------|---------------------------------|
E|---------------------------------|---------------------------------|---------------------------------|


E|---------------------------------|---------------------------------|---------------------------------|
B|---------------------------------|---------------------------------|---------------------------------|
G|-5---5---5---5---5---5---5---5---|-5---5---5---5---5---5---5---5---|-5---5---5---5---5---5---5---5---|
D|-3---3---3---3---3---3---3---3---|-2---2---2---2---2---2---2---2---|-0---0---0---0---0---0---0---0---|
A|---------------------------------|---------------------------------|---------------------------------|
E|---------------------------------|---------------------------------|---------------------------------|


E|---------------------------------|-----------------------------------|-----------------------------------|
B|---------------------------------|-----------------------------------|-----------------------------------|
G|-5---5---5---5---5---5---5---5---|-5---5---5--5---5---5--5---5---5---|-5---5---5--5---5---5--5---5---5---|
D|-2---2---2---2---2---2---2---2---|-3---3---5--5---5---5--3---3---3---|-2---2---5--5---5---5--2---2---2---|
A|---------------------------------|-----------------------------------|-----------------------------------|
E|---------------------------------|-----------------------------------|-----------------------------------|


E|-----------------------------------|---------------------------------|-----------------------------------|
B|-----------------------------------|---------------------------------|-----------------------------------|
G|-5---5---5--5---5---5--5---5---5---|-5---5---5---5---5---5---5---5---|-5---5---5--5---5---5--5---5---5---|
D|-0---0---5--5---5---5--0---0---0---|-2---2---2---2---2---2---2---2---|-3---3---5--5---5---5--3---3---3---|
A|-----------------------------------|---------------------------------|-----------------------------------|
E|-----------------------------------|---------------------------------|-----------------------------------|


E|-----------------------------------|-----------------------------------|---------------------------------|
B|-----------------------------------|-----------------------------------|---------------------------------|
G|-5---5---5--5---5---5--5---5---5---|-5---5---5--5---5---5--5---5---5---|-5---5---5---5---5---5---5---5---|
D|-2---2---5--5---5---5--2---2---2---|-0---0---5--5---5---5--0---0---0---|-2---2---2---2---2---2---2---2---|
A|-----------------------------------|-----------------------------------|---------------------------------|
E|-----------------------------------|-----------------------------------|---------------------------------|


E|-----------------------------------|-----------------------------------|-----------------------------------|
B|-----------------------------------|-----------------------------------|-----------------------------------|
G|-5---5---5--5---5---5--5---5---5---|-5---5---5--5---5---5--5---5---5---|-5---5---5--5---5---5--5---5---5---|
D|-3---3---5--5---5---5--3---3---3---|-2---2---5--5---5---5--2---2---2---|-0---0---5--5---5---5--0---0---0---|
A|-----------------------------------|-----------------------------------|-----------------------------------|
E|-----------------------------------|-----------------------------------|-----------------------------------|


E|---------------------------------|---------------------------------|---------------------------------|
B|---------------------------------|---------------------------------|---------------------------------|
G|-5---5---5---5---5---5---5---5---|-5---5---5---5---5---5---5---5---|-5---5---5---5---5---5---5---5---|
D|-2---2---2---2---2---2---2---2---|-3---3---3---3---3---3---3---3---|-2---2---2---2---2---2---2---2---|
A|---------------------------------|---------------------------------|---------------------------------|
E|---------------------------------|---------------------------------|---------------------------------|


E|---------------------------------|---------------------------------|---------------------------------|
B|---------------------------------|---------------------------------|---------------------------------|
G|-5---5---5---5---5---5---5---5---|-5---5---5---5---5---5---5---5---|-5---5---5---5---5---5---5---5---|
D|-0---0---0---0---0---0---0---0---|-2---2---2---2---2---2---2---2---|-3---3---3---3---3---3---3---3---|
A|---------------------------------|---------------------------------|---------------------------------|
E|---------------------------------|---------------------------------|---------------------------------|


E|---------------------------------|---------------------------------|---------------------------------|
B|---------------------------------|---------------------------------|---------------------------------|
G|-5---5---5---5---5---5---5---5---|-5---5---5---5---5---5---5---5---|-5---5---5---5---5---5---5---5---|
D|-2---2---2---2---2---2---2---2---|-0---0---0---0---0---0---0---0---|-2---2---2---2---2---2---2---2---|
A|---------------------------------|---------------------------------|---------------------------------|
E|---------------------------------|---------------------------------|---------------------------------|


E|---------------------------------|---------------------------------|---------------------------------|
B|---------------------------------|---------------------------------|---------------------------------|
G|-5---5---5---5---5---5---5---5---|-5---5---5---5---5---5---5---5---|-5---5---5---5---5---5---5---5---|
D|-3---3---3---3---3---3---3---3---|-2---2---2---2---2---2---2---2---|-0---0---0---0---0---0---0---0---|
A|---------------------------------|---------------------------------|---------------------------------|
E|---------------------------------|---------------------------------|---------------------------------|


E|---------------------------------|---------------------------------|---------------------------------|
B|---------------------------------|---------------------------------|---------------------------------|
G|-5---5---5---5---5---5---5---5---|-5---5---5---5---5---5---5---5---|-5---5---5---5---5---5---5---5---|
D|-2---2---2---2---2---2---2---2---|-3---3---3---3---3---3---3---3---|-2---2---2---2---2---2---2---2---|
A|---------------------------------|---------------------------------|---------------------------------|
E|---------------------------------|---------------------------------|---------------------------------|


E|---------------------------------|---------------------------------|---------------------------------|
B|---------------------------------|---------------------------------|---------------------------------|
G|-5---5---5---5---5---5---5---5---|-5---5---5---5---5---5---5---5---|-5---5---5---5---5---5---5---5---|
D|-0---0---0---0---0---0---0---0---|-2---2---2---2---2---2---2---2---|-3---3---3---3---3---3---3---3---|
A|---------------------------------|---------------------------------|---------------------------------|
E|---------------------------------|---------------------------------|---------------------------------|


E|---------------------------------|---------------------------------|---------------------------------|
B|---------------------------------|---------------------------------|---------------------------------|
G|-5---5---5---5---5---5---5---5---|-5---5---5---5---5---5---5---5---|-5---5---5---5---5---5---5---5---|
D|-2---2---2---2---2---2---2---2---|-0---0---0---0---0---0---0---0---|-2---2---2---2---2---2---2---2---|
A|---------------------------------|---------------------------------|---------------------------------|
E|---------------------------------|---------------------------------|---------------------------------|


E|--------|--------|--------|--------|--------|--------|--------|--------|--------|
B|--------|--------|--------|--------|--------|--------|--------|--------|--------|
G|--------|--------|--------|--------|--------|--------|--------|--------|--------|
D|--------|--------|--------|--------|--------|--------|--------|--------|--------|
A|--------|--------|--------|--------|--------|--------|--------|--------|--------|
E|--------|--------|--------|--------|--------|--------|--------|--------|--------|


E|--------|--------|--------|--------|--------|--------|--------|---------------------------------|
B|--------|--------|--------|--------|--------|--------|--------|---------------------------------|
G|--------|--------|--------|--------|--------|--------|--------|-5---5---5---5---5---5---5---5---|
D|--------|--------|--------|--------|--------|--------|--------|-3---3---3---3---3---3---3---3---|
A|--------|--------|--------|--------|--------|--------|--------|---------------------------------|
E|--------|--------|--------|--------|--------|--------|--------|---------------------------------|


E|---------------------------------|---------------------------------|---------------------------------|
B|---------------------------------|---------------------------------|---------------------------------|
G|-5---5---5---5---5---5---5---5---|-5---5---5---5---5---5---5---5---|-5---5---5---5---5---5---5---5---|
D|-2---2---2---2---2---2---2---2---|-0---0---0---0---0---0---0---0---|-2---2---2---2---2---2---2---2---|
A|---------------------------------|---------------------------------|---------------------------------|
E|---------------------------------|---------------------------------|---------------------------------|


E|---------------------------------|---------------------------------|---------------------------------|
B|---------------------------------|---------------------------------|---------------------------------|
G|-5---5---5---5---5---5---5---5---|-5---5---5---5---5---5---5---5---|-5---5---5---5---5---5---5---5---|
D|-3---3---3---3---3---3---3---3---|-2---2---2---2---2---2---2---2---|-0---0---0---0---0---0---0---0---|
A|---------------------------------|---------------------------------|---------------------------------|
E|---------------------------------|---------------------------------|---------------------------------|


E|---------------------------------|---------------------------------|---------------------------------|
B|---------------------------------|---------------------------------|---------------------------------|
G|-5---5---5---5---5---5---5---5---|-5---5---5---5---5---5---5---5---|-5---5---5---5---5---5---5---5---|
D|-2---2---2---2---2---2---2---2---|-3---3---3---3---3---3---3---3---|-2---2---2---2---2---2---2---2---|
A|---------------------------------|---------------------------------|---------------------------------|
E|---------------------------------|---------------------------------|---------------------------------|


E|---------------------------------|---------------------------------|---------------------------------|
B|---------------------------------|---------------------------------|---------------------------------|
G|-5---5---5---5---5---5---5---5---|-5---5---5---5---5---5---5---5---|-5---5---5---5---5---5---5---5---|
D|-0---0---0---0---0---0---0---0---|-2---2---2---2---2---2---2---2---|-3---3---3---3---3---3---3---3---|
A|---------------------------------|---------------------------------|---------------------------------|
E|---------------------------------|---------------------------------|---------------------------------|


E|---------------------------------|---------------------------------|--------|
B|---------------------------------|---------------------------------|--------|
G|-5---5---5---5---5---5---5---5---|-5---5---5---5---5---5---5---5---|-5------|
D|-2---2---2---2---2---2---2---2---|-0---0---0---0---0---0---0---0---|-2------|
A|---------------------------------|---------------------------------|--------|
E|---------------------------------|---------------------------------|--------|





Track 2: Drake (guitar)

E|--------|--------|--------|--------|---------------------------------|---------------------------------|
B|--------|--------|--------|--------|---------------------------------|---------------------------------|
G|--------|--------|--------|--------|---------5---2-----------5---2---|---------5---2-----------5---2---|
D|--------|--------|--------|--------|-3---3-----------3---3-----------|-2---2-----------2---2-----------|
A|--------|--------|--------|--------|---------------------------------|---------------------------------|
E|--------|--------|--------|--------|---------------------------------|---------------------------------|


E|---------------------------------|---------------------------------|--------|--------|
B|---------------------------------|---------------------------------|--------|--------|
G|---------5---2-----------5---2---|---------5---2---5---2---5---2---|--------|--------|
D|-0---0-----------0---0-----------|-2---2---------------------------|--------|--------|
A|---------------------------------|---------------------------------|--------|--------|
E|---------------------------------|---------------------------------|--------|--------|


E|--------|--------|--------|--------|--------|--------|--------|--------|--------|
B|--------|--------|--------|--------|--------|--------|--------|--------|--------|
G|--------|--------|--------|--------|--------|--------|--------|--------|--------|
D|--------|--------|--------|--------|--------|--------|--------|--------|--------|
A|--------|--------|--------|--------|--------|--------|--------|--------|--------|
E|--------|--------|--------|--------|--------|--------|--------|--------|--------|


E|--------|--------|--------|--------|--------|--------|--------|--------|--------|
B|--------|--------|--------|--------|--------|--------|--------|--------|--------|
G|--------|--------|--------|--------|--------|--------|--------|--------|--------|
D|--------|--------|--------|--------|--------|--------|--------|--------|--------|
A|--------|--------|--------|--------|--------|--------|--------|--------|--------|
E|--------|--------|--------|--------|--------|--------|--------|--------|--------|


E|---------------------------------|---------------------------------|---------------------------------|
B|---------------------------------|---------------------------------|---------------------------------|
G|-5---2---5---2---5---2---5---2---|-5---2---5---2---5---2---5---2---|-5---2---5---2---5---2---5---2---|
D|---------------------------------|---------------------------------|---------------------------------|
A|---------------------------------|---------------------------------|---------------------------------|
E|---------------------------------|---------------------------------|---------------------------------|


E|---------------------------------|---------------------------------|---------------------------------|
B|---------------------------------|---------------------------------|---------------------------------|
G|-5---2---5---2---5---2---5---2---|-5---2---5---2---5---2---5---2---|-5---2---5---2---5---2---5---2---|
D|---------------------------------|---------------------------------|---------------------------------|
A|---------------------------------|---------------------------------|---------------------------------|
E|---------------------------------|---------------------------------|---------------------------------|


E|---------------------------------|---------------------------------|---------------------------------|
B|---------------------------------|---------------------------------|---------------------------------|
G|-5---2---5---2---5---2---5---2---|-5---2---5---2---5---2---5---2---|-5---2---5---2---5---2---5---2---|
D|---------------------------------|---------------------------------|---------------------------------|
A|---------------------------------|---------------------------------|---------------------------------|
E|---------------------------------|---------------------------------|---------------------------------|


E|---------------------------------|---------------------------------|---------------------------------|
B|---------------------------------|---------------------------------|---------------------------------|
G|-5---2---5---2---5---2---5---2---|-5---2---5---2---5---2---5---2---|-5---2---5---2---5---2---5---2---|
D|---------------------------------|---------------------------------|---------------------------------|
A|---------------------------------|---------------------------------|---------------------------------|
E|---------------------------------|---------------------------------|---------------------------------|


E|---------------------------------|---------------------------------|---------------------------------|
B|---------------------------------|---------------------------------|---------------------------------|
G|-5---2---5---2---5---2---5---2---|-5---2---5---2---5---2---5---2---|-5---2---5---2---5---2---5---2---|
D|---------------------------------|---------------------------------|---------------------------------|
A|---------------------------------|---------------------------------|---------------------------------|
E|---------------------------------|---------------------------------|---------------------------------|


E|---------------------------------|--------|--------|--------|--------|--------|--------|
B|---------------------------------|--------|--------|--------|--------|--------|--------|
G|-5---2---5---2---5---2---5---2---|--------|--------|--------|--------|--------|--------|
D|---------------------------------|--------|--------|--------|--------|--------|--------|
A|---------------------------------|--------|--------|--------|--------|--------|--------|
E|---------------------------------|--------|--------|--------|--------|--------|--------|


E|--------|--------|--------|--------|--------|--------|--------|--------|--------|
B|--------|--------|--------|--------|--------|--------|--------|--------|--------|
G|--------|--------|--------|--------|--------|--------|--------|--------|--------|
D|--------|--------|--------|--------|--------|--------|--------|--------|--------|
A|--------|--------|--------|--------|--------|--------|--------|--------|--------|
E|--------|--------|--------|--------|--------|--------|--------|--------|--------|


E|--------|--------|--------|--------|--------|--------|--------|--------|--------|
B|--------|--------|--------|--------|--------|--------|--------|--------|--------|
G|--------|--------|--------|--------|--------|--------|--------|--------|--------|
D|--------|--------|--------|--------|--------|--------|--------|--------|--------|
A|--------|--------|--------|--------|--------|--------|--------|--------|--------|
E|--------|--------|--------|--------|--------|--------|--------|--------|--------|


E|---------------------------------|---------------------------------|---------------------------------|
B|---------------------------------|---------------------------------|---------------------------------|
G|-5---2---5---2---5---2---5---2---|-5---2---5---2---5---2---5---2---|-5---2---5---2---5---2---5---2---|
D|---------------------------------|---------------------------------|---------------------------------|
A|---------------------------------|---------------------------------|---------------------------------|
E|---------------------------------|---------------------------------|---------------------------------|


E|---------------------------------|---------------------------------|---------------------------------|
B|---------------------------------|---------------------------------|---------------------------------|
G|-5---2---5---2---5---2---5---2---|-5---2---5---2---5---2---5---2---|-5---2---5---2---5---2---5---2---|
D|---------------------------------|---------------------------------|---------------------------------|
A|---------------------------------|---------------------------------|---------------------------------|
E|---------------------------------|---------------------------------|---------------------------------|


E|---------------------------------|---------------------------------|---------------------------------|
B|---------------------------------|---------------------------------|---------------------------------|
G|-5---2---5---2---5---2---5---2---|-5---2---5---2---5---2---5---2---|-5---2---5---2---5---2---5---2---|
D|---------------------------------|---------------------------------|---------------------------------|
A|---------------------------------|---------------------------------|---------------------------------|
E|---------------------------------|---------------------------------|---------------------------------|


E|---------------------------------|---------------------------------|---------------------------------|
B|---------------------------------|---------------------------------|---------------------------------|
G|-5---2---5---2---5---2---5---2---|-5---2---5---2---5---2---5---2---|-5---2---5---2---5---2---5---2---|
D|---------------------------------|---------------------------------|---------------------------------|
A|---------------------------------|---------------------------------|---------------------------------|
E|---------------------------------|---------------------------------|---------------------------------|


E|---------------------------------|---------------------------------|---------------------------------|
B|---------------------------------|---------------------------------|---------------------------------|
G|-5---2---5---2---5---2---5---2---|-5---2---5---2---5---2---5---2---|-5---2---5---2---5---2---5---2---|
D|---------------------------------|---------------------------------|---------------------------------|
A|---------------------------------|---------------------------------|---------------------------------|
E|---------------------------------|---------------------------------|---------------------------------|


E|---------------------------------|--------|--------|--------|--------|--------|--------|
B|---------------------------------|--------|--------|--------|--------|--------|--------|
G|-5---2---5---2---5---2---5---2---|--------|--------|--------|--------|--------|--------|
D|---------------------------------|--------|--------|--------|--------|--------|--------|
A|---------------------------------|--------|--------|--------|--------|--------|--------|
E|---------------------------------|--------|--------|--------|--------|--------|--------|


E|--------|--------|--------|--------|--------|--------|--------|--------|--------|
B|--------|--------|--------|--------|--------|--------|--------|--------|--------|
G|--------|--------|--------|--------|--------|--------|--------|--------|--------|
D|--------|--------|--------|--------|--------|--------|--------|--------|--------|
A|--------|--------|--------|--------|--------|--------|--------|--------|--------|
E|--------|--------|--------|--------|--------|--------|--------|--------|--------|


E|--------|---------------------------------|---------------------------------|---------------------------------|
B|--------|---------------------------------|---------------------------------|---------------------------------|
G|--------|-5---2---5---2---5---2---5---2---|-5---2---5---2---5---2---5---2---|-5---2---5---2---5---2---5---2---|
D|--------|---------------------------------|---------------------------------|---------------------------------|
A|--------|---------------------------------|---------------------------------|---------------------------------|
E|--------|---------------------------------|---------------------------------|---------------------------------|


E|---------------------------------|---------------------------------|---------------------------------|
B|---------------------------------|---------------------------------|---------------------------------|
G|-5---2---5---2---5---2---5---2---|-5---2---5---2---5---2---5---2---|-5---2---5---2---5---2---5---2---|
D|---------------------------------|---------------------------------|---------------------------------|
A|---------------------------------|---------------------------------|---------------------------------|
E|---------------------------------|---------------------------------|---------------------------------|


E|---------------------------------|---------------------------------|---------------------------------|
B|---------------------------------|---------------------------------|---------------------------------|
G|-5---2---5---2---5---2---5---2---|-5---2---5---2---5---2---5---2---|-5---2---5---2---5---2---5---2---|
D|---------------------------------|---------------------------------|---------------------------------|
A|---------------------------------|---------------------------------|---------------------------------|
E|---------------------------------|---------------------------------|---------------------------------|


E|---------------------------------|---------------------------------|---------------------------------|
B|---------------------------------|---------------------------------|---------------------------------|
G|-5---2---5---2---5---2---5---2---|-5---2---5---2---5---2---5---2---|-5---2---5---2---5---2---5---2---|
D|---------------------------------|---------------------------------|---------------------------------|
A|---------------------------------|---------------------------------|---------------------------------|
E|---------------------------------|---------------------------------|---------------------------------|


E|---------------------------------|---------------------------------|---------------------------------|
B|---------------------------------|---------------------------------|---------------------------------|
G|-5---2---5---2---5---2---5---2---|-5---2---5---2---5---2---5---2---|-5---2---5---2---5---2---5---2---|
D|---------------------------------|---------------------------------|---------------------------------|
A|---------------------------------|---------------------------------|---------------------------------|
E|---------------------------------|---------------------------------|---------------------------------|


E|--------|
B|--------|
G|-5------|
D|--------|
A|--------|
E|--------|





Track 3: Drake (keyboard)

E|--------|--------|--------|--------|--------|--------|--------|--------|--------|
B|--------|--------|--------|--------|--------|--------|--------|--------|--------|
G|--------|--------|--------|--------|--------|--------|--------|--------|--------|
D|--------|--------|--------|--------|--------|--------|--------|--------|--------|
A|--------|--------|--------|--------|--------|--------|--------|--------|--------|
E|--------|--------|--------|--------|--------|--------|--------|--------|--------|


E|--------|--------|--------|------------------------|------------------------|------------------------|
B|--------|--------|--------|------------------------|------------------------|------------------------|
G|--------|--------|--------|-----2--------5----2----|-----2--------5----2----|-----2--------5----2----|
D|--------|--------|--------|-3--------3-------------|-2--------2-------------|-0--------0-------------|
A|--------|--------|--------|------------------------|------------------------|------------------------|
E|--------|--------|--------|------------------------|------------------------|------------------------|


E|-----------------------------------|------------------------|------------------------|
B|-----------------------------------|------------------------|------------------------|
G|----2------2------2----5---5---5---|-----2--------5----2----|-----2--------5----2----|
D|-2------2------2-------2---2---2---|-3--------3-------------|-2--------2-------------|
A|-----------------------------------|------------------------|------------------------|
E|-----------------------------------|------------------------|------------------------|


E|------------------------|-----------------------------------|------------------------|
B|------------------------|-----------------------------------|------------------------|
G|-----2--------5----2----|----2------2------2----5---5---5---|-----2--------5----2----|
D|-0--------0-------------|-2------2------2-------2---2---2---|-3--------3-------------|
A|------------------------|-----------------------------------|------------------------|
E|------------------------|-----------------------------------|------------------------|


E|------------------------|------------------------|-----------------------------------|
B|------------------------|------------------------|-----------------------------------|
G|-----2--------5----2----|-----2--------5----2----|----2------2------2----5---5---5---|
D|-2--------2-------------|-0--------0-------------|-2------2------2-------2---2---2---|
A|------------------------|------------------------|-----------------------------------|
E|------------------------|------------------------|-----------------------------------|


E|--------|--------|--------|--------|--------|--------|--------|--------|--------|
B|--------|--------|--------|--------|--------|--------|--------|--------|--------|
G|--------|--------|--------|--------|--------|--------|--------|--------|--------|
D|--------|--------|--------|--------|--------|--------|--------|--------|--------|
A|--------|--------|--------|--------|--------|--------|--------|--------|--------|
E|--------|--------|--------|--------|--------|--------|--------|--------|--------|


E|--------|--------|--------|--------|--------|--------|--------|--------|--------|
B|--------|--------|--------|--------|--------|--------|--------|--------|--------|
G|--------|--------|--------|--------|--------|--------|--------|--------|--------|
D|--------|--------|--------|--------|--------|--------|--------|--------|--------|
A|--------|--------|--------|--------|--------|--------|--------|--------|--------|
E|--------|--------|--------|--------|--------|--------|--------|--------|--------|


E|--------|--------|--------|--------|--------|--------|--------|--------|--------|
B|--------|--------|--------|--------|--------|--------|--------|--------|--------|
G|--------|--------|--------|--------|--------|--------|--------|--------|--------|
D|--------|--------|--------|--------|--------|--------|--------|--------|--------|
A|--------|--------|--------|--------|--------|--------|--------|--------|--------|
E|--------|--------|--------|--------|--------|--------|--------|--------|--------|


E|--------|-----------------|-----------------|-----------------|-------------|-----------------|
B|--------|-----------------|-----------------|-----------------|-------------|-----------------|
G|--------|-5-----5-----5---|-5-----5-----5---|-5-----5-----5---|-5-----5-----|-5-----5-----5---|
D|--------|-3-----3-----3---|-2-----2-----2---|-0-----0-----0---|-2-----2-----|-3-----3-----3---|
A|--------|-----------------|-----------------|-----------------|-------------|-----------------|
E|--------|-----------------|-----------------|-----------------|-------------|-----------------|


E|-----------------|-----------------|-------------|-----------------|-----------------|
B|-----------------|-----------------|-------------|-----------------|-----------------|
G|-5-----5-----5---|-5-----5-----5---|-5-----5-----|-5-----5-----5---|-5-----5-----5---|
D|-2-----2-----2---|-0-----0-----0---|-2-----2-----|-3-----3-----3---|-2-----2-----2---|
A|-----------------|-----------------|-------------|-----------------|-----------------|
E|-----------------|-----------------|-------------|-----------------|-----------------|


E|-----------------|-------------|--------|--------|--------|--------|--------|--------|
B|-----------------|-------------|--------|--------|--------|--------|--------|--------|
G|-5-----5-----5---|-5-----5-----|--------|--------|--------|--------|--------|--------|
D|-0-----0-----0---|-2-----2-----|--------|--------|--------|--------|--------|--------|
A|-----------------|-------------|--------|--------|--------|--------|--------|--------|
E|-----------------|-------------|--------|--------|--------|--------|--------|--------|


E|--------|--------|--------|--------|--------|--------|--------|--------|--------|
B|--------|--------|--------|--------|--------|--------|--------|--------|--------|
G|--------|--------|--------|--------|--------|--------|--------|--------|--------|
D|--------|--------|--------|--------|--------|--------|--------|--------|--------|
A|--------|--------|--------|--------|--------|--------|--------|--------|--------|
E|--------|--------|--------|--------|--------|--------|--------|--------|--------|


E|--------|--------|--------|--------|--------|--------|--------|--------|--------|
B|--------|--------|--------|--------|--------|--------|--------|--------|--------|
G|--------|--------|--------|--------|--------|--------|--------|--------|--------|
D|--------|--------|--------|--------|--------|--------|--------|--------|--------|
A|--------|--------|--------|--------|--------|--------|--------|--------|--------|
E|--------|--------|--------|--------|--------|--------|--------|--------|--------|


E|--------|--------|--------|--------|--------|--------|--------|--------|--------|
B|--------|--------|--------|--------|--------|--------|--------|--------|--------|
G|--------|--------|--------|--------|--------|--------|--------|--------|--------|
D|--------|--------|--------|--------|--------|--------|--------|--------|--------|
A|--------|--------|--------|--------|--------|--------|--------|--------|--------|
E|--------|--------|--------|--------|--------|--------|--------|--------|--------|


E|--------|--------|--------|--------|--------|--------|--------|--------|--------|
B|--------|--------|--------|--------|--------|--------|--------|--------|--------|
G|--------|--------|--------|--------|--------|--------|--------|--------|--------|
D|--------|--------|--------|--------|--------|--------|--------|--------|--------|
A|--------|--------|--------|--------|--------|--------|--------|--------|--------|
E|--------|--------|--------|--------|--------|--------|--------|--------|--------|


E|--------|--------|--------|--------|--------|--------|--------|--------|--------|
B|--------|--------|--------|--------|--------|--------|--------|--------|--------|
G|--------|--------|--------|--------|--------|--------|--------|--------|--------|
D|--------|--------|--------|--------|--------|--------|--------|--------|--------|
A|--------|--------|--------|--------|--------|--------|--------|--------|--------|
E|--------|--------|--------|--------|--------|--------|--------|--------|--------|


E|--------|
B|--------|
G|--------|
D|--------|
A|--------|
E|--------|





Track 4: Untitled

E|--------|--------|--------|--------|--------|--------|--------|--------|--------|
B|--------|--------|--------|--------|--------|--------|--------|--------|--------|
G|--------|--------|--------|--------|--------|--------|--------|--------|--------|
D|--------|--------|--------|--------|--------|--------|--------|--------|--------|
A|--------|--------|--------|--------|--------|--------|--------|--------|--------|
E|--------|--------|--------|--------|--------|--------|--------|--------|--------|


E|--------|--------|--------|--------|--------|--------|--------|--------|--------|
B|--------|--------|--------|--------|--------|--------|--------|--------|--------|
G|--------|--------|--------|--------|--------|--------|--------|--------|--------|
D|--------|--------|--------|--------|--------|--------|--------|--------|--------|
A|--------|--------|--------|--------|--------|--------|--------|--------|--------|
E|--------|--------|--------|--------|--------|--------|--------|--------|--------|


E|--------|--------|--------|--------|--------|--------|--------|--------|--------|
B|--------|--------|--------|--------|--------|--------|--------|--------|--------|
G|--------|--------|--------|--------|--------|--------|--------|--------|--------|
D|--------|--------|--------|--------|--------|--------|--------|--------|--------|
A|--------|--------|--------|--------|--------|--------|--------|--------|--------|
E|--------|--------|--------|--------|--------|--------|--------|--------|--------|


E|--------|--------|--------|--------|--------|--------|--------|--------|--------|
B|--------|--------|--------|--------|--------|--------|--------|--------|--------|
G|--------|--------|--------|--------|--------|--------|--------|--------|--------|
D|--------|--------|--------|--------|--------|--------|--------|--------|--------|
A|--------|--------|--------|--------|--------|--------|--------|--------|--------|
E|--------|--------|--------|--------|--------|--------|--------|--------|--------|


E|--------|--------|--------|--------|--------|--------|--------|--------|--------|
B|--------|--------|--------|--------|--------|--------|--------|--------|--------|
G|--------|--------|--------|--------|--------|--------|--------|--------|-5------|
D|--------|--------|--------|--------|--------|--------|--------|--------|-5------|
A|--------|--------|--------|--------|--------|--------|--------|--------|-3------|
E|--------|--------|--------|--------|--------|--------|--------|--------|--------|


E|--------|--------|--------|--------|--------|--------|--------|--------|--------|
B|--------|--------|--------|--------|--------|--------|--------|--------|--------|
G|-5------|-5------|-5------|-5------|-5------|-5------|-5------|--------|--------|
D|-5------|-5------|-5------|-5------|-5------|-5------|-5------|--------|--------|
A|-3------|-3------|-3------|-3------|-3------|-3------|-3------|--------|--------|
E|--------|--------|--------|--------|--------|--------|--------|--------|--------|


E|--------|--------|--------|--------|--------|--------|--------|--------|--------|
B|--------|--------|--------|--------|--------|--------|--------|--------|--------|
G|--------|--------|--------|--------|--------|--------|--------|--------|--------|
D|--------|--------|--------|--------|--------|--------|--------|--------|--------|
A|--------|--------|--------|--------|--------|--------|--------|--------|--------|
E|--------|--------|--------|--------|--------|--------|--------|--------|--------|


E|--------|--------|--------|--------|--------|--------|--------|--------|--------|
B|--------|--------|--------|--------|--------|--------|--------|--------|--------|
G|--------|--------|--------|--------|--------|--------|--------|--------|--------|
D|--------|--------|--------|--------|--------|--------|--------|--------|--------|
A|--------|--------|--------|--------|--------|--------|--------|--------|--------|
E|--------|--------|--------|--------|--------|--------|--------|--------|--------|


E|--------|--------|--------|--------|--------|--------|--------|--------|--------|
B|--------|--------|--------|--------|--------|--------|--------|--------|--------|
G|--------|--------|--------|--------|--------|--------|--------|--------|--------|
D|--------|--------|--------|--------|--------|--------|--------|--------|--------|
A|--------|--------|--------|--------|--------|--------|--------|--------|--------|
E|--------|--------|--------|--------|--------|--------|--------|--------|--------|


E|--------|--------|--------|--------|--------|--------|--------|--------|--------|
B|--------|--------|--------|--------|--------|--------|--------|--------|--------|
G|--------|--------|--------|--------|--------|--------|--------|--------|--------|
D|--------|--------|--------|--------|--------|--------|--------|--------|--------|
A|--------|--------|--------|--------|--------|--------|--------|--------|--------|
E|--------|--------|--------|--------|--------|--------|--------|--------|--------|


E|--------|--------|--------|--------|--------|--------|--------|--------|--------|
B|--------|--------|--------|--------|--------|--------|--------|--------|--------|
G|--------|--------|--------|--------|--------|--------|--------|--------|--------|
D|--------|--------|--------|--------|--------|--------|--------|--------|--------|
A|--------|--------|--------|--------|--------|--------|--------|--------|--------|
E|--------|--------|--------|--------|--------|--------|--------|--------|--------|


E|--------|--------|--------|--------|--------|--------|--------|--------|--------|
B|--------|--------|--------|--------|--------|--------|--------|--------|--------|
G|--------|--------|--------|--------|--------|--------|--------|--------|--------|
D|--------|--------|--------|--------|--------|--------|--------|--------|--------|
A|--------|--------|--------|--------|--------|--------|--------|--------|--------|
E|--------|--------|--------|--------|--------|--------|--------|--------|--------|


E|--------|--------|--------|--------|--------|--------|--------|--------|
B|--------|--------|--------|--------|--------|--------|--------|--------|
G|--------|--------|--------|--------|--------|--------|--------|--------|
D|--------|--------|--------|--------|--------|--------|--------|--------|
A|--------|--------|--------|--------|--------|--------|--------|--------|
E|--------|--------|--------|--------|--------|--------|--------|--------|





Track 5: Untitled

G|---------------------------------|---------------------------------|---------------------------------|
D|-3---3---3---3---3---3---3---3---|-2---2---2---2---2---2---2---2---|-0---0---0---0---0---0---0---0---|
A|---------------------------------|---------------------------------|---------------------------------|
E|---------------------------------|---------------------------------|---------------------------------|


G|---------------------------------|---------------------------------|---------------------------------|
D|-2---2---2---2---2---2---2---2---|-3---3---3---3---3---3---3---3---|-2---2---2---2---2---2---2---2---|
A|---------------------------------|---------------------------------|---------------------------------|
E|---------------------------------|---------------------------------|---------------------------------|


G|---------------------------------|---------------------------------|---------------------------------|
D|-0---0---0---0---0---0---0---0---|-2---2---2---2---2---2---2---2---|-3---3---3---3---3---3---3---3---|
A|---------------------------------|---------------------------------|---------------------------------|
E|---------------------------------|---------------------------------|---------------------------------|


G|---------------------------------|---------------------------------|---------------------------------|
D|-2---2---2---2---2---2---2---2---|-0---0---0---0---0---0---0---0---|-2---2---2---2---2---2---2---2---|
A|---------------------------------|---------------------------------|---------------------------------|
E|---------------------------------|---------------------------------|---------------------------------|


G|---------------------------------|---------------------------------|---------------------------------|
D|-3---3---3---3---3---3---3---3---|-2---2---2---2---2---2---2---2---|-0---0---0---0---0---0---0---0---|
A|---------------------------------|---------------------------------|---------------------------------|
E|---------------------------------|---------------------------------|---------------------------------|


G|---------------------------------|---------------------------------|---------------------------------|
D|-2---2---2---2---2---2---2---2---|-3---3---3---3---3---3---3---3---|-2---2---2---2---2---2---2---2---|
A|---------------------------------|---------------------------------|---------------------------------|
E|---------------------------------|---------------------------------|---------------------------------|


G|---------------------------------|---------------------------------|---------------------------------|
D|-0---0---0---0---0---0---0---0---|-2---2---2---2---2---2---2---2---|-3---3---3---3---3---3---3---3---|
A|---------------------------------|---------------------------------|---------------------------------|
E|---------------------------------|---------------------------------|---------------------------------|


G|---------------------------------|---------------------------------|---------------------------------|
D|-2---2---2---2---2---2---2---2---|-0---0---0---0---0---0---0---0---|-2---2---2---2---2---2---2---2---|
A|---------------------------------|---------------------------------|---------------------------------|
E|---------------------------------|---------------------------------|---------------------------------|


G|---------------------------------|---------------------------------|---------------------------------|
D|-3---3---3---3---3---3---3---3---|-2---2---2---2---2---2---2---2---|-0---0---0---0---0---0---0---0---|
A|---------------------------------|---------------------------------|---------------------------------|
E|---------------------------------|---------------------------------|---------------------------------|


G|---------------------------------|---------------------|---------------------|---------------------|
D|-2---2---2---2---2---2---2---2---|-3-----3---3-----3---|-2-----2---2-----2---|-0-----0---0-----0---|
A|---------------------------------|---------------------|---------------------|---------------------|
E|---------------------------------|---------------------|---------------------|---------------------|


G|---------------------|---------------------|---------------------|---------------------|
D|-2-----2---2-----2---|-3-----3---3-----3---|-2-----2---2-----2---|-0-----0---0-----0---|
A|---------------------|---------------------|---------------------|---------------------|
E|---------------------|---------------------|---------------------|---------------------|


G|---------------------|---------------------|---------------------|---------------------|
D|-2-----2---2-----2---|-3-----3---3-----3---|-2-----2---2-----2---|-0-----0---0-----0---|
A|---------------------|---------------------|---------------------|---------------------|
E|---------------------|---------------------|---------------------|---------------------|


G|---------------------|---------------------|---------------------|---------------------|
D|-2-----2---2-----2---|-3-----3---3-----3---|-2-----2---2-----2---|-0-----0---0-----0---|
A|---------------------|---------------------|---------------------|---------------------|
E|---------------------|---------------------|---------------------|---------------------|


G|---------------------|--------|--------|--------|--------|---------------------------------|
D|-2-----2---2-----2---|--------|--------|--------|--------|-3---3---3---3---3---3---3---3---|
A|---------------------|--------|--------|--------|--------|---------------------------------|
E|---------------------|--------|--------|--------|--------|---------------------------------|


G|---------------------------------|---------------------------------|---------------------------------|
D|-2---2---2---2---2---2---2---2---|-0---0---0---0---0---0---0---0---|-2---2---2---2---2---2---2---2---|
A|---------------------------------|---------------------------------|---------------------------------|
E|---------------------------------|---------------------------------|---------------------------------|


G|---------------------------------|---------------------------------|---------------------------------|
D|-3---3---3---3---3---3---3---3---|-2---2---2---2---2---2---2---2---|-0---0---0---0---0---0---0---0---|
A|---------------------------------|---------------------------------|---------------------------------|
E|---------------------------------|---------------------------------|---------------------------------|


G|---------------------------------|---------------------------------|---------------------------------|
D|-2---2---2---2---2---2---2---2---|-3---3---3---3---3---3---3---3---|-2---2---2---2---2---2---2---2---|
A|---------------------------------|---------------------------------|---------------------------------|
E|---------------------------------|---------------------------------|---------------------------------|


G|---------------------------------|---------------------------------|---------------------------------|
D|-0---0---0---0---0---0---0---0---|-2---2---2---2---2---2---2---2---|-3---3---3---3---3---3---3---3---|
A|---------------------------------|---------------------------------|---------------------------------|
E|---------------------------------|---------------------------------|---------------------------------|


G|---------------------------------|---------------------------------|---------------------------------|
D|-2---2---2---2---2---2---2---2---|-0---0---0---0---0---0---0---0---|-2---2---2---2---2---2---2---2---|
A|---------------------------------|---------------------------------|---------------------------------|
E|---------------------------------|---------------------------------|---------------------------------|


G|---------------------------------|---------------------------------|---------------------------------|
D|-3---3---3---3---3---3---3---3---|-2---2---2---2---2---2---2---2---|-0---0---0---0---0---0---0---0---|
A|---------------------------------|---------------------------------|---------------------------------|
E|---------------------------------|---------------------------------|---------------------------------|


G|---------------------------------|---------------------|---------------------|---------------------|
D|-2---2---2---2---2---2---2---2---|-3-----3---3-----3---|-2-----2---2-----2---|-0-----0---0-----0---|
A|---------------------------------|---------------------|---------------------|---------------------|
E|---------------------------------|---------------------|---------------------|---------------------|


G|---------------------|---------------------|---------------------|---------------------|
D|-2-----2---2-----2---|-3-----3---3-----3---|-2-----2---2-----2---|-0-----0---0-----0---|
A|---------------------|---------------------|---------------------|---------------------|
E|---------------------|---------------------|---------------------|---------------------|


G|---------------------|---------------------|---------------------|---------------------|
D|-2-----2---2-----2---|-3-----3---3-----3---|-2-----2---2-----2---|-0-----0---0-----0---|
A|---------------------|---------------------|---------------------|---------------------|
E|---------------------|---------------------|---------------------|---------------------|


G|---------------------|---------------------|---------------------|---------------------|
D|-2-----2---2-----2---|-3-----3---3-----3---|-2-----2---2-----2---|-0-----0---0-----0---|
A|---------------------|---------------------|---------------------|---------------------|
E|---------------------|---------------------|---------------------|---------------------|


G|---------------------|---------------------------------|---------------------------------|
D|-2-----2---2-----2---|-3---3---3---3---3---3---3---3---|-2---2---2---2---2---2---2---2---|
A|---------------------|---------------------------------|---------------------------------|
E|---------------------|---------------------------------|---------------------------------|


G|---------------------------------|---------------------------------|---------------------------------|
D|-0---0---0---0---0---0---0---0---|-2---2---2---2---2---2---2---2---|-3---3---3---3---3---3---3---3---|
A|---------------------------------|---------------------------------|---------------------------------|
E|---------------------------------|---------------------------------|---------------------------------|


G|---------------------------------|---------------------------------|---------------------------------|
D|-2---2---2---2---2---2---2---2---|-0---0---0---0---0---0---0---0---|-2---2---2---2---2---2---2---2---|
A|---------------------------------|---------------------------------|---------------------------------|
E|---------------------------------|---------------------------------|---------------------------------|


G|---------------------------------|---------------------------------|---------------------------------|
D|-3---3---3---3---3---3---3---3---|-2---2---2---2---2---2---2---2---|-0---0---0---0---0---0---0---0---|
A|---------------------------------|---------------------------------|---------------------------------|
E|---------------------------------|---------------------------------|---------------------------------|


G|---------------------------------|---------------------------------|---------------------------------|
D|-2---2---2---2---2---2---2---2---|-3---3---3---3---3---3---3---3---|-2---2---2---2---2---2---2---2---|
A|---------------------------------|---------------------------------|---------------------------------|
E|---------------------------------|---------------------------------|---------------------------------|


G|---------------------------------|---------------------------------|---------------------|
D|-0---0---0---0---0---0---0---0---|-2---2---2---2---2---2---2---2---|-3-----3---3-----3---|
A|---------------------------------|---------------------------------|---------------------|
E|---------------------------------|---------------------------------|---------------------|


G|---------------------|---------------------|---------------------|---------------------|
D|-2-----2---2-----2---|-0-----0---0-----0---|-2-----2---2-----2---|-3-----3---3-----3---|
A|---------------------|---------------------|---------------------|---------------------|
E|---------------------|---------------------|---------------------|---------------------|


G|---------------------|---------------------|---------------------|---------------------|
D|-2-----2---2-----2---|-0-----0---0-----0---|-2-----2---2-----2---|-3-----3---3-----3---|
A|---------------------|---------------------|---------------------|---------------------|
E|---------------------|---------------------|---------------------|---------------------|


G|---------------------|---------------------|---------------------|---------------------|
D|-2-----2---2-----2---|-0-----0---0-----0---|-2-----2---2-----2---|-3-----3---3-----3---|
A|---------------------|---------------------|---------------------|---------------------|
E|---------------------|---------------------|---------------------|---------------------|


G|---------------------|---------------------|--------|
D|-2-----2---2-----2---|-0-----0---0-----0---|-2------|
A|---------------------|---------------------|--------|
E|---------------------|---------------------|--------|