Site menu:

    

Browse: 0-9 A B C D E F G H I J K L N O P Q R S T U V W X Y Z

powerman 5000 - when worlds collide:



Title: When Worlds Collide
Artist: 
Album: Tonight The Stars Revolt!
Author: Powerman 5000


Track 1: Untitled

D#|--------|--------|--------|--------|--------|--------|--------|-------------|---------------------------------|
A#|--------|--------|--------|--------|--------|--------|--------|-------------|---------------------------------|
F#|--------|--------|--------|--------|--------|--------|--------|-------------|---------------------------------|
C#|--------|--------|--------|--------|--------|--------|--------|-------------|---------------------------------|
G#|--------|--------|--------|--------|--------|--------|--------|-------------|-----4---4---4---4---------------|
D#|--------|--------|--------|--------|--------|--------|--------|-------------|---------------------3-------3---|


D#|---------------------------------|---------------------------------|---------------------------------|
A#|---------------------------------|---------------------------------|---------------------------------|
F#|---------------------------------|---------------------------------|---------------------------------|
C#|---------------------------------|---------------------------------|---------------------------------|
G#|---------------------------------|-----4---4---4---4---------------|---------------------------------|
D#|-----3-------3---1---3-------3---|---------------------3-------3---|-----3-------3---1---3-------3---|


D#|---------------------------------|---------------------------------|------------------------------|
A#|---------------------------------|---------------------------------|------------------------------|
F#|---------------------------------|---------------------------------|------------------------------|
C#|---------------------------------|---------------------------------|------------------------------|
G#|-----4---4---4---4---------------|---------------------------------|-----4---4---4---4------------|
D#|---------------------3-------3---|-----3-------3---1---3-------3---|---------------------3--------|


D#|--------|---------------------------------|---------------------------------|---------------------------------|
A#|--------|---------------------------------|---------------------------------|---------------------------------|
F#|--------|---------------------------------|---------------------------------|---------------------------------|
C#|--------|---------------------------------|---------------------------------|---------------------------------|
G#|--------|-----4---4---4---4---------------|---------------------------------|-----4---4---4---4---------------|
D#|--------|---------------------3-------3---|-----3-------3---1---3-------3---|---------------------3-------3---|


D#|---------------------------------|---------------------------------|---------------------------------|
A#|---------------------------------|---------------------------------|---------------------------------|
F#|---------------------------------|---------------------------------|---------------------------------|
C#|---------------------------------|---------------------------------|---------------------------------|
G#|---------------------------------|-----4---4---4---4---------------|---------------------------------|
D#|-----3-------3---1---3-------3---|---------------------3-------3---|-----3-------3---1---3-------3---|


D#|---------------------------------|------------------------------|---------------------------------|
A#|---------------------------------|------------------------------|---------------------------------|
F#|---------------------------------|-------------------------3----|---------------------------------|
C#|---------------------------------|-------------5---3---5--------|-----5-------5---3---5---3---5---|
G#|-----4---4---4---4---------------|------------------------------|-----5-------5---3---5---3---5---|
D#|---------------------3-------3---|-----3------------------------|-----3-------3---1---3---1---3---|


D#|---------------------------------|---------------------------------|------------------------------|
A#|---------------------------------|---------------------------------|------------------------------|
F#|---------------------------------|---------------------------------|-------------------------3----|
C#|-----5-------5---3---5---3---5---|-----5-------5---3---5---3---5---|-----5-------5---3---5--------|
G#|-----5-------5---3---5---3---5---|-----5-------5---3---5---3---5---|-----5------------------------|
D#|-----3-------3---1---3---1---3---|-----3-------3---1---3---1---3---|-----3------------------------|


D#|---------------------------------|---------------------------------|---------------------------------|
A#|---------------------------------|---------------------------------|---------------------------------|
F#|---------------------------------|---------------------------------|---------------------------------|
C#|-----5-------5---3---5---3---5---|-----5-------5---3---5---3---5---|-----5-------5---3---5---3---5---|
G#|-----5-------5---3---5---3---5---|-----5-------5---3---5---3---5---|-----5-------5---3---5---3---5---|
D#|-----3-------3---1---3---1---3---|-----3-------3---1---3---1---3---|-----3-------3---1---3---1---3---|


D#|------------------------------|--------|--------|--------|--------|--------|--------|
A#|------------------------------|--------|--------|--------|--------|--------|--------|
F#|-------------------------3----|--------|--------|--------|--------|--------|--------|
C#|-----5-------5---3---5--------|--------|--------|--------|--------|--------|--------|
G#|-----5------------------------|--------|--------|--------|--------|--------|--------|
D#|-----3------------------------|--------|--------|--------|--------|--------|--------|


D#|--------|--------|--------|--------|--------|--------|--------|--------|--------|
A#|--------|--------|--------|--------|--------|--------|--------|--------|--------|
F#|--------|--------|--------|--------|--------|--------|--------|--------|--------|
C#|--------|--------|--------|--------|--------|--------|--------|--------|--------|
G#|--------|--------|--------|--------|--------|--------|--------|--------|--------|
D#|--------|--------|--------|--------|--------|--------|--------|--------|--------|


D#|------------------------|---------------------------------|---------------------------------|
A#|------------------------|---------------------------------|---------------------------------|
F#|-------------------3----|---------------------------------|---------------------------------|
C#|-------5---3---5--------|-----5-------5---3---5---3---5---|-----5-------5---3---5---3---5---|
G#|------------------------|-----5-------5---3---5---3---5---|-----5-------5---3---5---3---5---|
D#|------------------------|-----3-------3---1---3---1---3---|-----3-------3---1---3---1---3---|


D#|---------------------------------|------------------------------|---------------------------------|
A#|---------------------------------|------------------------------|---------------------------------|
F#|---------------------------------|-------------------------3----|---------------------------------|
C#|-----5-------5---3---5---3---5---|-----5-------5---3---5--------|-----5-------5---3---5---3---5---|
G#|-----5-------5---3---5---3---5---|-----5------------------------|-----5-------5---3---5---3---5---|
D#|-----3-------3---1---3---1---3---|-----3------------------------|-----3-------3---1---3---1---3---|


D#|---------------------------------|---------------------------------|------------------------------|
A#|---------------------------------|---------------------------------|------------------------------|
F#|---------------------------------|---------------------------------|-------------------------3----|
C#|-----5-------5---3---5---3---5---|-----5-------5---3---5---3---5---|-----5-------5---3---5--------|
G#|-----5-------5---3---5---3---5---|-----5-------5---3---5---3---5---|-----5------------------------|
D#|-----3-------3---1---3---1---3---|-----3-------3---1---3---1---3---|-----3------------------------|


D#|--------------------|--------------------|--------------------|--------------------|
A#|--------------------|--------------------|--------------------|--------------------|
F#|--------------------|--------------------|--------------------|--------------------|
C#|--------------------|--------------------|--------------------|--------------------|
G#|-7--7--7--7---------|-5--5--5--5---------|-7--7--7--7---------|-5--5--5--5---------|
D#|--------------------|--------------------|--------------------|--------------------|


D#|--------------------|--------------------|--------------------|--------------------|
A#|--------------------|--------------------|--------------------|--------------------|
F#|--------------------|--------------------|--------------------|--------------------|
C#|--------------------|--------------------|--------------------|--------------------|
G#|-7--7--7--7---------|-5--5--5--5---------|-4--4--4--4---------|-3--3--3--3---------|
D#|--------------------|--------------------|--------------------|--------------------|


D#|---------------------------------|---------------------------------|---------------------------------|
A#|---------------------------------|---------------------------------|---------------------------------|
F#|---------------------------------|---------------------------------|---------------------------------|
C#|---------------------------------|---------------------------------|---------------------------------|
G#|---------------------------------|---------------------------------|---------------------------------|
D#|-----3---1---3---1---3-------3---|-----3-------3-------3-------3---|-----3---1---3---1---3-------3---|


D#|---------------------------------|---------------------------------|---------------------------------|
A#|---------------------------------|---------------------------------|---------------------------------|
F#|---------------------------------|---------------------------------|---------------------------------|
C#|---------------------------------|---------------------------------|---------------------------------|
G#|---------------------------------|---------------------------------|---------------------------------|
D#|-----3-------3-------3-------3---|-----3---1---3---1---3-------3---|-----3-------3-------3-------3---|


D#|---------------------------------|---------------------------------|---------------------------------|
A#|---------------------------------|---------------------------------|---------------------------------|
F#|---------------------------------|---------------------------------|---------------------------------|
C#|---------------------------------|---------------------------------|---------------------------------|
G#|---------------------------------|---------------------------------|-----4---4---4---4---------------|
D#|-----3---1---3---1---3-------3---|-----3-------3-------3-------3---|---------------------3-------3---|


D#|---------------------------------|---------------------------------|---------------------------------|
A#|---------------------------------|---------------------------------|---------------------------------|
F#|---------------------------------|---------------------------------|---------------------------------|
C#|---------------------------------|---------------------------------|---------------------------------|
G#|---------------------------------|-----4---4---4---4---------------|---------------------------------|
D#|-----3-------3---1---3-------3---|---------------------3-------3---|-----3-------3---1---3-------3---|


D#|---------------------------------|---------------------------------|---------------------------------|
A#|---------------------------------|---------------------------------|---------------------------------|
F#|---------------------------------|---------------------------------|---------------------------------|
C#|---------------------------------|---------------------------------|---------------------------------|
G#|-----4---4---4---4---------------|---------------------------------|-----4---4---4---4---------------|
D#|---------------------3-------3---|-----3-------3---1---3-------3---|---------------------3-------3---|


D#|------------------------------|---------------------------------|---------------------------------|
A#|------------------------------|---------------------------------|---------------------------------|
F#|-------------------------3----|---------------------------------|---------------------------------|
C#|-------------5---3---5--------|-----5-------5---3---5---3---5---|-----5-------5---3---5---3---5---|
G#|------------------------------|-----5-------5---3---5---3---5---|-----5-------5---3---5---3---5---|
D#|-----3------------------------|-----3-------3---1---3---1---3---|-----3-------3---1---3---1---3---|


D#|---------------------------------|------------------------------|---------------------------------|
A#|---------------------------------|------------------------------|---------------------------------|
F#|---------------------------------|-------------------------3----|---------------------------------|
C#|-----5-------5---3---5---3---5---|-----5-------5---3---5--------|-----5-------5---3---5---3---5---|
G#|-----5-------5---3---5---3---5---|-----5------------------------|-----5-------5---3---5---3---5---|
D#|-----3-------3---1---3---1---3---|-----3------------------------|-----3-------3---1---3---1---3---|


D#|---------------------------------|---------------------------------|------------------------------|
A#|---------------------------------|---------------------------------|------------------------------|
F#|---------------------------------|---------------------------------|-------------------------3----|
C#|-----5-------5---3---5---3---5---|-----5-------5---3---5---3---5---|-----5-------5---3---5--------|
G#|-----5-------5---3---5---3---5---|-----5-------5---3---5---3---5---|-----5------------------------|
D#|-----3-------3---1---3---1---3---|-----3-------3---1---3---1---3---|-----3------------------------|


D#|---------------------------------|---------------------------------|---------------------------------|
A#|---------------------------------|---------------------------------|---------------------------------|
F#|---------------------------------|---------------------------------|---------------------------------|
C#|-----5-------5---3---5---3---5---|-----5-------5---3---5---3---5---|-----5-------5---3---5---3---5---|
G#|-----5-------5---3---5---3---5---|-----5-------5---3---5---3---5---|-----5-------5---3---5---3---5---|
D#|-----3-------3---1---3---1---3---|-----3-------3---1---3---1---3---|-----3-------3---1---3---1---3---|


D#|------------------------------|---------------------------------|---------------------------------|
A#|------------------------------|---------------------------------|---------------------------------|
F#|-------------------------3----|---------------------------------|---------------------------------|
C#|-----5-------5---3---5--------|-----5-------5---3---5---3---5---|-----5-------5---3---5---3---5---|
G#|-----5------------------------|-----5-------5---3---5---3---5---|-----5-------5---3---5---3---5---|
D#|-----3------------------------|-----3-------3---1---3---1---3---|-----3-------3---1---3---1---3---|


D#|---------------------------------|------------------------------|---------------------------------|
A#|---------------------------------|------------------------------|---------------------------------|
F#|---------------------------------|-------------------------3----|---------------------------------|
C#|-----5-------5---3---5---3---5---|-----5-------5---3---5--------|-6---6---6---6---6---6---6---6---|
G#|-----5-------5---3---5---3---5---|-----5------------------------|-4---4---4---4---4---4---4---4---|
D#|-----3-------3---1---3---1---3---|-----3------------------------|---------------------------------|


D#|---------------------------------|---------------------------------|------------------------------|
A#|---------------------------------|---------------------------------|------------------------------|
F#|---------------------------------|---------------------------------|-------------------------3----|
C#|-5---5---5---5---5---5---5---5---|-----5-------5---3---5---3---5---|-----5-------5---3---5--------|
G#|-3---3---3---3---3---3---3---3---|-----5-------5---3---5---3---5---|-----5------------------------|
D#|---------------------------------|-----3-------3---1---3---1---3---|-----3------------------------|


D#|---------------------------------|---------------------------------|---------------------------------|
A#|---------------------------------|---------------------------------|---------------------------------|
F#|---------------------------------|---------------------------------|---------------------------------|
C#|-6---6---6---6---6---6---6---6---|-5---5---5---5---5---5---5---5---|-----5-------5---3---5---3---5---|
G#|-4---4---4---4---4---4---4---4---|-3---3---3---3---3---3---3---3---|-----5-------5---3---5---3---5---|
D#|---------------------------------|---------------------------------|-----3-------3---1---3---1---3---|


D#|------------------------------|-------------|--------|--------|--------|
A#|------------------------------|-------------|--------|--------|--------|
F#|-------------------------3----|-3-----------|--------|--------|--------|
C#|-----5-------5---3---5--------|-------------|--------|--------|--------|
G#|-----5------------------------|-------------|--------|--------|--------|
D#|-----3------------------------|-------------|--------|--------|--------|





Track 2: Untitled

D#|--------|--------|--------|--------|--------|--------|--------|-------------|--------|
A#|--------|--------|--------|--------|--------|--------|--------|-------------|--------|
F#|--------|--------|--------|--------|--------|--------|--------|-------------|--------|
C#|--------|--------|--------|--------|--------|--------|--------|-------12----|--------|
G#|--------|--------|--------|--------|--------|--------|--------|-------12----|--------|
D#|--------|--------|--------|--------|--------|--------|--------|-------------|--------|


D#|--------|--------|--------|--------|--------|--------|--------|--------|--------|
A#|--------|--------|--------|--------|--------|--------|--------|--------|--------|
F#|--------|--------|--------|--------|--------|--------|--------|--------|--------|
C#|--------|--------|--------|--------|--------|--------|--------|--------|--------|
G#|--------|--------|--------|--------|--------|--------|--------|--------|--------|
D#|--------|--------|--------|--------|--------|--------|--------|--------|--------|


D#|--------|--------|--------|--------|--------|--------|--------|--------|--------|
A#|--------|--------|--------|--------|--------|--------|--------|--------|--------|
F#|--------|--------|--------|--------|--------|--------|--------|--------|--------|
C#|--------|--------|--------|--------|--------|--------|--------|--------|--------|
G#|--------|--------|--------|--------|--------|--------|--------|--------|--------|
D#|--------|--------|--------|--------|--------|--------|--------|--------|--------|


D#|--------|--------|--------|--------|--------|--------|--------|--------|--------|
A#|--------|--------|--------|--------|--------|--------|--------|--------|--------|
F#|--------|--------|--------|--------|--------|--------|--------|--------|--------|
C#|--------|--------|--------|--------|--------|--------|--------|--------|--------|
G#|--------|--------|--------|--------|--------|--------|--------|--------|--------|
D#|--------|--------|--------|--------|--------|--------|--------|--------|--------|


D#|--------|--------|--------|--------|--------|--------|--------|--------|--------|
A#|--------|--------|--------|--------|--------|--------|--------|--------|--------|
F#|--------|--------|--------|--------|--------|--------|--------|--------|--------|
C#|--------|--------|--------|--------|--------|--------|--------|--------|--------|
G#|--------|--------|--------|--------|--------|--------|--------|--------|--------|
D#|--------|--------|--------|--------|--------|--------|--------|--------|--------|


D#|--------|--------|--------|--------|--------|--------|--------|--------|--------|
A#|--------|--------|--------|--------|--------|--------|--------|--------|--------|
F#|--------|--------|--------|--------|--------|--------|--------|--------|--------|
C#|--------|--------|--------|--------|--------|--------|--------|--------|--------|
G#|--------|--------|--------|--------|--------|--------|--------|--------|--------|
D#|--------|--------|--------|--------|--------|--------|--------|--------|--------|


D#|--------|--------|--------|--------|--------|--------|--------|--------|--------|
A#|--------|--------|--------|--------|--------|--------|--------|--------|--------|
F#|--------|--------|--------|--------|--------|--------|--------|--------|--------|
C#|--------|--------|--------|--------|--------|--------|--------|--------|--------|
G#|--------|--------|--------|--------|--------|--------|--------|--------|--------|
D#|--------|--------|--------|--------|--------|--------|--------|--------|--------|


D#|--------|--------|--------|--------|--------|--------|--------|--------|--------|
A#|--------|--------|--------|--------|--------|--------|--------|--------|--------|
F#|--------|--------|--------|--------|--------|--------|--------|--------|--------|
C#|--------|--------|--------|--------|--------|--------|--------|--------|--------|
G#|--------|--------|--------|--------|--------|--------|--------|--------|--------|
D#|--------|--------|--------|--------|--------|--------|--------|--------|--------|


D#|--------|--------|--------|--------|--------|--------|--------|--------|--------|
A#|--------|--------|--------|--------|--------|--------|--------|--------|--------|
F#|--------|--------|--------|--------|--------|--------|--------|--------|--------|
C#|--------|--------|--------|--------|--------|--------|--------|--------|--------|
G#|--------|--------|--------|--------|--------|--------|--------|--------|--------|
D#|--------|--------|--------|--------|--------|--------|--------|--------|--------|


D#|--------|--------|--------|--------|--------|--------|--------|--------|--------|
A#|--------|--------|--------|--------|--------|--------|--------|--------|--------|
F#|--------|--------|--------|--------|--------|--------|--------|--------|--------|
C#|--------|--------|--------|--------|--------|--------|--------|--------|--------|
G#|--------|--------|--------|--------|--------|--------|--------|--------|--------|
D#|--------|--------|--------|--------|--------|--------|--------|--------|--------|


D#|--------|--------|--------|--------|--------|--------|--------|--------|--------|
A#|--------|--------|--------|--------|--------|--------|--------|--------|--------|
F#|--------|--------|--------|--------|--------|--------|--------|--------|--------|
C#|--------|--------|--------|--------|--------|--------|--------|--------|--------|
G#|--------|--------|--------|--------|--------|--------|--------|--------|--------|
D#|--------|--------|--------|--------|--------|--------|--------|--------|--------|


D#|--------|--------|--------|--------|--------|--------|--------|--------|--------|
A#|--------|--------|--------|--------|--------|--------|--------|--------|--------|
F#|--------|--------|--------|--------|--------|--------|--------|--------|--------|
C#|--------|--------|--------|--------|--------|--------|--------|--------|--------|
G#|--------|--------|--------|--------|--------|--------|--------|--------|--------|
D#|--------|--------|--------|--------|--------|--------|--------|--------|--------|





Track 3: Untitled

D#|--------|--------|--------|--------|--------|--------|--------|--------|--------|
A#|--------|--------|--------|--------|--------|--------|--------|--------|--------|
F#|--------|--------|--------|--------|--------|--------|--------|--------|--------|
C#|--------|--------|--------|--------|--------|--------|--------|--------|--------|
G#|--------|--------|--------|--------|--------|--------|--------|--------|--------|
D#|--------|--------|--------|--------|--------|--------|--------|--------|--------|


D#|--------|--------|--------|--------|--------|--------|--------|------------------------------|
A#|--------|--------|--------|--------|--------|--------|--------|------------------------------|
F#|--------|--------|--------|--------|--------|--------|--------|-----6---6---6---6------------|
C#|--------|--------|--------|--------|--------|--------|--------|-----5---5---5---5------------|
G#|--------|--------|--------|--------|--------|--------|--------|-----4---4---4---4------------|
D#|--------|--------|--------|--------|--------|--------|--------|---------------------3--------|


D#|--------|------------------------------|--------|------------------------------|
A#|--------|------------------------------|--------|------------------------------|
F#|--------|-----6---6---6---6------------|--------|-----6---6---6---6------------|
C#|--------|-----5---5---5---5------------|--------|-----5---5---5---5------------|
G#|--------|-----4---4---4---4------------|--------|-----4---4---4---4------------|
D#|--------|---------------------3--------|--------|---------------------3--------|


D#|--------|------------------------------|-----------------|--------|--------|--------|
A#|--------|------------------------------|-----------------|--------|--------|--------|
F#|--------|-----6---6---6---6------------|-----------------|--------|--------|--------|
C#|--------|-----5---5---5---5------------|-----------------|--------|--------|--------|
G#|--------|-----4---4---4---4------------|-----------------|--------|--------|--------|
D#|--------|---------------------3--------|-----------------|--------|--------|--------|


D#|--------|--------|--------|--------|--------|------------------------------|--------|
A#|--------|--------|--------|--------|--------|------------------------------|--------|
F#|--------|--------|--------|--------|--------|-----6---6---6---6------------|--------|
C#|--------|--------|--------|--------|--------|-----5---5---5---5------------|--------|
G#|--------|--------|--------|--------|--------|-----4---4---4---4------------|--------|
D#|--------|--------|--------|--------|--------|---------------------3--------|--------|


D#|------------------------------|--------|---------------------------------|-----------------|
A#|------------------------------|--------|---------------------------------|-----------------|
F#|-----6---6---6---6------------|--------|-----6---6---6---6---------------|-----------------|
C#|-----5---5---5---5------------|--------|-----5---5---5---5---------------|-----------------|
G#|-----4---4---4---4------------|--------|-----4---4---4---4---------------|-----------------|
D#|---------------------3--------|--------|---------------------3---3---3---|-3----3----3-----|


D#|------------------------------|--------|------------------------------|--------|
A#|------------------------------|--------|------------------------------|--------|
F#|-----6---6---6---6------------|--------|-----6---6---6---6------------|--------|
C#|-----5---5---5---5------------|--------|-----5---5---5---5------------|--------|
G#|-----4---4---4---4------------|--------|-----4---4---4---4------------|--------|
D#|---------------------3--------|--------|---------------------3--------|--------|


D#|------------------------------|--------|---------------------------------|-----------------|
A#|------------------------------|--------|---------------------------------|-----------------|
F#|-----6---6---6---6------------|--------|-----6---6---6---6---------------|-----------------|
C#|-----5---5---5---5------------|--------|-----5---5---5---5---------------|-----------------|
G#|-----4---4---4---4------------|--------|-----4---4---4---4---------------|-----------------|
D#|---------------------3--------|--------|---------------------3---3---3---|-3----3----3-----|


D#|------------------------------|---------------------------|---------------------------------|
A#|------------------------------|---------------------------|---------------------------------|
F#|-----6---6---6---6------------|---------------------------|---------------------------------|
C#|-----5---5---5---5------------|-------5---3---5---3---5---|-----5-------5---3---5---3---5---|
G#|-----4---4---4---4------------|-------5---3---5---3---5---|-----5-------5---3---5---3---5---|
D#|---------------------3--------|-------3---1---3---1---3---|-----3-------3---1---3---1---3---|


D#|---------------------------------|---------------------------------|------------------------------|
A#|---------------------------------|---------------------------------|------------------------------|
F#|---------------------------------|---------------------------------|------------------------------|
C#|-----5-------5---3---5---3---5---|-----5-------5---3---5---3---5---|-----5-------5---3---5---8----|
G#|-----5-------5---3---5---3---5---|-----5-------5---3---5---3---5---|-----5-------5---3---5---8----|
D#|-----3-------3---1---3---1---3---|-----3-------3---1---3---1---3---|-----3-------3---1---3---6----|


D#|---------------------------------|---------------------------------|---------------------------------|
A#|---------------------------------|---------------------------------|---------------------------------|
F#|---------------------------------|---------------------------------|---------------------------------|
C#|-----5-------5---3---5---3---5---|-----5-------5---3---5---3---5---|-----5-------5---3---5---3---5---|
G#|-----5-------5---3---5---3---5---|-----5-------5---3---5---3---5---|-----5-------5---3---5---3---5---|
D#|-----3-------3---1---3---1---3---|-----3-------3---1---3---1---3---|-----3-------3---1---3---1---3---|


D#|------------------------------|--------|--------|--------|--------|--------|--------|
A#|------------------------------|--------|--------|--------|--------|--------|--------|
F#|------------------------------|--------|--------|--------|--------|--------|--------|
C#|-----5-------5---3---5---8----|--------|--------|--------|--------|--------|--------|
G#|-----5-------5---3---5---8----|--------|--------|--------|--------|--------|--------|
D#|-----3-------3---1---3---6----|--------|--------|--------|--------|--------|--------|


D#|--------|--------|--------|--------|--------|--------|--------|--------|--------|
A#|--------|--------|--------|--------|--------|--------|--------|--------|--------|
F#|--------|--------|--------|--------|--------|--------|--------|--------|--------|
C#|--------|--------|--------|--------|--------|--------|--------|--------|--------|
G#|--------|--------|--------|--------|--------|--------|--------|--------|--------|
D#|--------|--------|--------|--------|--------|--------|--------|--------|--------|


D#|--------|------------------------------|--------|------------------------------|
A#|--------|------------------------------|--------|------------------------------|
F#|--------|-----6---6---6---6------------|--------|-----6---6---6---6------------|
C#|--------|-----5---5---5---5------------|--------|-----5---5---5---5------------|
G#|--------|-----4---4---4---4------------|--------|-----4---4---4---4------------|
D#|--------|---------------------3--------|--------|---------------------3--------|


D#|--------|------------------------------|--------|------------------------------|
A#|--------|------------------------------|--------|------------------------------|
F#|--------|-----6---6---6---6------------|--------|-----6---6---6---6------------|
C#|--------|-----5---5---5---5------------|--------|-----5---5---5---5------------|
G#|--------|-----4---4---4---4------------|--------|-----4---4---4---4------------|
D#|--------|---------------------3--------|--------|---------------------3--------|


D#|-----------------|--------|--------|--------|--------|--------|--------|--------|
A#|-----------------|--------|--------|--------|--------|--------|--------|--------|
F#|-----------------|--------|--------|--------|--------|--------|--------|--------|
C#|-----------------|--------|--------|--------|--------|--------|--------|--------|
G#|-----------------|--------|--------|--------|--------|--------|--------|--------|
D#|-----------------|--------|--------|--------|--------|--------|--------|--------|


D#|--------|---------------------------------|---------------------------------|---------------------------------|
A#|--------|---------------------------------|---------------------------------|---------------------------------|
F#|--------|---------------------------------|---------------------------------|---------------------------------|
C#|--------|-----5-------5---3---5---3---5---|-----5-------5---3---5---3---5---|-----5-------5---3---5---3---5---|
G#|--------|-----5-------5---3---5---3---5---|-----5-------5---3---5---3---5---|-----5-------5---3---5---3---5---|
D#|--------|-----3-------3---1---3---1---3---|-----3-------3---1---3---1---3---|-----3-------3---1---3---1---3---|


D#|------------------------------|---------------------------------|---------------------------------|
A#|------------------------------|---------------------------------|---------------------------------|
F#|------------------------------|---------------------------------|---------------------------------|
C#|-----5-------5---3---5---8----|-----5-------5---3---5---3---5---|-----5-------5---3---5---3---5---|
G#|-----5-------5---3---5---8----|-----5-------5---3---5---3---5---|-----5-------5---3---5---3---5---|
D#|-----3-------3---1---3---6----|-----3-------3---1---3---1---3---|-----3-------3---1---3---1---3---|


D#|---------------------------------|------------------------------|--------|--------|
A#|---------------------------------|------------------------------|--------|--------|
F#|---------------------------------|------------------------------|--------|--------|
C#|-----5-------5---3---5---3---5---|-----5-------5---3---5---8----|--------|--------|
G#|-----5-------5---3---5---3---5---|-----5-------5---3---5---8----|--------|--------|
D#|-----3-------3---1---3---1---3---|-----3-------3---1---3---6----|--------|--------|


D#|--------|--------|--------|--------|--------|--------|--------|--------|--------|
A#|--------|--------|--------|--------|--------|--------|--------|--------|--------|
F#|--------|--------|--------|--------|--------|--------|--------|--------|--------|
C#|--------|--------|--------|--------|--------|--------|--------|--------|--------|
G#|--------|--------|--------|--------|--------|--------|--------|--------|--------|
D#|--------|--------|--------|--------|--------|--------|--------|--------|--------|


D#|--------|
A#|--------|
F#|--------|
C#|--------|
G#|--------|
D#|--------|





Track 4: Untitled

D#|--------|--------|--------|--------|--------|--------|--------|--------|--------|
A#|--------|--------|--------|--------|--------|--------|--------|--------|--------|
F#|--------|--------|--------|--------|--------|--------|--------|--------|--------|
C#|--------|--------|--------|--------|--------|--------|--------|--------|--------|
G#|--------|--------|--------|--------|--------|--------|--------|--------|--------|
D#|--------|--------|--------|--------|--------|--------|--------|--------|--------|


D#|--------|--------|--------|--------|--------|--------|--------|--------|--------|
A#|--------|--------|--------|--------|--------|--------|--------|--------|--------|
F#|--------|--------|--------|--------|--------|--------|--------|--------|--------|
C#|--------|--------|--------|--------|--------|--------|--------|--------|--------|
G#|--------|--------|--------|--------|--------|--------|--------|--------|--------|
D#|--------|--------|--------|--------|--------|--------|--------|--------|--------|


D#|--------|--------|--------|--------|--------|---------------------------|---------------------------------|
A#|--------|--------|--------|--------|--------|---------------------------|---------------------------------|
F#|--------|--------|--------|--------|--------|---------------------------|---------------------------------|
C#|--------|--------|--------|--------|--------|-------5---3---5---3---5---|-----5-------5---3---5---3---5---|
G#|--------|--------|--------|--------|--------|-------5---3---5---3---5---|-----5-------5---3---5---3---5---|
D#|--------|--------|--------|--------|--------|-------3---1---3---1---3---|-----3-------3---1---3---1---3---|


D#|---------------------------------|---------------------------------|------------------------------|
A#|---------------------------------|---------------------------------|------------------------------|
F#|---------------------------------|---------------------------------|------------------------------|
C#|-----5-------5---3---5---3---5---|-----5-------5---3---5---3---5---|-----5-------5---3---5---8----|
G#|-----5-------5---3---5---3---5---|-----5-------5---3---5---3---5---|-----5-------5---3---5---8----|
D#|-----3-------3---1---3---1---3---|-----3-------3---1---3---1---3---|-----3-------3---1---3---6----|


D#|---------------------------------|---------------------------------|---------------------------------|
A#|---------------------------------|---------------------------------|---------------------------------|
F#|---------------------------------|---------------------------------|---------------------------------|
C#|-----5-------5---3---5---3---5---|-----5-------5---3---5---3---5---|-----5-------5---3---5---3---5---|
G#|-----5-------5---3---5---3---5---|-----5-------5---3---5---3---5---|-----5-------5---3---5---3---5---|
D#|-----3-------3---1---3---1---3---|-----3-------3---1---3---1---3---|-----3-------3---1---3---1---3---|


D#|------------------------------|--------|--------|--------|--------|--------|--------|
A#|------------------------------|--------|--------|--------|--------|--------|--------|
F#|------------------------------|--------|--------|--------|--------|--------|--------|
C#|-----5-------5---3---5---8----|--------|--------|--------|--------|--------|--------|
G#|-----5-------5---3---5---8----|--------|--------|--------|--------|--------|--------|
D#|-----3-------3---1---3---6----|--------|--------|--------|--------|--------|--------|


D#|--------|--------|--------|--------|--------|--------|--------|--------|--------|
A#|--------|--------|--------|--------|--------|--------|--------|--------|--------|
F#|--------|--------|--------|--------|--------|--------|--------|--------|--------|
C#|--------|--------|--------|--------|--------|--------|--------|--------|--------|
G#|--------|--------|--------|--------|--------|--------|--------|--------|--------|
D#|--------|--------|--------|--------|--------|--------|--------|--------|--------|


D#|--------|--------|--------|--------|--------|--------|--------|--------|--------|
A#|--------|--------|--------|--------|--------|--------|--------|--------|--------|
F#|--------|--------|--------|--------|--------|--------|--------|--------|--------|
C#|--------|--------|--------|--------|--------|--------|--------|--------|--------|
G#|--------|--------|--------|--------|--------|--------|--------|--------|--------|
D#|--------|--------|--------|--------|--------|--------|--------|--------|--------|


D#|--------|--------|--------|--------|--------|--------|--------|--------|--------|
A#|--------|--------|--------|--------|--------|--------|--------|--------|--------|
F#|--------|--------|--------|--------|--------|--------|--------|--------|--------|
C#|--------|--------|--------|--------|--------|--------|--------|--------|--------|
G#|--------|--------|--------|--------|--------|--------|--------|--------|--------|
D#|--------|--------|--------|--------|--------|--------|--------|--------|--------|


D#|--------|--------|--------|--------|--------|--------|--------|--------|--------|
A#|--------|--------|--------|--------|--------|--------|--------|--------|--------|
F#|--------|--------|--------|--------|--------|--------|--------|--------|--------|
C#|--------|--------|--------|--------|--------|--------|--------|--------|--------|
G#|--------|--------|--------|--------|--------|--------|--------|--------|--------|
D#|--------|--------|--------|--------|--------|--------|--------|--------|--------|


D#|--------|--------|--------|--------|--------|--------|--------|--------|--------|
A#|--------|--------|--------|--------|--------|--------|--------|--------|--------|
F#|--------|--------|--------|--------|--------|--------|--------|--------|--------|
C#|--------|--------|--------|--------|--------|--------|--------|--------|--------|
G#|--------|--------|--------|--------|--------|--------|--------|--------|--------|
D#|--------|--------|--------|--------|--------|--------|--------|--------|--------|


D#|--------|--------|--------|--------|--------|--------|--------|--------|--------|
A#|--------|--------|--------|--------|--------|--------|--------|--------|--------|
F#|--------|--------|--------|--------|--------|--------|--------|--------|--------|
C#|--------|--------|--------|--------|--------|--------|--------|--------|--------|
G#|--------|--------|--------|--------|--------|--------|--------|--------|--------|
D#|--------|--------|--------|--------|--------|--------|--------|--------|--------|


D#|--------|--------|--------|--------|--------|--------|--------|--------|--------|
A#|--------|--------|--------|--------|--------|--------|--------|--------|--------|
F#|--------|--------|--------|--------|--------|--------|--------|--------|--------|
C#|--------|--------|--------|--------|--------|--------|--------|--------|--------|
G#|--------|--------|--------|--------|--------|--------|--------|--------|--------|
D#|--------|--------|--------|--------|--------|--------|--------|--------|--------|


D#|--------|--------|--------|--------|--------|--------|--------|
A#|--------|--------|--------|--------|--------|--------|--------|
F#|--------|--------|--------|--------|--------|--------|--------|
C#|--------|--------|--------|--------|--------|--------|--------|
G#|--------|--------|--------|--------|--------|--------|--------|
D#|--------|--------|--------|--------|--------|--------|--------|





Track 5: Untitled

D#|--------|--------|--------|--------|--------|--------|--------|--------|--------|
A#|--------|--------|--------|--------|--------|--------|--------|--------|--------|
F#|--------|--------|--------|--------|--------|--------|--------|--------|--------|
C#|--------|--------|--------|--------|--------|--------|--------|--------|--------|
G#|--------|--------|--------|--------|--------|--------|--------|--------|--------|
D#|--------|--------|--------|--------|--------|--------|--------|--------|--------|


D#|--------|--------|--------|--------|--------|--------|--------|--------|--------|
A#|--------|--------|--------|--------|--------|--------|--------|--------|--------|
F#|--------|--------|--------|--------|--------|--------|--------|--------|--------|
C#|--------|--------|--------|--------|--------|--------|--------|--------|--------|
G#|--------|--------|--------|--------|--------|--------|--------|--------|--------|
D#|--------|--------|--------|--------|--------|--------|--------|--------|--------|


D#|--------|--------|--------|--------|--------|--------|--------|--------|--------|
A#|--------|--------|--------|--------|--------|--------|--------|--------|--------|
F#|--------|--------|--------|--------|--------|--------|--------|--------|--------|
C#|--------|--------|--------|--------|--------|--------|--------|--------|--------|
G#|--------|--------|--------|--------|--------|--------|--------|--------|--------|
D#|--------|--------|--------|--------|--------|--------|--------|--------|--------|


D#|--------|--------|--------|--------|--------|--------|--------|--------|--------|
A#|--------|--------|--------|--------|--------|--------|--------|--------|--------|
F#|--------|--------|--------|--------|--------|--------|--------|--------|--------|
C#|--------|--------|--------|--------|--------|--------|--------|--------|--------|
G#|--------|--------|--------|--------|--------|--------|--------|--------|--------|
D#|--------|--------|--------|--------|--------|--------|--------|--------|--------|


D#|--------|--------|--------|--------|--------|--------|--------|--------|--------|
A#|--------|--------|--------|--------|--------|--------|--------|--------|--------|
F#|--------|--------|--------|--------|--------|--------|--------|--------|--------|
C#|--------|--------|--------|--------|--------|--------|--------|--------|--------|
G#|--------|--------|--------|--------|--------|--------|--------|--------|--------|
D#|--------|--------|--------|--------|--------|--------|--------|--------|--------|


D#|--------|--------|--------|--------|--------|--------|--------|--------|--------|
A#|--------|--------|--------|--------|--------|--------|--------|--------|--------|
F#|--------|--------|--------|--------|--------|--------|--------|--------|--------|
C#|--------|--------|--------|--------|--------|--------|--------|--------|--------|
G#|--------|--------|--------|--------|--------|--------|--------|--------|--------|
D#|--------|--------|--------|--------|--------|--------|--------|--------|--------|


D#|--------|--------|--------|--------|--------|--------|--------|--------|--------|
A#|--------|--------|--------|--------|--------|--------|--------|--------|--------|
F#|--------|--------|--------|--------|--------|--------|--------|--------|--------|
C#|--------|--------|--------|--------|--------|--------|--------|--------|--------|
G#|--------|--------|--------|--------|--------|--------|--------|--------|--------|
D#|--------|--------|--------|--------|--------|--------|--------|--------|--------|


D#|--------|--------|--------|--------|--------|--------|--------|--------|--------|
A#|--------|--------|--------|--------|--------|--------|--------|--------|--------|
F#|--------|--------|--------|--------|--------|--------|--------|--------|--------|
C#|--------|--------|--------|--------|--------|--------|--------|--------|--------|
G#|--------|--------|--------|--------|--------|--------|--------|--------|--------|
D#|--------|--------|--------|--------|--------|--------|--------|--------|--------|


D#|--------|--------|--------|--------|--------|--------|--------|---------------------------|
A#|--------|--------|--------|--------|--------|--------|--------|---------------------------|
F#|--------|--------|--------|--------|--------|--------|--------|---------------------------|
C#|--------|--------|--------|--------|--------|--------|--------|-------5---3---5---3---5---|
G#|--------|--------|--------|--------|--------|--------|--------|-------5---3---5---3---5---|
D#|--------|--------|--------|--------|--------|--------|--------|-------3---1---3---1---3---|


D#|---------------------------------|---------------------------------|---------------------------------|
A#|---------------------------------|---------------------------------|---------------------------------|
F#|---------------------------------|---------------------------------|---------------------------------|
C#|-----5-------5---3---5---3---5---|-----5-------5---3---5---3---5---|-----5-------5---3---5---3---5---|
G#|-----5-------5---3---5---3---5---|-----5-------5---3---5---3---5---|-----5-------5---3---5---3---5---|
D#|-----3-------3---1---3---1---3---|-----3-------3---1---3---1---3---|-----3-------3---1---3---1---3---|


D#|------------------------------|---------------------------------|---------------------------------|
A#|------------------------------|---------------------------------|---------------------------------|
F#|------------------------------|---------------------------------|---------------------------------|
C#|-----5-------5---3---5---8----|-----5-------5---3---5---3---5---|-----5-------5---3---5---3---5---|
G#|-----5-------5---3---5---8----|-----5-------5---3---5---3---5---|-----5-------5---3---5---3---5---|
D#|-----3-------3---1---3---6----|-----3-------3---1---3---1---3---|-----3-------3---1---3---1---3---|


D#|---------------------------------|------------------------------|--------|--------|
A#|---------------------------------|------------------------------|--------|--------|
F#|---------------------------------|------------------------------|--------|--------|
C#|-----5-------5---3---5---3---5---|-----5-------5---3---5---8----|--------|--------|
G#|-----5-------5---3---5---3---5---|-----5-------5---3---5---8----|--------|--------|
D#|-----3-------3---1---3---1---3---|-----3-------3---1---3---6----|--------|--------|


D#|--------|--------|--------|--------|--------|--------|--------|--------|--------|
A#|--------|--------|--------|--------|--------|--------|--------|--------|--------|
F#|--------|--------|--------|--------|--------|--------|--------|--------|--------|
C#|--------|--------|--------|--------|--------|--------|--------|--------|--------|
G#|--------|--------|--------|--------|--------|--------|--------|--------|--------|
D#|--------|--------|--------|--------|--------|--------|--------|--------|--------|


D#|--------|--------|--------|--------|--------|--------|--------|--------|--------|
A#|--------|--------|--------|--------|--------|--------|--------|--------|--------|
F#|--------|--------|--------|--------|--------|--------|--------|--------|--------|
C#|--------|--------|--------|--------|--------|--------|--------|--------|--------|
G#|--------|--------|--------|--------|--------|--------|--------|--------|--------|
D#|--------|--------|--------|--------|--------|--------|--------|--------|--------|





Track 6: Bass

F#|--------|--------|--------|--------|--------|--------|--------|--------|---------------------------------|
C#|--------|--------|--------|--------|--------|--------|--------|--------|---------------------------------|
G#|--------|--------|--------|--------|--------|--------|--------|--------|-----4---4---4---4---------------|
D#|--------|--------|--------|--------|--------|--------|--------|--------|---------------------3-------3---|


F#|---------------------------------|---------------------------------|---------------------------------|
C#|---------------------------------|---------------------------------|---------------------------------|
G#|---------------------------------|-----4---4---4---4---------------|---------------------------------|
D#|-----3-------3---1---3-------3---|---------------------3-------3---|-----3-------3---1---3-------3---|


F#|---------------------------------|---------------------------------|---------------------------------|
C#|---------------------------------|---------------------------------|---------------------------------|
G#|-----4---4---4---4---------------|---------------------------------|-----4---4---4---4---------------|
D#|---------------------3-------3---|-----3-------3---1---3-------3---|---------------------3---3---0---|


F#|--------|---------------------------------|---------------------------------|---------------------------------|
C#|--------|---------------------------------|---------------------------------|---------------------------------|
G#|--------|-----4---4---4---4---------------|---------------------------------|-----4---4---4---4---------------|
D#|--------|---------------------3-------3---|-----3-------3---1---3-------3---|---------------------3-------3---|


F#|---------------------------------|---------------------------------|---------------------------------|
C#|---------------------------------|---------------------------------|---------------------------------|
G#|---------------------------------|-----4---4---4---4---------------|---------------------------------|
D#|-----3-------3---1---3-------3---|---------------------3-------3---|-----3-------3---1---3-------3---|


F#|---------------------------------|---------------------------------|---------------------------------|
C#|---------------------------------|---------------------------------|---------------------------------|
G#|-----4---4---4---4---------------|---------------------------------|---------------------------------|
D#|---------------------3-------3---|-----3-------3---1---3---1---3---|-----3-------3---1---3---1---3---|


F#|---------------------------------|---------------------------------|------------------------------|
C#|---------------------------------|---------------------------------|------------------------------|
G#|---------------------------------|---------------------------------|-------------------------1----|
D#|-----3-------3---1---3---1---3---|-----3-------3---1---3---1---3---|-----3-------3---1---3--------|


F#|---------------------------------|---------------------------------|---------------------------------|
C#|---------------------------------|---------------------------------|---------------------------------|
G#|---------------------------------|---------------------------------|---------------------------------|
D#|-----3-------3---1---3---1---3---|-----3-------3---1---3---1---3---|-----3-------3---1---3---1---3---|


F#|------------------------------|---------------------------------|---------------------------------|
C#|------------------------------|---------------------------------|---------------------------------|
G#|-------------------------1----|-----4---4---4---4---------------|---------------------------------|
D#|-----3-------3---1---3--------|---------------------3-------3---|-----3-------3---1---3-------3---|


F#|---------------------------------|---------------------------------|---------------------------------|
C#|---------------------------------|---------------------------------|---------------------------------|
G#|-----4---4---4---4---------------|---------------------------------|-----4---4---4---4---------------|
D#|---------------------3-------3---|-----3-------3---1---3-------3---|---------------------3-------3---|


F#|---------------------------------|---------------------------------|---------------------------------|
C#|---------------------------------|---------------------------------|---------------------------------|
G#|---------------------------------|-----4---4---4---4---------------|---------------------------------|
D#|-----3-------3---1---3-------3---|---------------------3-------3---|-----3-------3---1---3-------3---|


F#|---------------------------------|---------------------------------|---------------------------------|
C#|---------------------------------|---------------------------------|---------------------------------|
G#|-----4---4---4---4---------------|---------------------------------|-----4---4---4---4---------------|
D#|---------------------3-------3---|-----3-------3---1---3-------3---|---------------------3-------3---|


F#|---------------------------------|---------------------------------|---------------------------------|
C#|---------------------------------|---------------------------------|---------------------------------|
G#|---------------------------------|-----4---4---4---4---------------|---------------------------------|
D#|-----3-------3---1---3-------3---|---------------------3-------3---|-----3-------3---1---3-------3---|


F#|---------------------------------|---------------------------------|---------------------------------|
C#|---------------------------------|---------------------------------|---------------------------------|
G#|-----4---4---4---4---------------|---------------------------------|---------------------------------|
D#|---------------------3-------3---|-----3-------3---1---3---1---3---|-----3-------3---1---3---1---3---|


F#|---------------------------------|---------------------------------|------------------------------|
C#|---------------------------------|---------------------------------|------------------------------|
G#|---------------------------------|---------------------------------|-------------------------1----|
D#|-----3-------3---1---3---1---3---|-----3-------3---1---3---1---3---|-----3-------3---1---3--------|


F#|---------------------------------|---------------------------------|---------------------------------|
C#|---------------------------------|---------------------------------|---------------------------------|
G#|---------------------------------|---------------------------------|---------------------------------|
D#|-----3-------3---1---3---1---3---|-----3-------3---1---3---1---3---|-----3-------3---1---3---1---3---|


F#|------------------------------|--------|--------|--------|--------|--------|--------|
C#|------------------------------|--------|--------|--------|--------|--------|--------|
G#|-------------------------1----|-7------|-5------|-7------|-5------|-7------|-5------|
D#|-----3-------3---1---3--------|--------|--------|--------|--------|--------|--------|


F#|--------|--------|---------------------------------|--------|---------------------------------|
C#|--------|--------|---------------------------------|--------|---------------------------------|
G#|-4------|-3------|---------------------------------|--------|---------------------------------|
D#|--------|--------|-----3---1---3---1---3-------3---|--------|-----3---1---3---1---3-------3---|


F#|--------|---------------------------------|--------|---------------------------------|
C#|--------|---------------------------------|--------|---------------------------------|
G#|--------|---------------------------------|--------|---------------------------------|
D#|--------|-----3---1---3---1---3-------3---|--------|-----3---1---3---1---3-------3---|


F#|--------|---------------------------------|---------------------------------|---------------------------------|
C#|--------|---------------------------------|---------------------------------|---------------------------------|
G#|--------|-----4---4---4---4---------------|---------------------------------|-----4---4---4---4---------------|
D#|--------|---------------------3-------3---|-----3-------3---1---3-------3---|---------------------3-------3---|


F#|---------------------------------|---------------------------------|---------------------------------|
C#|---------------------------------|---------------------------------|---------------------------------|
G#|---------------------------------|-----4---4---4---4---------------|---------------------------------|
D#|-----3-------3---1---3-------3---|---------------------3-------3---|-----3-------3---1---3-------3---|


F#|---------------------------------|---------------------------------|---------------------------------|
C#|---------------------------------|---------------------------------|---------------------------------|
G#|-----4---4---4---4---------------|---------------------------------|---------------------------------|
D#|---------------------3-------3---|-----3-------3---1---3---1---3---|-----3-------3---1---3---1---3---|


F#|---------------------------------|---------------------------------|------------------------------|
C#|---------------------------------|---------------------------------|------------------------------|
G#|---------------------------------|---------------------------------|-------------------------1----|
D#|-----3-------3---1---3---1---3---|-----3-------3---1---3---1---3---|-----3-------3---1---3--------|


F#|---------------------------------|---------------------------------|---------------------------------|
C#|---------------------------------|---------------------------------|---------------------------------|
G#|---------------------------------|---------------------------------|---------------------------------|
D#|-----3-------3---1---3---1---3---|-----3-------3---1---3---1---3---|-----3-------3---1---3---1---3---|


F#|------------------------------|---------------------------------|---------------------------------|
C#|------------------------------|---------------------------------|---------------------------------|
G#|-------------------------1----|---------------------------------|---------------------------------|
D#|-----3-------3---1---3--------|-----3-------3---1---3---1---3---|-----3-------3---1---3---1---3---|


F#|---------------------------------|------------------------------|---------------------------------|
C#|---------------------------------|------------------------------|---------------------------------|
G#|---------------------------------|-------------------------1----|---------------------------------|
D#|-----3-------3---1---3---1---3---|-----3-------3---1---3--------|-----3-------3---1---3---1---3---|


F#|---------------------------------|---------------------------------|------------------------------|
C#|---------------------------------|---------------------------------|------------------------------|
G#|---------------------------------|---------------------------------|-------------------------1----|
D#|-----3-------3---1---3---1---3---|-----3-------3---1---3---1---3---|-----3-------3---1---3--------|


F#|---------------------------------|---------------------------------|---------------------------------|
C#|---------------------------------|---------------------------------|---------------------------------|
G#|-4---4---4---4---4---4---4---4---|-3---3---3---3---3---3---3---3---|---------------------------------|
D#|---------------------------------|---------------------------------|-----3-------3---1---3---1---3---|


F#|------------------------------|---------------------------------|---------------------------------|
C#|------------------------------|---------------------------------|---------------------------------|
G#|-------------------------1----|-4---4---4---4---4---4---4---4---|-3---3---3---3---3---3---3---3---|
D#|-----3-------3---1---3--------|---------------------------------|---------------------------------|


F#|---------------------------------|------------------------------|--------------------|
C#|---------------------------------|------------------------------|--------------------|
G#|---------------------------------|-------------------------1----|-1----1---0---------|
D#|-----3-------3---1---3---1---3---|-----3-------3---1---3--------|--------------------|


F#|--------|--------|--------|
C#|--------|--------|--------|
G#|--------|--------|--------|
D#|--------|--------|--------|