Site menu:

    

Browse: 0-9 A B C D E F G H I J K L N O P Q R S T U V W X Y Z

poison - talk dirty to me:



Title: Talk Dirty To Me
Artist: 
Album: Look What The Cat Dragged In
Author: Poison


Track 1: G L

D#|---------------------------|---------------------------|---------------------------------|
A#|---------------------------|---------------------------|---------------------------------|
F#|---------------------------|---------------------------|---------------------------------|
C#|-5--------5-------5---5----|-7--------7-------7---7----|-11--12--12--12--11--12--12--12--|
G#|-3--------3-------3---3----|-5--------5-------5---5----|-9---10--10--10--9---10--10--10--|
D#|---------------------------|---------------------------|---------------------------------|


D#|------------------------------|---------------------------|---------------------------|
A#|------------------------------|---------------------------|---------------------------|
F#|------------------------------|---------------------------|---------------------------|
C#|-11--12--12--12--12--12--12---|-5--------5-------5---5----|-7--------7-------7---7----|
G#|-9---10--10--10--10--10--10---|-3--------3-------3---3----|-5--------5-------5---5----|
D#|------------------------------|---------------------------|---------------------------|


D#|---------------------------------|---------------------------------|--------|--------|
A#|---------------------------------|---------------------------------|--------|--------|
F#|---------------------------------|---------------------------------|--------|--------|
C#|-11--12--12--12--11--12--12--12--|-11--12--12--12--12--12--12--12--|-12-----|--------|
G#|-9---10--10--10--9---10--10--10--|-9---10--10--10--10--10--10--10--|-10-----|--------|
D#|---------------------------------|---------------------------------|--------|--------|


D#|--------|--------|---------------------------------|---------------------------------|
A#|--------|--------|---------------------------------|---------------------------------|
F#|--------|--------|---------------------------------|---------------------------------|
C#|--------|--------|-12--12--12--12--12--12--12--12--|-12--12--12--12--12--12--12--12--|
G#|--------|--------|-10--10--10--10--10--10--10--10--|-10--10--10--10--10--10--10--10--|
D#|--------|--------|---------------------------------|---------------------------------|


D#|---------------------------------|---------------------------------|---------------------------------|
A#|---------------------------------|---------------------------------|---------------------------------|
F#|---------------------------------|---------------------------------|---------------------------------|
C#|-12--12--12--12--12--12--12--12--|-12--12--12--12--12--12--12--12--|-7---7---7---7---7---7---7---7---|
G#|-10--10--10--10--10--10--10--10--|-10--10--10--10--10--10--10--10--|-5---5---5---5---5---5---5---5---|
D#|---------------------------------|---------------------------------|---------------------------------|


D#|---------------------------------|---------------------------------|---------------------------------|
A#|---------------------------------|---------------------------------|---------------------------------|
F#|---------------------------------|---------------------------------|---------------------------------|
C#|-7---7---7---7---7---7---7---7---|-7---7---7---7---7---7---7---7---|-7---7---7---7---7---7---7---7---|
G#|-5---5---5---5---5---5---5---5---|-5---5---5---5---5---5---5---5---|-5---5---5---5---5---5---5---5---|
D#|---------------------------------|---------------------------------|---------------------------------|


D#|---------------------------------|---------------------------------|---------------------------------|
A#|---------------------------------|---------------------------------|---------------------------------|
F#|---------------------------------|---------------------------------|---------------------------------|
C#|-5---5---5---5---5---5---5---5---|-5---5---5---5---5---5---5---5---|-5---5---5---5---5---5---5---5---|
G#|-3---3---3---3---3---3---3---3---|-3---3---3---3---3---3---3---3---|-3---3---3---3---3---3---3---3---|
D#|---------------------------------|---------------------------------|---------------------------------|


D#|---------------------------------|---------------------------------|---------------------------------|
A#|---------------------------------|---------------------------------|---------------------------------|
F#|---------------------------------|---------------------------------|---------------------------------|
C#|-5---5---5---5---5---5---5---5---|-12--12--12--12--12--12--12--12--|-12--12--12--12--12--12--12--12--|
G#|-3---3---3---3---3---3---3---3---|-10--10--10--10--10--10--10--10--|-10--10--10--10--10--10--10--10--|
D#|---------------------------------|---------------------------------|---------------------------------|


D#|---------------------------------|---------------------------------|---------------------------------|
A#|---------------------------------|---------------------------------|---------------------------------|
F#|---------------------------------|---------------------------------|---------------------------------|
C#|-7---7---7---7---7---7---7---7---|-7---7---7---7---7---7---7---7---|-12--12--12--12--12--12--12--12--|
G#|-5---5---5---5---5---5---5---5---|-5---5---5---5---5---5---5---5---|-10--10--10--10--10--10--10--10--|
D#|---------------------------------|---------------------------------|---------------------------------|


D#|---------------------------------|---------------------------------|---------------------------------|
A#|---------------------------------|---------------------------------|---------------------------------|
F#|---------------------------------|---------------------------------|---------------------------------|
C#|-12--12--12--12--12--12--12--12--|-12--12--12--12--12--12--12--12--|-12--12--12--12--12--12--12--12--|
G#|-10--10--10--10--10--10--10--10--|-10--10--10--10--10--10--10--10--|-10--10--10--10--10--10--10--10--|
D#|---------------------------------|---------------------------------|---------------------------------|


D#|---------------------------------|---------------------------------|---------------------------------|
A#|---------------------------------|---------------------------------|---------------------------------|
F#|---------------------------------|---------------------------------|---------------------------------|
C#|-7---7---7---7---7---7---7---7---|-7---7---7---7---7---7---7---7---|-7---7---7---7---7---7---7---7---|
G#|-5---5---5---5---5---5---5---5---|-5---5---5---5---5---5---5---5---|-5---5---5---5---5---5---5---5---|
D#|---------------------------------|---------------------------------|---------------------------------|


D#|---------------------------------|---------------------------------|---------------------------------|
A#|---------------------------------|---------------------------------|---------------------------------|
F#|---------------------------------|---------------------------------|---------------------------------|
C#|-7---7---7---7---7---7---7---7---|-5---5---5---5---5---5---5---5---|-5---5---5---5---5---5---5---5---|
G#|-5---5---5---5---5---5---5---5---|-3---3---3---3---3---3---3---3---|-3---3---3---3---3---3---3---3---|
D#|---------------------------------|---------------------------------|---------------------------------|


D#|---------------------------------|---------------------------------|---------------------------------|
A#|---------------------------------|---------------------------------|---------------------------------|
F#|---------------------------------|---------------------------------|---------------------------------|
C#|-5---5---5---5---5---5---5---5---|-5---5---5---5---5---5---5---5---|-12--12--12--12--12--12--12--12--|
G#|-3---3---3---3---3---3---3---3---|-3---3---3---3---3---3---3---3---|-10--10--10--10--10--10--10--10--|
D#|---------------------------------|---------------------------------|---------------------------------|


D#|---------------------------------|---------------------------------|---------------------------------|
A#|---------------------------------|---------------------------------|---------------------------------|
F#|---------------------------------|---------------------------------|---------------------------------|
C#|-12--12--12--12--12--12--12--12--|-7---7---7---7---7---7---7---7---|-7---7---7---7---7---7---7---7---|
G#|-10--10--10--10--10--10--10--10--|-5---5---5---5---5---5---5---5---|-5---5---5---5---5---5---5---5---|
D#|---------------------------------|---------------------------------|---------------------------------|


D#|------------------------------|------------------------------|---------------------------------|
A#|------------------------------|------------------------------|---------------------------------|
F#|------------------------------|------------------------------|---------------------------------|
C#|-5--------5---5---5---5---5---|-7--------7---7---7---7---7---|-11--12--12--12--11--12--12--12--|
G#|-3--------3---3---3---3---3---|-5--------5---5---5---5---5---|-9---10--10--10--9---10--10--10--|
D#|------------------------------|------------------------------|---------------------------------|


D#|---------------------------------|------------------------------|------------------------------|
A#|---------------------------------|------------------------------|------------------------------|
F#|---------------------------------|------------------------------|------------------------------|
C#|-11--12--12--12--12--12--12--12--|-5--------5---5---5---5---5---|-7--------7---7---7---7---7---|
G#|-9---10--10--10--10--10--10--10--|-3--------3---3---3---3---3---|-5--------5---5---5---5---5---|
D#|---------------------------------|------------------------------|------------------------------|


D#|---------------------------------|---------------------------------|------------------------------|
A#|---------------------------------|---------------------------------|------------------------------|
F#|---------------------------------|---------------------------------|------------------------------|
C#|-11--12--12--12--11--12--12--12--|-11--12--12--12--12--12--12--12--|-5--------5---5---5---5---5---|
G#|-9---10--10--10--9---10--10--10--|-9---10--10--10--10--10--10--10--|-3--------3---3---3---3---3---|
D#|---------------------------------|---------------------------------|------------------------------|


D#|------------------------------|---------------------------|---------------------------|
A#|------------------------------|---------------------------|---------------------------|
F#|------------------------------|---------------------------|---------------------------|
C#|-7--------7---7---7---7---7---|-9--------9---9---9---9----|-5--------5---5---5---5----|
G#|-5--------5---5---5---5---5---|-7--------7---7---7---7----|-3--------3---3---3---3----|
D#|------------------------------|---------------------------|---------------------------|


D#|---------------------------|--------------------|---------------------------------|
A#|---------------------------|--------------------|---------------------------------|
F#|---------------------------|-7------------------|---------------------------------|
C#|---------------------------|-7------------------|-11--12--12--12--11--12--12--12--|
G#|-7--------7---7---7---7----|-5------------------|-9---10--10--10--9---10--10--10--|
D#|-5--------5---5---5---5----|--------------------|---------------------------------|


D#|---------------------------------|---------------------------------|---------------------------------|
A#|---------------------------------|---------------------------------|---------------------------------|
F#|---------------------------------|---------------------------------|---------------------------------|
C#|-11--12--12--12--11--12--12--12--|-12--12--12--12--12--12--12--12--|-12--12--12--12--12--12--12--12--|
G#|-9---10--10--10--9---10--10--10--|-10--10--10--10--10--10--10--10--|-10--10--10--10--10--10--10--10--|
D#|---------------------------------|---------------------------------|---------------------------------|


D#|---------------------------------|---------------------------------|---------------------------------|
A#|---------------------------------|---------------------------------|---------------------------------|
F#|---------------------------------|---------------------------------|---------------------------------|
C#|-12--12--12--12--12--12--12--12--|-12--12--12--12--12--12--12--12--|-7---7---7---7---7---7---7---7---|
G#|-10--10--10--10--10--10--10--10--|-10--10--10--10--10--10--10--10--|-5---5---5---5---5---5---5---5---|
D#|---------------------------------|---------------------------------|---------------------------------|


D#|---------------------------------|---------------------------------|---------------------------------|
A#|---------------------------------|---------------------------------|---------------------------------|
F#|---------------------------------|---------------------------------|---------------------------------|
C#|-7---7---7---7---7---7---7---7---|-7---7---7---7---7---7---7---7---|-7---7---7---7---7---7---7---7---|
G#|-5---5---5---5---5---5---5---5---|-5---5---5---5---5---5---5---5---|-5---5---5---5---5---5---5---5---|
D#|---------------------------------|---------------------------------|---------------------------------|


D#|---------------------------------|---------------------------------|---------------------------------|
A#|---------------------------------|---------------------------------|---------------------------------|
F#|---------------------------------|---------------------------------|---------------------------------|
C#|-5---5---5---5---5---5---5---5---|-5---5---5---5---5---5---5---5---|-5---5---5---5---5---5---5---5---|
G#|-3---3---3---3---3---3---3---3---|-3---3---3---3---3---3---3---3---|-3---3---3---3---3---3---3---3---|
D#|---------------------------------|---------------------------------|---------------------------------|


D#|---------------------------------|---------------------------------|---------------------------------|
A#|---------------------------------|---------------------------------|---------------------------------|
F#|---------------------------------|---------------------------------|---------------------------------|
C#|-5---5---5---5---5---5---5---5---|-12--12--12--12--12--12--12--12--|-12--12--12--12--12--12--12--12--|
G#|-3---3---3---3---3---3---3---3---|-10--10--10--10--10--10--10--10--|-10--10--10--10--10--10--10--10--|
D#|---------------------------------|---------------------------------|---------------------------------|


D#|---------------------------------|---------------------------------|------------------------------|
A#|---------------------------------|---------------------------------|------------------------------|
F#|---------------------------------|---------------------------------|------------------------------|
C#|-7---7---7---7---7---7---7---7---|-7---7---7---7---7---7---7---7---|-5--------5---5---5---5---5---|
G#|-5---5---5---5---5---5---5---5---|-5---5---5---5---5---5---5---5---|-3--------3---3---3---3---3---|
D#|---------------------------------|---------------------------------|------------------------------|


D#|------------------------------|---------------------------------|---------------------------------|
A#|------------------------------|---------------------------------|---------------------------------|
F#|------------------------------|---------------------------------|---------------------------------|
C#|-7--------7---7---7---7---7---|-11--12--12--12--11--12--12--12--|-11--12--12--12--12--12--12--12--|
G#|-5--------5---5---5---5---5---|-9---10--10--10--9---10--10--10--|-9---10--10--10--10--10--10--10--|
D#|------------------------------|---------------------------------|---------------------------------|


D#|------------------------------|------------------------------|---------------------------------|
A#|------------------------------|------------------------------|---------------------------------|
F#|------------------------------|------------------------------|---------------------------------|
C#|-5--------5---5---5---5---5---|-7--------7---7---7---7---7---|-11--12--12--12--11--12--12--12--|
G#|-3--------3---3---3---3---3---|-5--------5---5---5---5---5---|-9---10--10--10--9---10--10--10--|
D#|------------------------------|------------------------------|---------------------------------|


D#|---------------------------------|------------------------------|------------------------------|
A#|---------------------------------|------------------------------|------------------------------|
F#|---------------------------------|------------------------------|------------------------------|
C#|-11--12--12--12--12--12--12--12--|-5--------5---5---5---5---5---|-7--------7---7---7---7---7---|
G#|-9---10--10--10--10--10--10--10--|-3--------3---3---3---3---3---|-5--------5---5---5---5---5---|
D#|---------------------------------|------------------------------|------------------------------|


D#|---------------------------|---------------------------|---------------------------|
A#|---------------------------|---------------------------|---------------------------|
F#|---------------------------|---------------------------|---------------------------|
C#|-9--------9---9---9---9----|-5--------5---5---5---5----|---------------------------|
G#|-7--------7---7---7---7----|-3--------3---3---3---3----|-7--------7---7---7---7----|
D#|---------------------------|---------------------------|-5--------5---5---5---5----|


D#|--------------------|---------------------------------|---------------------------------|
A#|--------------------|---------------------------------|---------------------------------|
F#|-7------------------|---------------------------------|---------------------------------|
C#|-7------------------|-11--12--12--12--11--12--12--12--|-11--12--12--12--11--12--12--12--|
G#|-5------------------|-9---10--10--10--9---10--10--10--|-9---10--10--10--9---10--10--10--|
D#|--------------------|---------------------------------|---------------------------------|


D#|--------|--------|--------|--------|--------|--------|--------|--------|--------|
A#|--------|--------|--------|--------|--------|--------|--------|--------|--------|
F#|--------|--------|--------|--------|--------|--------|--------|--------|--------|
C#|--------|--------|--------|--------|--------|--------|--------|--------|--------|
G#|--------|--------|--------|--------|--------|--------|--------|--------|--------|
D#|--------|--------|--------|--------|--------|--------|--------|--------|--------|


D#|--------|--------|--------|--------|--------|--------|--------|--------|--------|
A#|--------|--------|--------|--------|--------|--------|--------|--------|--------|
F#|--------|--------|--------|--------|--------|--------|--------|--------|--------|
C#|--------|--------|--------|--------|--------|--------|--------|--------|--------|
G#|--------|--------|--------|--------|--------|--------|--------|--------|--------|
D#|--------|--------|--------|--------|--------|--------|--------|--------|--------|


D#|--------|--------|------------------------------|------------------------------|
A#|--------|--------|------------------------------|------------------------------|
F#|--------|--------|------------------------------|------------------------------|
C#|--------|--------|-5--------5---5---5---5---5---|-7--------7---7---7---7---7---|
G#|--------|--------|-3--------3---3---3---3---3---|-5--------5---5---5---5---5---|
D#|--------|--------|------------------------------|------------------------------|


D#|---------------------------------|------------------------------|------------------------------|
A#|---------------------------------|------------------------------|------------------------------|
F#|---------------------------------|------------------------------|------------------------------|
C#|-11--12--12--11--12--12--11--12--|-12--11--12--12--11--12--12---|-5--------5---5---5---5---5---|
G#|-9---10--10--9---10--10--9---10--|-10--9---10--10--9---10--10---|-3--------3---3---3---3---3---|
D#|---------------------------------|------------------------------|------------------------------|


D#|------------------------------|---------------------------------|------------------------------|
A#|------------------------------|---------------------------------|------------------------------|
F#|------------------------------|---------------------------------|------------------------------|
C#|-7--------7---7---7---7---7---|-11--12--12--12--11--12--12--12--|-11--12--12--10--10--10---10--|
G#|-5--------5---5---5---5---5---|-9---10--10--10--9---10--10--10--|-9---10--10--8---8---8----8---|
D#|------------------------------|---------------------------------|------------------------------|


D#|------------------------------|------------------------------|---------------------------|
A#|------------------------------|------------------------------|---------------------------|
F#|------------------------------|------------------------------|---------------------------|
C#|-5--------5---5---5---5---5---|-7--------7---7---7---7---7---|-9--------9---9---9---9----|
G#|-3--------3---3---3---3---3---|-5--------5---5---5---5---5---|-7--------7---7---7---7----|
D#|------------------------------|------------------------------|---------------------------|


D#|---------------------------|---------------------------|---------------------------------|
A#|---------------------------|---------------------------|---------------------------------|
F#|---------------------------|---------------------------|---------------------------------|
C#|-5--------5---5---5---5----|---------------------------|-7---7---7---7---7---7---7---7---|
G#|-3--------3---3---3---3----|-7--------7---7---7---7----|-5---5---5---5---5---5---5---5---|
D#|---------------------------|-5--------5---5---5---5----|---------------------------------|


D#|---------------------------|---------------------------|---------------------------|
A#|---------------------------|---------------------------|---------------------------|
F#|---------------------------|---------------------------|---------------------------|
C#|-12-------12--12--12--12---|-9--------9---9---9---9----|-5--------5---5---5---5----|
G#|-10-------10--10--10--10---|-7--------7---7---7---7----|-3--------3---3---3---3----|
D#|---------------------------|---------------------------|---------------------------|


D#|---------------------------|----------------------|---------------------------|
A#|---------------------------|----------------------|---------------------------|
F#|---------------------------|----------------------|---------------------------|
C#|-7--------7---7---7---7----|-12----12---11---10---|-9--------9---9---9---9----|
G#|-5--------5---5---5---5----|-10----10---9----8----|-7--------7---7---7---7----|
D#|---------------------------|----------------------|---------------------------|


D#|---------------------------|--------------------|---------------------------------|
A#|---------------------------|--------------------|---------------------------------|
F#|---------------------------|--------------------|---------------------------------|
C#|-5--------5---5---5---5----|-7------------------|-11--12--12--12--11--12--12--12--|
G#|-3--------3---3---3---3----|-5------------------|-9---10--10--10--9---10--10--10--|
D#|---------------------------|--------------------|---------------------------------|


D#|-----------------------|---------------------------------|---------------------------|
A#|-----------------------|---------------------------------|---------------------------|
F#|-----------------------|---------------------------------|---------------------------|
C#|-11--12--12--12--------|-11--12--12--12--11--12--12--12--|-11--12--12--12-------12---|
G#|-9---10--10--10--------|-9---10--10--10--9---10--10--10--|-9---10--10--10-------10---|
D#|-----------------------|---------------------------------|---------------------------|


D#|--------|--------|-----------------|
A#|--------|--------|-----------------|
F#|--------|--------|-----------------|
C#|-12-----|-12-----|-12--------------|
G#|-10-----|-10-----|-10--------------|
D#|--------|--------|-----------------|





Track 2: G R

D#|--------|--------|--------|--------|--------|--------|--------|--------|--------|
A#|--------|--------|--------|--------|--------|--------|--------|--------|--------|
F#|--------|--------|--------|--------|--------|--------|--------|--------|-12-----|
C#|--------|--------|--------|--------|--------|--------|--------|--------|-12-----|
G#|--------|--------|--------|--------|--------|--------|--------|--------|-10-----|
D#|--------|--------|--------|--------|--------|--------|--------|--------|--------|


D#|--------|--------|--------|-----------------|--------|-----------------|--------|
A#|--------|--------|--------|-----------------|--------|-----------------|--------|
F#|--------|--------|--------|-12--------------|--------|-12--------------|--------|
C#|--------|--------|--------|-12--------------|--------|-12--------------|--------|
G#|--------|--------|--------|-10--------------|--------|-10--------------|--------|
D#|--------|--------|--------|-----------------|--------|-----------------|--------|


D#|-----------------|--------|-----------------|--------|-----------------|--------|
A#|-----------------|--------|-----------------|--------|-----------------|--------|
F#|-7---------------|--------|-7---------------|--------|-5---------------|--------|
C#|-7---------------|--------|-7---------------|--------|-5---------------|--------|
G#|-5---------------|--------|-5---------------|--------|-3---------------|--------|
D#|-----------------|--------|-----------------|--------|-----------------|--------|


D#|-----------------|--------|-----------------|--------|-----------------|--------|
A#|-----------------|--------|-----------------|--------|-----------------|--------|
F#|-5---------------|--------|-12--------------|--------|-7---------------|--------|
C#|-5---------------|--------|-12--------------|--------|-7---------------|--------|
G#|-3---------------|--------|-10--------------|--------|-5---------------|--------|
D#|-----------------|--------|-----------------|--------|-----------------|--------|


D#|---------------------------|---------------------------|---------------------------|
A#|---------------------------|---------------------------|---------------------------|
F#|---------------------------|---------------------------|---------------------------|
C#|-12---12---12--12--12--12--|-12---12---12--12--12--12--|-12---12---12--12--12--12--|
G#|-10---10---10--10--10--10--|-10---10---10--10--10--10--|-10---10---10--10--10--10--|
D#|---------------------------|---------------------------|---------------------------|


D#|---------------------------|---------------------------|---------------------------|
A#|---------------------------|---------------------------|---------------------------|
F#|---------------------------|---------------------------|---------------------------|
C#|-12---12---12--12--12------|---------------------------|---------------------------|
G#|-10---10---10--10--10--12--|-12---12---12--12--12--12--|-12---12---12--12--12--12--|
D#|-----------------------10--|-10---10---10--10--10--10--|-10---10---10--10--10--10--|


D#|---------------------------|---------------------------|---------------------------|
A#|-7--------8--------10------|------10--10--10--10-------|---------------------------|
F#|-7--------9--------11------|------12--11--12--11-------|---------------------------|
C#|-7--------10-------12------|------12--12--12--12-------|---------------------------|
G#|---------------------------|---------------------------|-10---10---10--10--10--10--|
D#|---------------------------|---------------------------|-8----8----8---8---8---8---|


D#|---------------------------|------------------------------|------------------------------|
A#|---------------------------|------------------------------|------------------------------|
F#|---------------------------|------------------------------|------------------------------|
C#|---------------------------|--------------10----------10--|-10-----------10----------12--|
G#|-10---10---10--10--10--10--|-10-----------10----------10--|-10-----------10----------10--|
D#|-8----8----8---8---8---8---|-8----10--12------10--12------|------10--12------10--12------|


D#|---------------------------|---------------------------|---------------------------|
A#|---------------------------|---------------------------|---------------------------|
F#|---------------------------|---------------------------|---------------------------|
C#|-12---12---12--12--12--12--|-12---12---12--12--12--12--|---------------------------|
G#|-10---10---10--10--10--10--|-10---10---10--10--10--10--|-12---12---12--12--12--12--|
D#|---------------------------|---------------------------|-10---10---10--10--10--10--|


D#|---------------------------|--------|--------|--------|--------|--------|--------|
A#|---------------------------|--------|--------|--------|--------|--------|--------|
F#|---------------------------|--------|--------|--------|--------|--------|--------|
C#|---------------------------|--------|--------|--------|--------|--------|--------|
G#|-12---12---12--12--12--12--|--------|--------|--------|--------|--------|--------|
D#|-10---10---10--10--10--10--|--------|--------|--------|--------|--------|--------|


D#|--------|--------|--------|--------|--------|--------|--------|--------|--------|
A#|--------|--------|--------|--------|--------|--------|--------|--------|--------|
F#|--------|--------|--------|--------|--------|--------|--------|--------|--------|
C#|--------|--------|--------|--------|--------|--------|--------|--------|--------|
G#|--------|--------|--------|--------|--------|--------|--------|--------|--------|
D#|--------|--------|--------|--------|--------|--------|--------|--------|--------|


D#|--------|------------------------|-----------------|-----------------|------------------------------|
A#|--------|------------------------|-----------------|-----------------|------------------------------|
F#|--------|------------------------|-----------------|-----------------|------------------------------|
C#|--------|-12-----------------12--|-12--------------|-12--------------|-----12--12--12--12------12---|
G#|--------|-10-----------------10--|-10--------------|-10--------------|-----10--10--10--10------10---|
D#|--------|------------------------|-----------------|-----------------|------------------------------|


D#|-----------------|--------|-----------------|-----------------------|---------------------------|
A#|-----------------|--------|-----------------|-----------------------|---------------------------|
F#|-----------------|--------|-----------------|-----------------------|---------------------------|
C#|-----------------|--------|-----------------|-----------------------|---------------------------|
G#|-12--------------|--------|-12--------------|-----------12--12--12--|-10---10---10--10--10--10--|
D#|-10--------------|--------|-10--------------|-----------10--10--10--|-8----8----8---8---8---8---|


D#|---------------------------|---------------------------|---------------------------|
A#|---------------------------|---------------------------|---------------------------|
F#|---------------------------|---------------------------|---------------------------|
C#|---------------------------|---------------------------|---------------------------|
G#|-10---10---10--10--10--10--|-10---10---10--10--10--10--|-10---10---10--10--10--10--|
D#|-8----8----8---8---8---8---|-8----8----8---8---8---8---|-8----8----8---8---8---8---|


D#|---------------------------|---------------------------|---------------------------|
A#|---------------------------|---------------------------|---------------------------|
F#|---------------------------|---------------------------|---------------------------|
C#|-12---12---12--12--12--12--|-12---12---12--12--12--12--|---------------------------|
G#|-10---10---10--10--10--10--|-10---10---10--10--10--10--|-12---12---12--12--12--12--|
D#|---------------------------|---------------------------|-10---10---10--10--10--10--|


D#|---------------------------|--------|--------|--------|--------|--------|--------|
A#|---------------------------|--------|--------|--------|--------|--------|--------|
F#|---------------------------|--------|--------|--------|--------|--------|--------|
C#|---------------------------|--------|--------|--------|--------|--------|--------|
G#|-12---12---12--12--12--12--|--------|--------|--------|--------|--------|--------|
D#|-10---10---10--10--10--10--|--------|--------|--------|--------|--------|--------|


D#|--------|--------|--------|--------|--------|--------|--------|--------|--------|
A#|--------|--------|--------|--------|--------|--------|--------|--------|--------|
F#|--------|--------|--------|--------|--------|--------|--------|--------|--------|
C#|--------|--------|--------|--------|--------|--------|--------|--------|--------|
G#|--------|--------|--------|--------|--------|--------|--------|--------|--------|
D#|--------|--------|--------|--------|--------|--------|--------|--------|--------|


D#|--------|---------------------------------|--------|--------|--------|--------|
A#|--------|---------------------------------|--------|--------|--------|--------|
F#|--------|---------------------------------|--------|--------|--------|--------|
C#|--------|-7---7---7---7---7---7---7---7---|--------|--------|--------|--------|
G#|--------|-5---5---5---5---5---5---5---5---|--------|--------|--------|--------|
D#|--------|---------------------------------|--------|--------|--------|--------|


D#|--------|--------|--------|--------|--------|--------|--------|--------|--------|
A#|--------|--------|--------|--------|--------|--------|--------|--------|--------|
F#|--------|--------|--------|--------|--------|--------|--------|--------|--------|
C#|--------|--------|--------|--------|--------|--------|--------|--------|--------|
G#|--------|--------|--------|--------|--------|--------|--------|--------|--------|
D#|--------|--------|--------|--------|--------|--------|--------|--------|--------|


D#|--------|--------|--------|--------|--------|--------|--------|--------|--------|
A#|--------|--------|--------|--------|--------|--------|--------|--------|--------|
F#|--------|--------|--------|--------|--------|--------|--------|--------|--------|
C#|--------|--------|--------|--------|--------|--------|--------|--------|--------|
G#|--------|--------|--------|--------|--------|--------|--------|--------|--------|
D#|--------|--------|--------|--------|--------|--------|--------|--------|--------|


D#|--------|--------|--------|--------|--------|------------------------------|------------------------------|
A#|--------|--------|--------|--------|--------|------------------------------|------------------------------|
F#|--------|--------|--------|--------|--------|------------------------------|------------------------------|
C#|--------|--------|--------|--------|--------|-5--------5---5---5---5---5---|-7--------7---7---7---7---7---|
G#|--------|--------|--------|--------|--------|-3--------3---3---3---3---3---|-5--------5---5---5---5---5---|
D#|--------|--------|--------|--------|--------|------------------------------|------------------------------|


D#|---------------------------------|---------------------------------|---------------------------------|
A#|---------------------------------|---------------------------------|---------------------------------|
F#|---------------------------------|---------------------------------|---------------------------------|
C#|-9---9---9---9---9---9---9---9---|-5---5---5---5---5---5---5---5---|---------------------------------|
G#|-7---7---7---7---7---7---7---7---|-3---3---3---3---3---3---3---3---|-7---7---7---7---7---7---7---7---|
D#|---------------------------------|---------------------------------|-5---5---5---5---5---5---5---5---|


D#|---------------------------------|---------------------------------|---------------------------------|
A#|---------------------------------|---------------------------------|---------------------------------|
F#|---------------------------------|---------------------------------|---------------------------------|
C#|-7---7---7---7---7---7---7---7---|-12--12--12--12--12--12--12--12--|-9---9---9---9---9---9---9---9---|
G#|-5---5---5---5---5---5---5---5---|-10--10--10--10--10--10--10--10--|-7---7---7---7---7---7---7---7---|
D#|---------------------------------|---------------------------------|---------------------------------|


D#|---------------------------------|---------------------------------|--------------------------------|
A#|---------------------------------|---------------------------------|--------------------------------|
F#|---------------------------------|---------------------------------|--------------------------------|
C#|-5---5---5---5---5---5---5---5---|-7---7---7---7---7---7---7---7---|-12--12--12--12--12---11---10---|
G#|-3---3---3---3---3---3---3---3---|-5---5---5---5---5---5---5---5---|-10--10--10--10--10---9----8----|
D#|---------------------------------|---------------------------------|--------------------------------|


D#|---------------------------------|---------------------------------|--------------------|
A#|---------------------------------|---------------------------------|--------------------|
F#|---------------------------------|---------------------------------|--------------------|
C#|-9---9---9---9---9---9---9---9---|-5---5---5---5---5---5---5---5---|-7------------------|
G#|-7---7---7---7---7---7---7---7---|-3---3---3---3---3---3---3---3---|-5------------------|
D#|---------------------------------|---------------------------------|--------------------|


D#|--------|--------|--------|-----------------|--------|--------|-----------------|
A#|--------|--------|--------|-----------------|--------|--------|-----------------|
F#|--------|--------|--------|-----------------|--------|--------|-----------------|
C#|--------|--------|--------|------------12---|-12-----|-12-----|-12--------------|
G#|--------|--------|--------|------------10---|-10-----|-10-----|-10--------------|
D#|--------|--------|--------|-----------------|--------|--------|-----------------|





Track 3: noise

D#|--------|--------|--------|--------|--------|--------|--------|--------|--------|
A#|--------|--------|--------|--------|--------|--------|--------|--------|--------|
F#|--------|--------|--------|--------|--------|--------|--------|--------|--------|
C#|--------|--------|--------|--------|--------|--------|--------|--------|--------|
G#|--------|--------|--------|--------|--------|--------|--------|--------|--------|
D#|--------|--------|--------|--------|--------|--------|--------|--------|--------|


D#|--------|--------|--------|--------|--------|--------|--------|--------|--------|
A#|--------|--------|--------|--------|--------|--------|--------|--------|--------|
F#|--------|--------|--------|--------|--------|--------|--------|--------|--------|
C#|-12-----|-7------|-5------|--------|--------|--------|--------|--------|--------|
G#|-10-----|-5------|-3------|--------|--------|--------|--------|--------|--------|
D#|--------|--------|--------|--------|--------|--------|--------|--------|--------|


D#|--------|--------|--------|--------|--------|--------|--------|--------|--------|
A#|--------|--------|--------|--------|--------|--------|--------|--------|--------|
F#|--------|--------|--------|--------|--------|--------|--------|--------|--------|
C#|--------|--------|--------|--------|--------|--------|--------|--------|--------|
G#|--------|--------|--------|--------|--------|--------|--------|--------|--------|
D#|--------|--------|--------|--------|--------|--------|--------|--------|--------|


D#|--------|--------|--------|--------|--------|--------|--------|--------|--------|
A#|--------|--------|--------|--------|--------|--------|--------|--------|--------|
F#|--------|--------|--------|--------|--------|--------|--------|--------|--------|
C#|--------|--------|--------|--------|--------|--------|--------|--------|--------|
G#|--------|--------|--------|--------|--------|--------|--------|--------|--------|
D#|--------|--------|--------|--------|--------|--------|--------|--------|--------|


D#|--------|--------|--------|--------|--------|--------|--------|--------|--------|
A#|--------|--------|--------|--------|--------|--------|--------|--------|--------|
F#|--------|--------|--------|--------|--------|--------|--------|--------|--------|
C#|--------|--------|--------|--------|--------|--------|--------|--------|--------|
G#|--------|--------|--------|--------|--------|--------|--------|--------|--------|
D#|--------|--------|--------|--------|--------|--------|--------|--------|--------|


D#|--------|--------|--------|--------|--------|--------|--------|--------|--------|
A#|--------|--------|--------|--------|--------|--------|--------|--------|--------|
F#|--------|--------|--------|--------|--------|--------|--------|--------|--------|
C#|--------|--------|--------|--------|--------|--------|--------|--------|--------|
G#|--------|--------|--------|--------|--------|--------|--------|--------|--------|
D#|--------|--------|--------|--------|--------|--------|--------|--------|--------|


D#|--------|--------|--------|--------|--------|--------|--------|--------|--------|
A#|--------|--------|--------|--------|--------|--------|--------|--------|--------|
F#|--------|--------|--------|--------|--------|--------|--------|--------|--------|
C#|--------|--------|--------|--------|--------|--------|--------|--------|--------|
G#|--------|--------|--------|--------|--------|--------|--------|--------|--------|
D#|--------|--------|--------|--------|--------|--------|--------|--------|--------|


D#|--------|--------|--------|--------|--------|--------|--------|--------|--------|
A#|--------|--------|--------|--------|--------|--------|--------|--------|--------|
F#|--------|--------|--------|--------|--------|--------|--------|--------|--------|
C#|--------|--------|--------|--------|--------|--------|--------|--------|--------|
G#|--------|--------|--------|--------|--------|--------|--------|--------|--------|
D#|--------|--------|--------|--------|--------|--------|--------|--------|--------|


D#|--------|--------|--------|--------|--------|--------|--------|--------|--------|
A#|--------|--------|--------|--------|--------|--------|--------|--------|--------|
F#|--------|--------|--------|--------|--------|--------|--------|--------|--------|
C#|--------|--------|--------|--------|--------|--------|--------|--------|--------|
G#|--------|--------|--------|--------|--------|--------|--------|--------|--------|
D#|--------|--------|--------|--------|--------|--------|--------|--------|--------|


D#|--------|--------|--------|--------|--------|--------|--------|--------|--------|
A#|--------|--------|--------|--------|--------|--------|--------|--------|--------|
F#|--------|--------|--------|--------|--------|--------|--------|--------|--------|
C#|--------|--------|--------|--------|--------|--------|--------|--------|--------|
G#|--------|--------|--------|--------|--------|--------|--------|--------|--------|
D#|--------|--------|--------|--------|--------|--------|--------|--------|--------|


D#|--------|--------|--------|----------------|--------|--------|--------|--------|
A#|--------|--------|--------|----------------|--------|--------|--------|--------|
F#|--------|--------|--------|----------------|--------|--------|--------|--------|
C#|--------|--------|--------|----------------|--------|--------|--------|--------|
G#|--------|--------|--------|-12-------------|--------|--------|--------|--------|
D#|--------|--------|--------|----------------|--------|--------|--------|--------|


D#|--------|--------|--------|--------|--------|--------|--------|--------|--------|
A#|--------|--------|--------|--------|--------|--------|--------|--------|--------|
F#|--------|--------|--------|--------|--------|--------|--------|--------|--------|
C#|--------|--------|--------|--------|--------|--------|--------|--------|--------|
G#|--------|--------|--------|--------|--------|--------|--------|--------|--------|
D#|--------|--------|--------|--------|--------|--------|--------|--------|--------|


D#|--------|--------|--------|--------|--------|--------|--------|--------|--------|
A#|--------|--------|--------|--------|--------|--------|--------|--------|--------|
F#|--------|--------|--------|--------|--------|--------|--------|--------|--------|
C#|--------|--------|--------|--------|--------|--------|--------|--------|--------|
G#|--------|--------|--------|--------|--------|--------|--------|--------|--------|
D#|--------|--------|--------|--------|--------|--------|--------|--------|--------|


D#|--------|--------|--------|--------|--------|--------|--------|--------|--------|
A#|--------|--------|--------|--------|--------|--------|--------|--------|--------|
F#|--------|--------|--------|--------|--------|--------|--------|--------|--------|
C#|--------|--------|--------|--------|--------|--------|--------|--------|--------|
G#|--------|--------|--------|--------|--------|--------|--------|--------|--------|
D#|--------|--------|--------|--------|--------|--------|--------|--------|--------|


D#|--------|--------|--------|--------|--------|--------|--------|--------|--------|
A#|--------|--------|--------|--------|--------|--------|--------|--------|--------|
F#|--------|--------|--------|--------|--------|--------|--------|--------|--------|
C#|--------|--------|--------|--------|--------|--------|--------|--------|--------|
G#|--------|--------|--------|--------|--------|--------|--------|--------|--------|
D#|--------|--------|--------|--------|--------|--------|--------|--------|--------|


D#|--------|--------|--------|--------|--------|--------|--------|
A#|--------|--------|--------|--------|--------|--------|--------|
F#|--------|--------|--------|--------|--------|--------|--------|
C#|--------|--------|--------|--------|--------|--------|--------|
G#|--------|--------|--------|--------|--------|--------|--------|
D#|--------|--------|--------|--------|--------|--------|--------|





Track 4: G L

D#|--------|--------|--------|--------|--------|--------|--------|--------|--------|
A#|--------|--------|--------|--------|--------|--------|--------|--------|--------|
F#|--------|--------|--------|--------|--------|--------|--------|--------|--------|
C#|--------|--------|--------|--------|--------|--------|--------|--------|--------|
G#|--------|--------|--------|--------|--------|--------|--------|--------|--------|
D#|--------|--------|--------|--------|--------|--------|--------|--------|--------|


D#|--------|--------|--------|--------|--------|--------|--------|--------|--------|
A#|--------|--------|--------|--------|--------|--------|--------|--------|--------|
F#|-12-----|-12-----|-12-----|--------|--------|--------|--------|--------|--------|
C#|-12-----|-12-----|-12-----|--------|--------|--------|--------|--------|--------|
G#|-10-----|-10-----|-10-----|--------|--------|--------|--------|--------|--------|
D#|--------|--------|--------|--------|--------|--------|--------|--------|--------|


D#|--------|--------|--------|--------|--------|--------|--------|--------|--------|
A#|--------|--------|--------|--------|--------|--------|--------|--------|--------|
F#|--------|--------|--------|--------|--------|--------|--------|--------|--------|
C#|--------|--------|--------|--------|--------|--------|--------|--------|--------|
G#|--------|--------|--------|--------|--------|--------|--------|--------|--------|
D#|--------|--------|--------|--------|--------|--------|--------|--------|--------|


D#|--------|--------|--------|--------|--------|--------|--------|--------|--------|
A#|--------|--------|--------|--------|--------|--------|--------|--------|--------|
F#|--------|--------|--------|--------|--------|--------|--------|--------|--------|
C#|--------|--------|--------|--------|--------|--------|--------|--------|--------|
G#|--------|--------|--------|--------|--------|--------|--------|--------|--------|
D#|--------|--------|--------|--------|--------|--------|--------|--------|--------|


D#|--------|--------|--------|--------|--------|--------|--------|--------|--------|
A#|--------|--------|--------|--------|--------|--------|--------|--------|--------|
F#|--------|--------|--------|--------|--------|--------|--------|--------|--------|
C#|--------|--------|--------|--------|--------|--------|--------|--------|--------|
G#|--------|--------|--------|--------|--------|--------|--------|--------|--------|
D#|--------|--------|--------|--------|--------|--------|--------|--------|--------|


D#|--------|--------|--------|--------|--------|--------|--------|--------|--------|
A#|--------|--------|--------|--------|--------|--------|--------|--------|--------|
F#|--------|--------|--------|--------|--------|--------|--------|--------|--------|
C#|--------|--------|--------|--------|--------|--------|--------|--------|--------|
G#|--------|--------|--------|--------|--------|--------|--------|--------|--------|
D#|--------|--------|--------|--------|--------|--------|--------|--------|--------|


D#|--------|--------|--------|--------|--------|--------|--------|--------|--------|
A#|--------|--------|--------|--------|--------|--------|--------|--------|--------|
F#|--------|--------|--------|--------|--------|--------|--------|--------|--------|
C#|--------|--------|--------|--------|--------|--------|--------|--------|--------|
G#|--------|--------|--------|--------|--------|--------|--------|--------|--------|
D#|--------|--------|--------|--------|--------|--------|--------|--------|--------|


D#|--------|--------|--------|--------|--------|--------|--------|--------|--------|
A#|--------|--------|--------|--------|--------|--------|--------|--------|--------|
F#|--------|--------|--------|--------|--------|--------|--------|--------|--------|
C#|--------|--------|--------|--------|--------|--------|--------|--------|--------|
G#|--------|--------|--------|--------|--------|--------|--------|--------|--------|
D#|--------|--------|--------|--------|--------|--------|--------|--------|--------|


D#|--------|--------|--------|--------|--------|--------|--------|--------|--------|
A#|--------|--------|--------|--------|--------|--------|--------|--------|--------|
F#|--------|--------|--------|--------|--------|--------|--------|--------|--------|
C#|--------|--------|--------|--------|--------|--------|--------|--------|--------|
G#|--------|--------|--------|--------|--------|--------|--------|--------|--------|
D#|--------|--------|--------|--------|--------|--------|--------|--------|--------|


D#|--------|--------|--------|--------|--------|--------|--------|--------|--------|
A#|--------|--------|--------|--------|--------|--------|--------|--------|--------|
F#|--------|--------|--------|--------|--------|--------|--------|--------|--------|
C#|--------|--------|--------|--------|--------|--------|--------|--------|--------|
G#|--------|--------|--------|--------|--------|--------|--------|--------|--------|
D#|--------|--------|--------|--------|--------|--------|--------|--------|--------|


D#|--------|--------|--------|--------|--------|--------|--------|--------|--------|
A#|--------|--------|--------|--------|--------|--------|--------|--------|--------|
F#|--------|--------|--------|--------|--------|--------|--------|--------|--------|
C#|--------|--------|--------|--------|--------|--------|--------|--------|--------|
G#|--------|--------|--------|--------|--------|--------|--------|--------|--------|
D#|--------|--------|--------|--------|--------|--------|--------|--------|--------|


D#|--------|--------|--------|--------|--------|--------|--------|--------|--------|
A#|--------|--------|--------|--------|--------|--------|--------|--------|--------|
F#|--------|--------|--------|--------|--------|--------|--------|--------|--------|
C#|--------|--------|--------|--------|--------|--------|--------|--------|--------|
G#|--------|--------|--------|--------|--------|--------|--------|--------|--------|
D#|--------|--------|--------|--------|--------|--------|--------|--------|--------|


D#|--------|--------|--------|--------|--------|--------|--------|--------|--------|
A#|--------|--------|--------|--------|--------|--------|--------|--------|--------|
F#|--------|--------|--------|--------|--------|--------|--------|--------|--------|
C#|--------|--------|--------|--------|--------|--------|--------|--------|--------|
G#|--------|--------|--------|--------|--------|--------|--------|--------|--------|
D#|--------|--------|--------|--------|--------|--------|--------|--------|--------|


D#|--------|--------|--------|--------|--------|--------|--------|--------|--------|
A#|--------|--------|--------|--------|--------|--------|--------|--------|--------|
F#|--------|--------|--------|--------|--------|--------|--------|--------|--------|
C#|--------|--------|--------|--------|--------|--------|--------|--------|--------|
G#|--------|--------|--------|--------|--------|--------|--------|--------|--------|
D#|--------|--------|--------|--------|--------|--------|--------|--------|--------|


D#|--------|--------|--------|--------|--------|--------|--------|--------|--------|
A#|--------|--------|--------|--------|--------|--------|--------|--------|--------|
F#|--------|--------|--------|--------|--------|--------|--------|--------|--------|
C#|--------|--------|--------|--------|--------|--------|--------|--------|--------|
G#|--------|--------|--------|--------|--------|--------|--------|--------|--------|
D#|--------|--------|--------|--------|--------|--------|--------|--------|--------|


D#|--------|--------|--------|--------|--------|--------|
A#|--------|--------|--------|--------|--------|--------|
F#|--------|--------|--------|--------|--------|--------|
C#|--------|--------|--------|--------|--------|--------|
G#|--------|--------|--------|--------|--------|--------|
D#|--------|--------|--------|--------|--------|--------|





Track 5: G L

D#|--------|--------|--------|--------|--------|--------|--------|--------|--------|
A#|--------|--------|--------|--------|--------|--------|--------|--------|--------|
F#|--------|--------|--------|--------|--------|--------|--------|--------|--------|
C#|--------|--------|--------|--------|--------|--------|--------|--------|--------|
G#|--------|--------|--------|--------|--------|--------|--------|--------|--------|
D#|--------|--------|--------|--------|--------|--------|--------|--------|--------|


D#|--------|--------|--------|--------|--------|--------|--------|--------|--------|
A#|--------|--------|--------|--------|--------|--------|--------|--------|--------|
F#|--------|--------|--------|--------|--------|--------|--------|--------|--------|
C#|--------|--------|--------|--------|--------|--------|--------|--------|--------|
G#|--------|--------|--------|--------|--------|--------|--------|--------|--------|
D#|--------|--------|--------|--------|--------|--------|--------|--------|--------|


D#|--------|--------|--------|--------|--------|--------|--------|--------|-------------|
A#|--------|--------|--------|--------|--------|--------|--------|--------|-------------|
F#|--------|--------|--------|--------|--------|--------|--------|--------|-------------|
C#|--------|--------|--------|--------|--------|--------|--------|--------|-------------|
G#|--------|--------|--------|--------|--------|--------|--------|--------|-------------|
D#|--------|--------|--------|--------|--------|--------|--------|--------|-------------|


D#|--------|--------|--------|--------|--------|--------|--------|--------|--------|
A#|--------|--------|--------|--------|--------|--------|--------|--------|--------|
F#|--------|--------|--------|--------|--------|--------|--------|--------|--------|
C#|--------|--------|--------|--------|--------|--------|--------|--------|--------|
G#|--------|--------|--------|--------|--------|--------|--------|--------|--------|
D#|--------|--------|--------|--------|--------|--------|--------|--------|--------|


D#|--------|--------|--------|--------|--------|--------|--------|--------|--------|
A#|--------|--------|--------|--------|--------|--------|--------|--------|--------|
F#|--------|--------|--------|--------|--------|--------|--------|--------|--------|
C#|--------|--------|--------|--------|--------|--------|--------|--------|--------|
G#|--------|--------|--------|--------|--------|--------|--------|--------|--------|
D#|--------|--------|--------|--------|--------|--------|--------|--------|--------|


D#|--------|--------|--------|--------|--------|--------|--------|--------|--------|
A#|--------|--------|--------|--------|--------|--------|--------|--------|--------|
F#|--------|--------|--------|--------|--------|--------|--------|--------|--------|
C#|--------|--------|--------|--------|--------|--------|--------|--------|--------|
G#|--------|--------|--------|--------|--------|--------|--------|--------|--------|
D#|--------|--------|--------|--------|--------|--------|--------|--------|--------|


D#|--------|--------|--------|--------|--------|--------|--------|--------|--------|
A#|--------|--------|--------|--------|--------|--------|--------|--------|--------|
F#|--------|--------|--------|--------|--------|--------|--------|--------|--------|
C#|--------|--------|--------|--------|--------|--------|--------|--------|--------|
G#|--------|--------|--------|--------|--------|--------|--------|--------|--------|
D#|--------|--------|--------|--------|--------|--------|--------|--------|--------|


D#|--------|--------|--------|--------|--------|--------|--------|--------|--------|
A#|--------|--------|--------|--------|--------|--------|--------|--------|--------|
F#|--------|--------|--------|--------|--------|--------|--------|--------|--------|
C#|--------|--------|--------|--------|--------|--------|--------|--------|--------|
G#|--------|--------|--------|--------|--------|--------|--------|--------|--------|
D#|--------|--------|--------|--------|--------|--------|--------|--------|--------|


D#|--------|--------|--------|--------|--------|--------|--------|--------|--------|
A#|--------|--------|--------|--------|--------|--------|--------|--------|--------|
F#|--------|--------|--------|--------|--------|--------|--------|--------|--------|
C#|--------|--------|--------|--------|--------|--------|--------|--------|--------|
G#|--------|--------|--------|--------|--------|--------|--------|--------|--------|
D#|--------|--------|--------|--------|--------|--------|--------|--------|--------|


D#|--------|--------|--------|--------|--------|--------|--------|--------|--------|
A#|--------|--------|--------|--------|--------|--------|--------|--------|--------|
F#|--------|--------|--------|--------|--------|--------|--------|--------|--------|
C#|--------|--------|--------|--------|--------|--------|--------|--------|--------|
G#|--------|--------|--------|--------|--------|--------|--------|--------|--------|
D#|--------|--------|--------|--------|--------|--------|--------|--------|--------|


D#|--------|--------|--------|--------|--------|--------|--------|--------|--------|
A#|--------|--------|--------|--------|--------|--------|--------|--------|--------|
F#|--------|--------|--------|--------|--------|--------|--------|--------|--------|
C#|--------|--------|--------|--------|--------|--------|--------|--------|--------|
G#|--------|--------|--------|--------|--------|--------|--------|--------|--------|
D#|--------|--------|--------|--------|--------|--------|--------|--------|--------|


D#|--------|--------|--------|--------|--------|--------|--------|--------|--------|
A#|--------|--------|--------|--------|--------|--------|--------|--------|--------|
F#|--------|--------|--------|--------|--------|--------|--------|--------|--------|
C#|--------|--------|--------|--------|--------|--------|--------|--------|--------|
G#|--------|--------|--------|--------|--------|--------|--------|--------|--------|
D#|--------|--------|--------|--------|--------|--------|--------|--------|--------|


D#|--------|--------|--------|--------|--------|--------|--------|--------|--------|
A#|--------|--------|--------|--------|--------|--------|--------|--------|--------|
F#|--------|--------|--------|--------|--------|--------|--------|--------|--------|
C#|--------|--------|--------|--------|--------|--------|--------|--------|--------|
G#|--------|--------|--------|--------|--------|--------|--------|--------|--------|
D#|--------|--------|--------|--------|--------|--------|--------|--------|--------|


D#|--------|--------|--------|--------|--------|--------|--------|--------|--------|
A#|--------|--------|--------|--------|--------|--------|--------|--------|--------|
F#|--------|--------|--------|--------|--------|--------|--------|--------|--------|
C#|--------|--------|--------|--------|--------|--------|--------|--------|--------|
G#|--------|--------|--------|--------|--------|--------|--------|--------|--------|
D#|--------|--------|--------|--------|--------|--------|--------|--------|--------|


D#|--------|--------|--------|--------|--------|--------|--------|--------|--------|
A#|--------|--------|--------|--------|--------|--------|--------|--------|--------|
F#|--------|--------|--------|--------|--------|--------|--------|--------|--------|
C#|--------|--------|--------|--------|--------|--------|--------|--------|--------|
G#|--------|--------|--------|--------|--------|--------|--------|--------|--------|
D#|--------|--------|--------|--------|--------|--------|--------|--------|--------|


D#|--------|--------|--------|--------|--------|--------|
A#|--------|--------|--------|--------|--------|--------|
F#|--------|--------|--------|--------|--------|--------|
C#|--------|--------|--------|--------|--------|--------|
G#|--------|--------|--------|--------|--------|--------|
D#|--------|--------|--------|--------|--------|--------|





Track 6: Fill  Guitar

D#|--------|--------|--------|--------|--------|--------|--------|--------|--------|
A#|--------|--------|--------|--------|--------|--------|--------|--------|--------|
F#|--------|--------|--------|--------|--------|--------|--------|--------|--------|
C#|--------|--------|--------|--------|--------|--------|--------|--------|--------|
G#|--------|--------|--------|--------|--------|--------|--------|--------|--------|
D#|--------|--------|--------|--------|--------|--------|--------|--------|--------|


D#|--------|--------|--------|--------|--------|--------|--------|--------|--------|
A#|--------|--------|--------|--------|--------|--------|--------|--------|--------|
F#|--------|--------|--------|--------|--------|--------|--------|--------|--------|
C#|--------|--------|--------|--------|--------|--------|--------|--------|--------|
G#|--------|--------|--------|--------|--------|--------|--------|--------|--------|
D#|--------|--------|--------|--------|--------|--------|--------|--------|--------|


D#|--------|--------|--------|--------|--------|--------|--------|--------|--------------10-----------|
A#|--------|--------|--------|--------|--------|--------|--------|--------|---------------------------|
F#|--------|--------|--------|--------|--------|--------|--------|--------|------10--11---------------|
C#|--------|--------|--------|--------|--------|--------|--------|--------|---------------------------|
G#|--------|--------|--------|--------|--------|--------|--------|--------|---------------------------|
D#|--------|--------|--------|--------|--------|--------|--------|--------|---------------------------|


D#|------------------------------|--------|--------|--------|--------|--------|--------|
A#|------------------------------|--------|--------|--------|--------|--------|--------|
F#|------10--11------------------|--------|--------|--------|--------|--------|--------|
C#|--------------12--12--12------|--------|--------|--------|--------|--------|--------|
G#|------------------------------|--------|--------|--------|--------|--------|--------|
D#|------------------------------|--------|--------|--------|--------|--------|--------|


D#|--------|--------|--------|--------|--------|--------|--------|--------|--------|
A#|--------|--------|--------|--------|--------|--------|--------|--------|--------|
F#|--------|--------|--------|--------|--------|--------|--------|--------|--------|
C#|--------|--------|--------|--------|--------|--------|--------|--------|--------|
G#|--------|--------|--------|--------|--------|--------|--------|--------|--------|
D#|--------|--------|--------|--------|--------|--------|--------|--------|--------|


D#|--------|--------|--------|--------|--------|--------|--------|--------|--------|
A#|--------|--------|--------|--------|--------|--------|--------|--------|--------|
F#|--------|--------|--------|--------|--------|--------|--------|--------|--------|
C#|--------|--------|--------|--------|--------|--------|--------|--------|--------|
G#|--------|--------|--------|--------|--------|--------|--------|--------|--------|
D#|--------|--------|--------|--------|--------|--------|--------|--------|--------|


D#|--------|--------|--------|--------|--------|--------|--------|--------|--------|
A#|--------|--------|--------|--------|--------|--------|--------|--------|--------|
F#|--------|--------|--------|--------|--------|--------|--------|--------|--------|
C#|--------|--------|--------|--------|--------|--------|--------|--------|--------|
G#|--------|--------|--------|--------|--------|--------|--------|--------|--------|
D#|--------|--------|--------|--------|--------|--------|--------|--------|--------|


D#|--------|--------|--------|--------|--------|--------|--------|--------|--------|
A#|--------|--------|--------|--------|--------|--------|--------|--------|--------|
F#|--------|--------|--------|--------|--------|--------|--------|--------|--------|
C#|--------|--------|--------|--------|--------|--------|--------|--------|--------|
G#|--------|--------|--------|--------|--------|--------|--------|--------|--------|
D#|--------|--------|--------|--------|--------|--------|--------|--------|--------|


D#|--------|--------|--------|--------|--------|--------|--------|--------|--------|
A#|--------|--------|--------|--------|--------|--------|--------|--------|--------|
F#|--------|--------|--------|--------|--------|--------|--------|--------|--------|
C#|--------|--------|--------|--------|--------|--------|--------|--------|--------|
G#|--------|--------|--------|--------|--------|--------|--------|--------|--------|
D#|--------|--------|--------|--------|--------|--------|--------|--------|--------|


D#|--------|--------|--------|--------|--------|--------|--------|--------|--------|
A#|--------|--------|--------|--------|--------|--------|--------|--------|--------|
F#|--------|--------|--------|--------|--------|--------|--------|--------|--------|
C#|--------|--------|--------|--------|--------|--------|--------|--------|--------|
G#|--------|--------|--------|--------|--------|--------|--------|--------|--------|
D#|--------|--------|--------|--------|--------|--------|--------|--------|--------|


D#|--------|--------|--------|--------|--------|----------------|---------------------------------|
A#|--------|--------|--------|--------|--------|------------5---|-5---5---3---3---1---0-------5---|
F#|--------|--------|--------|--------|--------|------------5---|-5---5---4---4---2---0-------5---|
C#|--------|--------|--------|--------|--------|----------------|---------------------------------|
G#|--------|--------|--------|--------|--------|----------------|---------------------------------|
D#|--------|--------|--------|--------|--------|----------------|---------------------------------|


D#|---------------------------------|---------------------------------|---------------------------------|
A#|-5---5---3---3---1---0-------12--|-12--12--10--10--8---8---7---7---|-5---5---3---3---1---0---0---5---|
F#|-5---5---4---4---2---0-------12--|-12--12--11--11--9---9---7---7---|-5---5---4---4---2---0---0---5---|
C#|---------------------------------|---------------------------------|---------------------------------|
G#|---------------------------------|---------------------------------|---------------------------------|
D#|---------------------------------|---------------------------------|---------------------------------|


D#|---------------------------------|---------------------------------|-------------------------------------------------|
A#|-5---5---3---3---1---0-------5---|-5---5---3---3---1---0---0-------|-5---5---5---5---5---5---7---7---7---7---7---7---|
F#|-5---5---4---4---2---0-------5---|-5---5---4---4---2---0---0-------|-5---5---5---5---5---5---7---7---7---7---7---7---|
C#|---------------------------------|---------------------------------|-------------------------------------------------|
G#|---------------------------------|---------------------------------|-------------------------------------------------|
D#|---------------------------------|---------------------------------|-------------------------------------------------|


D#|-------------------------------------------------|-----8-------8---8-----------8---|
A#|-8---8---8---8---8---8---12--12--12--12--12--12--|-----8-------8---8---------------|
F#|-9---9---9---9---9---9---12--12--12--12--12--12--|-10------10----------10--8-------|
C#|-------------------------------------------------|---------------------------------|
G#|-------------------------------------------------|---------------------------------|
D#|-------------------------------------------------|---------------------------------|


D#|---------8-----------8-----------|-3---2---0---------------------------------------|
A#|-----8-----------8---------------|-------------3---2---0---------------------------|
F#|-10----------10----------10--9---|-------------------------4---2---0---------------|
C#|---------------------------------|-------------------------------------4---2---0---|
G#|---------------------------------|-------------------------------------------------|
D#|---------------------------------|-------------------------------------------------|


D#|-------------------------------------------------|---------------------------------|
A#|-------------------------------------------------|---------------------------------|
F#|-4---2---0---------------------------------------|---------------------------------|
C#|-------------4---2---0---------------------------|-7---7---9---9---10--10--11--11--|
G#|-------------------------3---2---0---------------|---------------------------------|
D#|-------------------------------------3---2---0---|---------------------------------|


D#|---------------------------------|------------15-15-|-15---------------|-------------------------------|
A#|---------------------------------|------------------|------------15-15-|-15----------------------------|
F#|-----14--14--12--14--14--12--12--|-12---------------|------------------|----------12-12-12-------------|
C#|-12------------------------------|------------------|------------------|-------------------------12-12-|
G#|---------------------------------|------------------|------------------|-------------------------------|
D#|---------------------------------|------------------|------------------|-------------------------------|


D#|----------------------|--------|--------|--------|--------|--------|--------|--------|
A#|----------------------|--------|--------|--------|--------|--------|--------|--------|
F#|----------------------|--------|--------|--------|--------|--------|--------|--------|
C#|-12-------------------|--------|--------|--------|--------|--------|--------|--------|
G#|----------10-10-10----|--------|--------|--------|--------|--------|--------|--------|
D#|----------------------|--------|--------|--------|--------|--------|--------|--------|


D#|--------|--------|--------|--------|--------|--------|--------|---------15----------15-------|
A#|--------|--------|--------|--------|--------|--------|--------|-----15----------15-----------|
F#|--------|--------|--------|--------|--------|--------|--------|-17----------17----------17---|
C#|--------|--------|--------|--------|--------|--------|--------|------------------------------|
G#|--------|--------|--------|--------|--------|--------|--------|------------------------------|
D#|--------|--------|--------|--------|--------|--------|--------|------------------------------|


D#|--------|--------|--------|-17----17------17------15------|-14--15--14-------------|
A#|--------|--------|--------|-------------------------------|-------------15---15----|
F#|-19-----|--------|--------|-------------------------------|------------------------|
C#|--------|--------|--------|-------------------------------|------------------------|
G#|--------|--------|--------|-------------------------------|------------------------|
D#|--------|--------|--------|-------------------------------|------------------------|


D#|--------|--------|--------|--------|--------|--------|-----15-----------15-----------15-----------15-------|
A#|--------|--------|--------|--------|--------|--------|--------18-15--------18-15--------18-15--------18-15-|
F#|--------|--------|--------|--------|--------|--------|-17-----------17-----------17-----------17-----------|
C#|--------|--------|--------|--------|--------|--------|-----------------------------------------------------|
G#|--------|--------|--------|--------|--------|--------|-----------------------------------------------------|
D#|--------|--------|--------|--------|--------|--------|-----------------------------------------------------|


D#|-----15-----------15-20-20----|--------|
A#|--------18-15-----------------|--------|
F#|-17-----------17--------------|--------|
C#|------------------------------|--------|
G#|------------------------------|--------|
D#|------------------------------|--------|





Track 7: G L

D#|--------|--------|--------|--------|--------|--------|--------|--------|--------|
A#|--------|--------|--------|--------|--------|--------|--------|--------|--------|
F#|--------|--------|--------|--------|--------|--------|--------|--------|--------|
C#|--------|--------|--------|--------|--------|--------|--------|--------|--------|
G#|--------|--------|--------|--------|--------|--------|--------|--------|--------|
D#|--------|--------|--------|--------|--------|--------|--------|--------|--------|


D#|--------|--------|--------|--------|--------|--------|--------|--------|--------|
A#|--------|--------|--------|--------|--------|--------|--------|--------|--------|
F#|--------|--------|--------|--------|--------|--------|--------|--------|--------|
C#|--------|--------|--------|--------|--------|--------|--------|--------|--------|
G#|--------|--------|--------|--------|--------|--------|--------|--------|--------|
D#|--------|--------|--------|--------|--------|--------|--------|--------|--------|


D#|--------|--------|--------|--------|--------|--------|--------|--------|--------|
A#|--------|--------|--------|--------|--------|--------|--------|--------|--------|
F#|--------|--------|--------|--------|--------|--------|--------|--------|--------|
C#|--------|--------|--------|--------|--------|--------|--------|--------|--------|
G#|--------|--------|--------|--------|--------|--------|--------|--------|--------|
D#|--------|--------|--------|--------|--------|--------|--------|--------|--------|


D#|--------|--------|--------|--------|--------|--------|--------|--------|--------|
A#|--------|--------|--------|--------|--------|--------|--------|--------|--------|
F#|--------|--------|--------|--------|--------|--------|--------|--------|--------|
C#|--------|--------|--------|--------|--------|--------|--------|--------|--------|
G#|--------|--------|--------|--------|--------|--------|--------|--------|--------|
D#|--------|--------|--------|--------|--------|--------|--------|--------|--------|


D#|--------|--------|--------|--------|--------|--------|--------|--------|--------|
A#|--------|--------|--------|--------|--------|--------|--------|--------|--------|
F#|--------|--------|--------|--------|--------|--------|--------|--------|--------|
C#|--------|--------|--------|--------|--------|--------|--------|--------|--------|
G#|--------|--------|--------|--------|--------|--------|--------|--------|--------|
D#|--------|--------|--------|--------|--------|--------|--------|--------|--------|


D#|--------|--------|--------|--------|--------|--------|--------|--------|--------|
A#|--------|--------|--------|--------|--------|--------|--------|--------|--------|
F#|--------|--------|--------|--------|--------|--------|--------|--------|--------|
C#|--------|--------|--------|--------|--------|--------|--------|--------|--------|
G#|--------|--------|--------|--------|--------|--------|--------|--------|--------|
D#|--------|--------|--------|--------|--------|--------|--------|--------|--------|


D#|--------|--------|--------|--------|--------|--------|--------|--------|--------|
A#|--------|--------|--------|--------|--------|--------|--------|--------|--------|
F#|--------|--------|--------|--------|--------|--------|--------|--------|--------|
C#|--------|--------|--------|--------|--------|--------|--------|--------|--------|
G#|--------|--------|--------|--------|--------|--------|--------|--------|--------|
D#|--------|--------|--------|--------|--------|--------|--------|--------|--------|


D#|--------|--------|--------|--------|--------|--------|--------|--------|--------|
A#|--------|--------|--------|--------|--------|--------|--------|--------|--------|
F#|--------|--------|--------|--------|--------|--------|--------|--------|--------|
C#|--------|--------|--------|--------|--------|--------|--------|--------|--------|
G#|--------|--------|--------|--------|--------|--------|--------|--------|--------|
D#|--------|--------|--------|--------|--------|--------|--------|--------|--------|


D#|--------|--------|--------|--------|--------|--------|--------|--------|--------|
A#|--------|--------|--------|--------|--------|--------|--------|--------|--------|
F#|--------|--------|--------|--------|--------|--------|--------|--------|--------|
C#|--------|--------|--------|--------|--------|--------|--------|--------|--------|
G#|--------|--------|--------|--------|--------|--------|--------|--------|--------|
D#|--------|--------|--------|--------|--------|--------|--------|--------|--------|


D#|--------|--------|--------|--------|--------|--------|--------|--------|--------|
A#|--------|--------|--------|--------|--------|--------|--------|--------|--------|
F#|--------|--------|--------|--------|--------|--------|--------|--------|--------|
C#|--------|--------|--------|--------|--------|--------|--------|--------|--------|
G#|--------|--------|--------|--------|--------|--------|--------|--------|--------|
D#|--------|--------|--------|--------|--------|--------|--------|--------|--------|


D#|--------|--------|--------|---------------------------------|--------|--------|
A#|--------|--------|--------|---------------------------------|--------|--------|
F#|--------|--------|--------|---------------------------------|--------|--------|
C#|--------|--------|--------|-7---7---7---7---7---7---7-------|--------|--------|
G#|--------|--------|--------|-5---5---5---5---5---5---5-------|--------|--------|
D#|--------|--------|--------|---------------------------------|--------|--------|


D#|--------|--------|--------|--------|--------|--------|--------|--------|--------|
A#|--------|--------|--------|--------|--------|--------|--------|--------|--------|
F#|--------|--------|--------|--------|--------|--------|--------|--------|--------|
C#|--------|--------|--------|--------|--------|--------|--------|--------|--------|
G#|--------|--------|--------|--------|--------|--------|--------|--------|--------|
D#|--------|--------|--------|--------|--------|--------|--------|--------|--------|


D#|--------|--------|--------|--------|--------|--------|--------|--------|--------|
A#|--------|--------|--------|--------|--------|--------|--------|--------|--------|
F#|--------|--------|--------|--------|--------|--------|--------|--------|--------|
C#|--------|--------|--------|--------|--------|--------|--------|--------|--------|
G#|--------|--------|--------|--------|--------|--------|--------|--------|--------|
D#|--------|--------|--------|--------|--------|--------|--------|--------|--------|


D#|--------|--------|--------|--------|--------|--------|--------|--------|--------|
A#|--------|--------|--------|--------|--------|--------|--------|--------|--------|
F#|--------|--------|--------|--------|--------|--------|--------|--------|--------|
C#|--------|--------|--------|--------|--------|--------|--------|--------|--------|
G#|--------|--------|--------|--------|--------|--------|--------|--------|--------|
D#|--------|--------|--------|--------|--------|--------|--------|--------|--------|


D#|--------|--------|--------|--------|--------|--------|--------|--------|--------|
A#|--------|--------|--------|--------|--------|--------|--------|--------|--------|
F#|--------|--------|--------|--------|--------|--------|--------|--------|--------|
C#|--------|--------|--------|--------|--------|--------|--------|--------|--------|
G#|--------|--------|--------|--------|--------|--------|--------|--------|--------|
D#|--------|--------|--------|--------|--------|--------|--------|--------|--------|


D#|--------|--------|--------|--------|--------|--------|--------|--------|--------|
A#|--------|--------|--------|--------|--------|--------|--------|--------|--------|
F#|--------|--------|--------|--------|--------|--------|--------|--------|--------|
C#|--------|--------|--------|--------|--------|--------|--------|--------|--------|
G#|--------|--------|--------|--------|--------|--------|--------|--------|--------|
D#|--------|--------|--------|--------|--------|--------|--------|--------|--------|





Track 8: G L

D#|--------|--------|--------|--------|--------|--------|--------|--------|--------|
A#|--------|--------|--------|--------|--------|--------|--------|--------|--------|
F#|--------|--------|--------|--------|--------|--------|--------|--------|--------|
C#|--------|--------|--------|--------|--------|--------|--------|--------|--------|
G#|--------|--------|--------|--------|--------|--------|--------|--------|--------|
D#|--------|--------|--------|--------|--------|--------|--------|--------|--------|


D#|--------|--------|--------|--------|--------|--------|--------|--------|--------|
A#|--------|--------|--------|--------|--------|--------|--------|--------|--------|
F#|--------|--------|--------|--------|--------|--------|--------|--------|--------|
C#|--------|--------|--------|--------|--------|--------|--------|--------|--------|
G#|--------|--------|--------|--------|--------|--------|--------|--------|--------|
D#|--------|--------|--------|--------|--------|--------|--------|--------|--------|


D#|--------|--------|--------|--------|--------|--------|--------|--------|--------|
A#|--------|--------|--------|--------|--------|--------|--------|--------|--------|
F#|--------|--------|--------|--------|--------|--------|--------|--------|--------|
C#|--------|--------|--------|--------|--------|--------|--------|--------|--------|
G#|--------|--------|--------|--------|--------|--------|--------|--------|--------|
D#|--------|--------|--------|--------|--------|--------|--------|--------|--------|


D#|--------|--------|--------|--------|--------|--------|--------|--------|--------|
A#|--------|--------|--------|--------|--------|--------|--------|--------|--------|
F#|--------|--------|--------|--------|--------|--------|--------|--------|--------|
C#|--------|--------|--------|--------|--------|--------|--------|--------|--------|
G#|--------|--------|--------|--------|--------|--------|--------|--------|--------|
D#|--------|--------|--------|--------|--------|--------|--------|--------|--------|


D#|--------|--------|--------|--------|--------|--------|--------|--------|--------|
A#|--------|--------|--------|--------|--------|--------|--------|--------|--------|
F#|--------|--------|--------|--------|--------|--------|--------|--------|--------|
C#|--------|--------|--------|--------|--------|--------|--------|--------|--------|
G#|--------|--------|--------|--------|--------|--------|--------|--------|--------|
D#|--------|--------|--------|--------|--------|--------|--------|--------|--------|


D#|--------|--------|--------|--------|--------|--------|--------|--------|--------|
A#|--------|--------|--------|--------|--------|--------|--------|--------|--------|
F#|--------|--------|--------|--------|--------|--------|--------|--------|--------|
C#|--------|--------|--------|--------|--------|--------|--------|--------|--------|
G#|--------|--------|--------|--------|--------|--------|--------|--------|--------|
D#|--------|--------|--------|--------|--------|--------|--------|--------|--------|


D#|--------|--------|--------|--------|--------|--------|--------|--------|--------|
A#|--------|--------|--------|--------|--------|--------|--------|--------|--------|
F#|--------|--------|--------|--------|--------|--------|--------|--------|--------|
C#|--------|--------|--------|--------|--------|--------|--------|--------|--------|
G#|--------|--------|--------|--------|--------|--------|--------|--------|--------|
D#|--------|--------|--------|--------|--------|--------|--------|--------|--------|


D#|--------|--------|--------|--------|--------|--------|--------|--------|--------|
A#|--------|--------|--------|--------|--------|--------|--------|--------|--------|
F#|--------|--------|--------|--------|--------|--------|--------|--------|--------|
C#|--------|--------|--------|--------|--------|--------|--------|--------|--------|
G#|--------|--------|--------|--------|--------|--------|--------|--------|--------|
D#|--------|--------|--------|--------|--------|--------|--------|--------|--------|


D#|--------|--------|--------|--------|--------|--------|--------|--------|--------|
A#|--------|--------|--------|--------|--------|--------|--------|--------|--------|
F#|--------|--------|--------|--------|--------|--------|--------|--------|--------|
C#|--------|--------|--------|--------|--------|--------|--------|--------|--------|
G#|--------|--------|--------|--------|--------|--------|--------|--------|--------|
D#|--------|--------|--------|--------|--------|--------|--------|--------|--------|


D#|--------|--------|--------|--------|--------|--------|--------|--------|--------|
A#|--------|--------|--------|--------|--------|--------|--------|--------|--------|
F#|--------|--------|--------|--------|--------|--------|--------|--------|--------|
C#|--------|--------|--------|--------|--------|--------|--------|--------|--------|
G#|--------|--------|--------|--------|--------|--------|--------|--------|--------|
D#|--------|--------|--------|--------|--------|--------|--------|--------|--------|


D#|--------|--------|--------|----------------|---------------------------------|---------------------------------|
A#|--------|--------|--------|----------------|---------------------------------|---------------------------------|
F#|--------|--------|--------|----------------|---------------------------------|---------------------------------|
C#|--------|--------|--------|------------7---|-5---5---5---5---5---5---5---5---|-5---5---5---5---5---5---5---5---|
G#|--------|--------|--------|------------5---|-3---3---3---3---3---3---3---3---|-3---3---3---3---3---3---3---3---|
D#|--------|--------|--------|----------------|---------------------------------|---------------------------------|


D#|---------------------------------|---------------------------------|---------------------------------|
A#|---------------------------------|---------------------------------|---------------------------------|
F#|---------------------------------|---------------------------------|---------------------------------|
C#|---------------------------------|---------------------------------|-5---5---5---5---5---5---5---5---|
G#|-5---5---5---5---5---5---5---5---|-5---5---5---5---5---5---5---5---|-3---3---3---3---3---3---3---3---|
D#|-3---3---3---3---3---3---3---3---|-3---3---3---3---3---3---3---3---|---------------------------------|


D#|---------------------------------|---------------------------------|---------------------------------|
A#|---------------------------------|---------------------------------|---------------------------------|
F#|---------------------------------|---------------------------------|---------------------------------|
C#|-5---5---5---5---5---5---5---5---|-7---7---7---7---7---7---7---7---|-7---7---7---7---7---7---7---7---|
G#|-3---3---3---3---3---3---3---3---|-5---5---5---5---5---5---5---5---|-5---5---5---5---5---5---5---5---|
D#|---------------------------------|---------------------------------|---------------------------------|


D#|---------------------------------|---------------------------------|---------------------------------|
A#|---------------------------------|---------------------------------|---------------------------------|
F#|---------------------------------|---------------------------------|---------------------------------|
C#|-5---5---5---5---5---5---5---5---|-5---5---5---5---5---5---5---5---|---------------------------------|
G#|-3---3---3---3---3---3---3---3---|-3---3---3---3---3---3---3---3---|-5---5---5---5---5---5---5---5---|
D#|---------------------------------|---------------------------------|-3---3---3---3---3---3---3---3---|


D#|---------------------------------|---------------------------------|--------------------|
A#|---------------------------------|---------------------------------|--------------------|
F#|---------------------------------|---------------------------------|-7------------------|
C#|---------------------------------|---------------------------------|-7------------------|
G#|-5---5---5---5---5---5---5---5---|-7---7---7---7---7---7---7---7---|-5------------------|
D#|-3---3---3---3---3---3---3---3---|-5---5---5---5---5---5---5---5---|--------------------|


D#|--------|--------|--------|--------|--------|--------|--------|--------|--------|
A#|--------|--------|--------|--------|--------|--------|--------|--------|--------|
F#|--------|--------|--------|--------|--------|--------|--------|--------|--------|
C#|--------|--------|--------|--------|--------|--------|--------|--------|--------|
G#|--------|--------|--------|--------|--------|--------|--------|--------|--------|
D#|--------|--------|--------|--------|--------|--------|--------|--------|--------|


D#|--------|--------|--------|--------|--------|--------|--------|--------|--------|
A#|--------|--------|--------|--------|--------|--------|--------|--------|--------|
F#|--------|--------|--------|--------|--------|--------|--------|--------|--------|
C#|--------|--------|--------|--------|--------|--------|--------|--------|--------|
G#|--------|--------|--------|--------|--------|--------|--------|--------|--------|
D#|--------|--------|--------|--------|--------|--------|--------|--------|--------|


D#|--------|--------|--------|--------|--------|--------|--------|--------|--------|
A#|--------|--------|--------|--------|--------|--------|--------|--------|--------|
F#|--------|--------|--------|--------|--------|--------|--------|--------|--------|
C#|--------|--------|--------|--------|--------|--------|--------|--------|--------|
G#|--------|--------|--------|--------|--------|--------|--------|--------|--------|
D#|--------|--------|--------|--------|--------|--------|--------|--------|--------|


D#|--------|--------|--------|--------|--------|--------|
A#|--------|--------|--------|--------|--------|--------|
F#|--------|--------|--------|--------|--------|--------|
C#|--------|--------|--------|--------|--------|--------|
G#|--------|--------|--------|--------|--------|--------|
D#|--------|--------|--------|--------|--------|--------|





Track 9: G L

D#|--------|--------|--------|--------|--------|--------|--------|--------|--------|
A#|--------|--------|--------|--------|--------|--------|--------|--------|--------|
F#|--------|--------|--------|--------|--------|--------|--------|--------|--------|
C#|--------|--------|--------|--------|--------|--------|--------|--------|--------|
G#|--------|--------|--------|--------|--------|--------|--------|--------|--------|
D#|--------|--------|--------|--------|--------|--------|--------|--------|--------|


D#|--------|--------|--------|--------|--------|--------|--------|--------|--------|
A#|--------|--------|--------|--------|--------|--------|--------|--------|--------|
F#|--------|--------|--------|--------|--------|--------|--------|--------|--------|
C#|--------|--------|--------|--------|--------|--------|--------|--------|--------|
G#|--------|--------|--------|--------|--------|--------|--------|--------|--------|
D#|--------|--------|--------|--------|--------|--------|--------|--------|--------|


D#|--------|--------|--------|--------|--------|--------|--------|--------|--------|
A#|--------|--------|--------|--------|--------|--------|--------|--------|--------|
F#|--------|--------|--------|--------|--------|--------|--------|--------|--------|
C#|--------|--------|--------|--------|--------|--------|--------|--------|--------|
G#|--------|--------|--------|--------|--------|--------|--------|--------|--------|
D#|--------|--------|--------|--------|--------|--------|--------|--------|--------|


D#|--------|--------|--------|--------|--------|--------|--------|--------|--------|
A#|--------|--------|--------|--------|--------|--------|--------|--------|--------|
F#|--------|--------|--------|--------|--------|--------|--------|--------|--------|
C#|--------|--------|--------|--------|--------|--------|--------|--------|--------|
G#|--------|--------|--------|--------|--------|--------|--------|--------|--------|
D#|--------|--------|--------|--------|--------|--------|--------|--------|--------|


D#|--------|--------|--------|--------|--------|--------|--------|--------|--------|
A#|--------|--------|--------|--------|--------|--------|--------|--------|--------|
F#|--------|--------|--------|--------|--------|--------|--------|--------|--------|
C#|--------|--------|--------|--------|--------|--------|--------|--------|--------|
G#|--------|--------|--------|--------|--------|--------|--------|--------|--------|
D#|--------|--------|--------|--------|--------|--------|--------|--------|--------|


D#|--------|--------|--------|--------|--------|--------|--------|--------|--------|
A#|--------|--------|--------|--------|--------|--------|--------|--------|--------|
F#|--------|--------|--------|--------|--------|--------|--------|--------|--------|
C#|--------|--------|--------|--------|--------|--------|--------|--------|--------|
G#|--------|--------|--------|--------|--------|--------|--------|--------|--------|
D#|--------|--------|--------|--------|--------|--------|--------|--------|--------|


D#|--------|--------|--------|--------|--------|--------|--------|--------|--------|
A#|--------|--------|--------|--------|--------|--------|--------|--------|--------|
F#|--------|--------|--------|--------|--------|--------|--------|--------|--------|
C#|--------|--------|--------|--------|--------|--------|--------|--------|--------|
G#|--------|--------|--------|--------|--------|--------|--------|--------|--------|
D#|--------|--------|--------|--------|--------|--------|--------|--------|--------|


D#|--------|--------|--------|--------|--------|--------|--------|--------|--------|
A#|--------|--------|--------|--------|--------|--------|--------|--------|--------|
F#|--------|--------|--------|--------|--------|--------|--------|--------|--------|
C#|--------|--------|--------|--------|--------|--------|--------|--------|--------|
G#|--------|--------|--------|--------|--------|--------|--------|--------|--------|
D#|--------|--------|--------|--------|--------|--------|--------|--------|--------|


D#|--------|--------|--------|--------|--------|--------|--------|--------|--------|
A#|--------|--------|--------|--------|--------|--------|--------|--------|--------|
F#|--------|--------|--------|--------|--------|--------|--------|--------|--------|
C#|--------|--------|--------|--------|--------|--------|--------|--------|--------|
G#|--------|--------|--------|--------|--------|--------|--------|--------|--------|
D#|--------|--------|--------|--------|--------|--------|--------|--------|--------|


D#|--------|--------|--------|--------|--------|--------|--------|--------|--------|
A#|--------|--------|--------|--------|--------|--------|--------|--------|--------|
F#|--------|--------|--------|--------|--------|--------|--------|--------|--------|
C#|--------|--------|--------|--------|--------|--------|--------|--------|--------|
G#|--------|--------|--------|--------|--------|--------|--------|--------|--------|
D#|--------|--------|--------|--------|--------|--------|--------|--------|--------|


D#|--------|--------|--------|--------|--------|--------|--------|--------|--------|
A#|--------|--------|--------|--------|--------|--------|--------|--------|--------|
F#|--------|--------|--------|--------|--------|--------|--------|--------|--------|
C#|--------|--------|--------|--------|--------|--------|--------|--------|--------|
G#|--------|--------|--------|--------|--------|--------|--------|--------|--------|
D#|--------|--------|--------|--------|--------|--------|--------|--------|--------|


D#|--------|--------|--------|--------|--------|--------|--------|--------|--------|
A#|--------|--------|--------|--------|--------|--------|--------|--------|--------|
F#|--------|--------|--------|--------|--------|--------|--------|--------|--------|
C#|--------|--------|--------|--------|--------|--------|--------|--------|--------|
G#|--------|--------|--------|--------|--------|--------|--------|--------|--------|
D#|--------|--------|--------|--------|--------|--------|--------|--------|--------|


D#|--------|--------|--------|--------|--------|--------|--------|--------|--------|
A#|--------|--------|--------|--------|--------|--------|--------|--------|--------|
F#|--------|--------|--------|--------|--------|--------|--------|--------|--------|
C#|--------|--------|--------|--------|--------|--------|--------|--------|--------|
G#|--------|--------|--------|--------|--------|--------|--------|--------|--------|
D#|--------|--------|--------|--------|--------|--------|--------|--------|--------|


D#|--------|--------|--------|--------|--------|--------|--------|--------|--------|
A#|--------|--------|--------|--------|--------|--------|--------|--------|--------|
F#|--------|--------|--------|--------|--------|--------|--------|--------|--------|
C#|--------|--------|--------|--------|--------|--------|--------|--------|--------|
G#|--------|--------|--------|--------|--------|--------|--------|--------|--------|
D#|--------|--------|--------|--------|--------|--------|--------|--------|--------|


D#|--------|--------|--------|--------|--------|--------|--------|--------|--------|
A#|--------|--------|--------|--------|--------|--------|--------|--------|--------|
F#|--------|--------|--------|--------|--------|--------|--------|--------|--------|
C#|--------|--------|--------|--------|--------|--------|--------|--------|--------|
G#|--------|--------|--------|--------|--------|--------|--------|--------|--------|
D#|--------|--------|--------|--------|--------|--------|--------|--------|--------|


D#|--------|--------|--------|--------|--------|--------|
A#|--------|--------|--------|--------|--------|--------|
F#|--------|--------|--------|--------|--------|--------|
C#|--------|--------|--------|--------|--------|--------|
G#|--------|--------|--------|--------|--------|--------|
D#|--------|--------|--------|--------|--------|--------|





Track 10: Untitled

F#|--------|--------|--------|-----------------|---------------------------|---------------------------|
C#|--------|--------|--------|-----------------|---------------------------|---------------------------|
G#|--------|--------|--------|------------10---|-3--------3-------3---3----|-5--------5-------5---5----|
D#|--------|--------|--------|-----------------|---------------------------|---------------------------|


F#|---------------------------|------------------------------|--------|--------|--------|
C#|---------------------------|------------------------------|-5------|-5------|-5------|
G#|---------------------------|------------------------------|--------|--------|--------|
D#|-3---3---3----3---3---3----|-3---3---3---3---3---3---3----|--------|--------|--------|


F#|--------|-----------------|--------|-----------------|--------|-----------------|
C#|-5------|-----------------|--------|-----------------|--------|-----------------|
G#|--------|-----------------|--------|-----------------|--------|-5---------------|
D#|--------|-3---------------|--------|-3---------------|--------|-----------------|


F#|--------|-----------------|--------|-----------------|--------|-----------------|
C#|--------|-----------------|--------|-----------------|--------|-----------------|
G#|--------|-5---------------|--------|-3---------------|--------|-3---------------|
D#|--------|-----------------|--------|-----------------|--------|-----------------|


F#|--------|-----------------|--------|-----------------|------------------7--------|
C#|--------|-----------------|--------|-----------------|---------------------------|
G#|--------|-----------------|--------|-5---------------|-5---5--------5------------|
D#|--------|-3---------------|--------|-----------------|---------------------------|


F#|---------------------------------|---------------------------------|---------------------------------|
C#|---------------------------------|---------------------------------|---------------------------------|
G#|---------------------------------|---------------------------------|---------------------------------|
D#|-3---3---3---3---3---3---3---3---|-3---3---3---3---3---3---3---3---|-3---3---3---3---3---3---3---3---|


F#|---------------------------------|---------------------------------|---------------------------------|
C#|---------------------------------|---------------------------------|---------------------------------|
G#|---------------------------------|-5---5---5---5---5---5---5---5---|-5---5---5---5---5---5---5---5---|
D#|-3---3---3---3---3---3---3---3---|---------------------------------|---------------------------------|


F#|---------------------------------|---------------------------------|---------------------------------|
C#|---------------------------------|---------------------------------|---------------------------------|
G#|-5---5---5---5---5---5---5---5---|-5---5---5---5---5---5---5---5---|-3---3---3---3---3---3---3---3---|
D#|---------------------------------|---------------------------------|---------------------------------|


F#|---------------------------------|---------------------------------|---------------------------------|
C#|---------------------------------|---------------------------------|---------------------------------|
G#|-3---3---3---3---3---3---3---3---|-3---3---3---3---3---3---3---3---|-3---3---3---3---3---3---3---3---|
D#|---------------------------------|---------------------------------|---------------------------------|


F#|---------------------------------|---------------------------------|---------------------------------|
C#|---------------------------------|---------------------------------|---------------------------------|
G#|---------------------------------|---------------------------------|-5---5---5---5---5---5---5---5---|
D#|-3---3---3---3---3---3---3---3---|-3---3---3---3---3---3---3---3---|---------------------------------|


F#|---------------------------------|------------------------|------------------------|
C#|---------------------------------|------------------------|------------------------|
G#|-5---5---5---5---5---5---5---5---|-3--------3---3---------|-5--------5---5---------|
D#|---------------------------------|------------------------|------------------------|


F#|---------------------------------|---------------------------------|------------------------|
C#|---------------------------------|---------------------------------|------------------------|
G#|---------------------------------|---------------------------------|-3--------3---3---------|
D#|-2---3---3---3---2---3---3---3---|-2---3---3---3---3---3---3---3---|------------------------|


F#|------------------------|---------------------------------|---------------------------------|
C#|------------------------|---------------------------------|---------------------------------|
G#|-5--------5---5---------|---------------------------------|---------------------------------|
D#|------------------------|-2---3---3---3---2---3---3---3---|-2---3---3---3---3---3---3---3---|


F#|------------------------|------------------------|---------------------------------|
C#|------------------------|------------------------|---------------------------------|
G#|-3--------3---3---------|-5--------5---5---------|-7---7---7---7---7---7---7---7---|
D#|------------------------|------------------------|---------------------------------|


F#|---------------------------------|---------------------------------|--------------------|
C#|---------------------------------|---------------------------------|--------------------|
G#|-3---3---3---3---3---3---3---3---|---------------------------------|-5------------------|
D#|---------------------------------|-5---5---5---5---5---5---5---5---|--------------------|


F#|---------------------------------|---------------------------------|---------------------------------|
C#|---------------------------------|---------------------------------|---------------------------------|
G#|---------------------------------|---------------------------------|---------------------------------|
D#|-2---3---3---3---2---3---3---3---|-2---3---3---3---3---3---3---3---|-3---3---3---3---3---3---3---3---|


F#|---------------------------------|---------------------------------|---------------------------------|
C#|---------------------------------|---------------------------------|---------------------------------|
G#|---------------------------------|---------------------------------|---------------------------------|
D#|-3---3---3---3---3---3---3---3---|-3---3---3---3---3---3---3---3---|-3---3---3---3---3---3---3---3---|


F#|---------------------------------|---------------------------------|---------------------------------|
C#|---------------------------------|---------------------------------|---------------------------------|
G#|-5---5---5---5---5---5---5---5---|-5---5---5---5---5---5---5---5---|-5---5---5---5---5---5---5---5---|
D#|---------------------------------|---------------------------------|---------------------------------|


F#|---------------------------------|---------------------------------|---------------------------------|
C#|---------------------------------|---------------------------------|---------------------------------|
G#|-5---5---5---5---5---5---5---5---|-3---3---3---3---3---3---3---3---|-3---3---3---3---3---3---3---3---|
D#|---------------------------------|---------------------------------|---------------------------------|


F#|---------------------------------|---------------------------------|---------------------------------|
C#|---------------------------------|---------------------------------|---------------------------------|
G#|-3---3---3---3---3---3---3---3---|-3---3---3---3---3---3---3---3---|---------------------------------|
D#|---------------------------------|---------------------------------|-3---3---3---3---3---3---3---3---|


F#|---------------------------------|---------------------------------|---------------------------------|
C#|---------------------------------|---------------------------------|---------------------------------|
G#|---------------------------------|-5---5---5---5---5---5---5---5---|-5---5---5---5---5---5---5---5---|
D#|-3---3---3---3---3---3---3---3---|---------------------------------|---------------------------------|


F#|------------------------|------------------------|---------------------------------|
C#|------------------------|------------------------|---------------------------------|
G#|-3--------3---3---------|-5--------5---5---------|---------------------------------|
D#|------------------------|------------------------|-2---3---3---3---2---3---3---3---|


F#|---------------------------------|------------------------|------------------------|
C#|---------------------------------|------------------------|------------------------|
G#|---------------------------------|-3--------3---3---------|-5--------5---5---------|
D#|-2---3---3---3---3---3---3---3---|------------------------|------------------------|


F#|---------------------------------|---------------------------------|------------------------|
C#|---------------------------------|---------------------------------|------------------------|
G#|---------------------------------|---------------------------------|-3--------3---3---------|
D#|-2---3---3---3---2---3---3---3---|-2---3---3---3---3---3---3---3---|------------------------|


F#|------------------------|---------------------------------|---------------------------------|
C#|------------------------|---------------------------------|---------------------------------|
G#|-5--------5---5---------|-7---7---7---7---7---7---7---7---|-3---3---3---3---3---3---3---3---|
D#|------------------------|---------------------------------|---------------------------------|


F#|---------------------------------|--------------------|--------|--------|---------------------------------|
C#|---------------------------------|--------------------|--------|--------|---------------------------------|
G#|---------------------------------|-5------------------|--------|--------|-5---5---5---5---5---5---5---5---|
D#|-5---5---5---5---5---5---5---5---|--------------------|--------|--------|---------------------------------|


F#|---------------------------------|---------------------------------|---------------------------------|
C#|---------------------------------|---------------------------------|---------------------------------|
G#|-5---5---5---5---5---5---5---5---|-3---3---3---3---3---3---3---3---|-3---3---3---3---3---3---3---3---|
D#|---------------------------------|---------------------------------|---------------------------------|


F#|---------------------------------|---------------------------------|---------------------------------|
C#|---------------------------------|---------------------------------|---------------------------------|
G#|---------------------------------|---------------------------------|-3---3---3---3---3---3---3---3---|
D#|-3---3---3---3---3---3---3---3---|-3---3---3---3---3---3---3---3---|---------------------------------|


F#|---------------------------------|---------------------------------|---------------------------------|
C#|---------------------------------|---------------------------------|---------------------------------|
G#|-3---3---3---3---3---3---3---3---|-5---5---5---5---7---7---7---7---|-9---9---9---9---10--10--10--10--|
D#|---------------------------------|---------------------------------|---------------------------------|


F#|---------------------------------|---------------------------------|---------------------------------|
C#|---------------------------------|---------------------------------|---------------------------------|
G#|-3---3---3---3---3---3---3---3---|-3---3---3---3---3---3---3---3---|---------------------------------|
D#|---------------------------------|---------------------------------|-3---3---3---3---3---3---3---3---|


F#|---------------------------------|---------------------------------|--------------------|
C#|---------------------------------|---------------------------------|--------------------|
G#|---------------------------------|---------------------------------|-5------------------|
D#|-3---3---3---3---3---3---3---3---|-5---5---5---5---5---5---5---5---|--------------------|


F#|-----------------|-----------------|---------------------|---------------------|
C#|-----------------|-----------------|---------------------|---------------------|
G#|-----------------|-----------------|---------------------|---------------------|
D#|-3---------------|-3---------------|-3---------3---------|-3---------3---------|


F#|------------------------|------------------------|---------------------------------|
C#|------------------------|------------------------|---------------------------------|
G#|-3--------3---3---------|-5--------5---5---------|---------------------------------|
D#|------------------------|------------------------|-2---3---3---2---3---3---2---3---|


F#|------------------------------|------------------------|------------------------|
C#|------------------------------|------------------------|------------------------|
G#|------------------------------|-3--------3---3---------|-5--------5---5---------|
D#|-3---2---3---3---2---3---3----|------------------------|------------------------|


F#|---------------------------------|------------------------------|------------------------|
C#|---------------------------------|------------------------------|------------------------|
G#|---------------------------------|------------------------------|-3--------3---3---------|
D#|-2---3---3---3---2---3---3---3---|-2---3---3---1---1---1----1---|------------------------|


F#|------------------------|---------------------------------|---------------------------------|
C#|------------------------|---------------------------------|---------------------------------|
G#|-5--------5---5---------|-7---7---7---7---7---7---7---7---|-3---3---3---3---3---3---3---3---|
D#|------------------------|---------------------------------|---------------------------------|


F#|---------------------------------|---------------------------------|---------------------------------|
C#|---------------------------------|---------------------------------|-5---5---5---5---5---5---5---5---|
G#|---------------------------------|-5---5---5---5---5---5---5---5---|---------------------------------|
D#|-5---5---5---5---5---5---5---5---|---------------------------------|---------------------------------|


F#|---------------------------------|---------------------------------|---------------------------------|
C#|---------------------------------|---------------------------------|---------------------------------|
G#|-7---7---7---7---7---7---7---7---|-3---3---3---3---3---3---3---3---|-5---5---5---5---5---5---5---5---|
D#|---------------------------------|---------------------------------|---------------------------------|


F#|--------------------------------|------------------------------|---------------------------------|
C#|-5---5---5---5---5----4----3----|------------------------------|---------------------------------|
G#|--------------------------------|-7----7---7---7---7---7---7---|-3---3---3---3---3---3---3---3---|
D#|--------------------------------|------------------------------|---------------------------------|


F#|--------------------|--------|--------|--------|-----------------|--------|--------|
C#|--------------------|--------|--------|--------|-----------------|--------|--------|
G#|-5------------------|--------|--------|--------|-----------------|--------|--------|
D#|--------------------|--------|--------|--------|------------3----|-3------|-3------|


F#|-----------------|
C#|-----------------|
G#|-----------------|
D#|-3---------------|