Site menu:

    

Browse: 0-9 A B C D E F G H I J K L N O P Q R S T U V W X Y Z

poison - swampjuice soulo:



Title: Swamp Juice (Soul-O)
Artist: 
Album: Flesh & Blood
Author: C.C. DeVille


Track 1: Acoustic Guitar - C.C. DeVille

E|-----------------------------------------------|-----------------------------------------------|
B|-----7--0-----5--0-----7--0-----5-----5--0-----|----7--0-----5--0-----7--0-----8-----8--0------|
G|-----7--0-----5--0-----7--0-----5-----5--0-----|----7--0-----5--0-----7--0-----7-----7--0------|
D|-0---------0--------0--------0--------------0--|----------0--------0--------0--------------0---|
B|-----------------------------------------------|-----------------------------------------------|
G|-----------------------------------------------|-----------------------------------------------|


E|-----------------------------------------------|-----------------------------------------------|
B|-7--0-----5--0-----7--0-----5-----5--0------7--|-0-----5--0-----7--0-----8-----8--0------------|
G|-7--0-----5--0-----7--0-----5-----5--0------7--|-0-----5--0-----7--0-----7-----7--0------9--0--|
D|-------0--------0--------0--------------0------|----0--------0--------0------------------11-0--|
B|-----------------------------------------------|-------------------------------------0---------|
G|-----------------------------------------------|-----------------------------------------------|


E|-----------------------------------------------|-----------------------------------------------|
B|-----------------------------------------------|-----------------------------------------------|
G|----7--0-----6--0-----7-----7--0------9--0-----|-7--0-----9--0-----11----11-0------9--0-----7--|
D|----9--0-----7--0-----9-----9--0------11-0-----|-9--0-----11-0-----12----12-0------11-0-----9--|
B|-0--------0--------0--------------0---------0--|-------0--------0--------------0---------0-----|
G|-----------------------------------------------|-----------------------------------------------|


E|-----------------------------------------------|-----------------------------------------------|
B|-----------------------------------------------|-----------------------------7--0-----5--0-----|
G|-0-----6--0-----7-----7--0------9--0-----7--0--|----9--0-----11----11-0------7--0-----5--0-----|
D|-0-----7--0-----9-----9--0------11-0-----9--0--|----11-0-----12----12-0--0---------0--------0--|
B|----0--------0--------------0---------0--------|-0--------0------------------------------------|
G|-----------------------------------------------|-----------------------------------------------|


E|-----------------------------------------------|-----------------------------------------------|
B|-7--0-----5-----5--0------7--0-----5--0-----7--|-0-----8-----8--0------7--0-----5--0-----7--0--|
G|-7--0-----5-----5--0------7--0-----5--0-----7--|-0-----7-----7--0------7--0-----5--0-----7--0--|
D|-------0--------------0---------0--------0-----|----0--------------0---------0--------0--------|
B|-----------------------------------------------|-----------------------------------------------|
G|-----------------------------------------------|-----------------------------------------------|


E|-----------------------------------------------|-----------------------------------------------|
B|----5-----5--0------7--0-----5--0-----7--0-----|-8-----8--0------3--------3--------3--------3--|
G|----5-----5--0------7--0-----5--0-----7--0-----|-7-----7--0------2--------2--------2--------2--|
D|-0--------------0---------0--------0--------0--|-------------0---------0--------0--------0-----|
B|-----------------------------------------------|-----------------------------------------------|
G|-----------------------------------------------|-----------------------------------------------|


E|-----------------------------------------------|---------------------------------------------|
B|-3---------------3--------3--------3--------3--|-3--3---3------3--------3--------3--------3--|
G|-2--2--2--0------1--------1--------1--------1--|-1--1---0------0--------0--------0--------0--|
D|-------------0---------0--------0--------0-----|-----------0---------0--------0--------0-----|
B|-----------------------------------------------|---------------------------------------------|
G|-----------------------------------------------|---------------------------------------------|


E|------------------------|------------1--------1--------------1-----|----1--------------1--------1--------------------|
B|-3---1---2---3-----3----|---------------------0--------------0-----|----0-----------------------0--------------------|
G|-0---0------------------|------------------0--------0--------------|-0--------0--------------0--------0--------------|
D|---------3---4-----4----|------2--3-----3--------3-----2--3-----3--|-------3-----2--3-----3--------3-----3--0--------|
B|------------------------|------------------------------------------|-------------------------------------------3--0--|
G|------------------------|------------------------------------------|-------------------------------------------------|


E|-----------------1--------1--------------1-----|----1--------------1--------1--------------------|
B|--------------------------0--------------0-----|----0--------------0--------0--------------------|
G|-----------------------0--------0--------------|-0--------0--------------0--------0--------------|
D|-----------2--3-----3--------3-----2--3-----3--|-------3-----2--3-----3--------3-----3--0--------|
B|-----------------------------------------------|-------------------------------------------3--0--|
G|-3-0---0---------------------------------------|-------------------------------------------------|


E|-----------------1-----------3--------1--1---|-3-------------1-----1--3--3--3--5--5--5--7--|
B|-----------------------------0--0--0-----0---|-0-------0--0--0--0--0--0--0--0--0--0--0--0--|
G|-----------------------0--0--0--0--0-----0---|---------0--0--------0--0-----0--0--0--0--0--|
D|-----------2--3-----3--3--5-----5--3---------|-5---0---2--3--------3--5-----5--7--7--7--9--|
B|---------------------------------------------|---------------------------------------------|
G|-3-0---0-------------------------------------|---------------------------------------------|


E|-7-------------1--------1-----------1-----1--|-------1-----------1-----1--1--------------------|
B|-0-------0--0--0--0-----0-----0--0--0--0--0--|-0--0--0--0--0--0--0--0--0--0--0-----------------|
G|-0-------0--0--0--0--0--0--0--0--0-----0-----|-0--0--0--0--0--0--0--0--0--0--0-----------------|
D|-9---0---2--3-----3--3-----3--2--3-----------|-2--3-----3--2--3-----3--------3--3--0-----------|
B|-----0---------------------------------------|-------------------------------------------3--0--|
G|-----0---------------------------------------|----------------------------------------4--------|


E|-----------------1--------1-----------1--------|-1-----1-----------1--------1-----------1--------|
B|-----------------0--------0--------------------|-0-----0-----------0--------0-----------0--------|
G|-----------------------0-----------------0-----|-0-----0-----------------0-----------------------|
D|-----------2--3-----3--------3--2--3--------3--|----3-----3--2--3-----3--------3--2--3-----3--0--|
B|-----------------------------------------------|-------------------------------------------------|
G|-4--0--0---------------------------------------|-------------------------------------------------|


E|-------------------1-----1--3--3--3--5--5--------|-7---7--7--7--7--7--5-----3-----1--1--1--1---|
B|-------------------0-----0--0--0--0--0--0--------|-0---0--0--0--0--0--0--5--0--5--0--0--0--0---|
G|-------------0--0-----0--0--0-----0--0-----0--0--|-0---0--0--0--0--0--0--4--0--4--0--0--0--0---|
D|-------------2--3-----3--3--5-----5--7-----7--9--|-----------9--9--9--7-----5-----3--3--3--3---|
B|-3--0--------------------------------------------|---------------------------------------------|
G|-------3--0--0-----------------------------------|---------------------------------------------|


E|-1-----------------------------------|-----------------------------------|-------------------------------------|
B|-0---1--1--0----0--0---0---1--0------|-0-------0----0--0---0---1--0------|-----------0----0--0---0------0------|
G|-0---2--2--0----0--0---0---2--0------|-0-------0----0--0---0---2--0------|-0------0--0----0--0---0------0------|
D|-3---------12---12-12--12--4--12--12-|-12--0---9----9--9---9---4--9---9--|-9---7-----12---12-12--12--12-12--12-|
B|-----------0----0--0---0------0---0--|-0---0---0----0--0---0------0---0--|-0---7-----0----0--0---0---0------0--|
G|-------------------------------------|-----------------------------------|-------------------------------------|


E|-12----10----7----7--7--7--7--7-----5--------|-3---1--1--------1--------1--------------------|
B|-0-----0-----0----0--0--0--0--0--1--0--1--1--|-0---0--0--0--0--0-----0--0--------------------|
G|-0-----0-----0----0--0--0--0--0--2--0--2--2--|-0---0--0--0--0-----0--0-----0-----------------|
D|-14----12----9----9--9--9--9--9--4--7--4--4--|-5---3--2--2--3-----3--3-----3--3--0-----------|
B|---------------------------------------------|-----------------------------------------3--0--|
G|---------------------------------------------|--------------------------------------4--------|


E|-----------------1--------1--------------------|-----------------1--------1--------------------|
B|-----------0--0--0-----0--0--------------------|-----------0--0--0-----0--0--------------------|
G|-------0---0--0-----0--0-----0-----------------|-------0---0--0-----0--0-----0-----------------|
D|-------0---2--3-----3--3-----3--3--0-----------|-------0---2--3-----3--3-----3--3--0-----------|
B|-------0---------------------------------3--0--|-------0---------------------------------3--0--|
G|-4--0--0------------------------------4--------|-4--0--0------------------------------4--------|


E|-----------------------------------------------|----------------|
B|-----------------------------------------------|-0--------------|
G|-----------------------------------------------|-0--------------|
D|-----------3--0-----------------3--0-----------|-0--------------|
B|-----------------3--0--------------------3--0--|-0--------------|
G|-4--0--0---------------4--0--0--------4--------|-0--------------|





Track 2: Acoustic Guitar II - C.C. DeVille

E|--------|--------|--------|--------|--------|--------|--------|--------|--------|
B|--------|--------|--------|--------|--------|--------|--------|--------|--------|
G|--------|--------|--------|--------|--------|--------|--------|--------|--------|
D|--------|--------|--------|--------|--------|--------|--------|--------|--------|
B|--------|--------|--------|--------|--------|--------|--------|--------|--------|
G|--------|--------|--------|--------|--------|--------|--------|--------|--------|


E|--------|--------|--------|--------|--------|--------|--------|--------|--------|
B|--------|--------|--------|--------|--------|--------|--------|--------|--------|
G|--------|--------|--------|--------|--------|--------|--------|--------|--------|
D|--------|--------|--------|--------|--------|--------|--------|--------|--------|
B|--------|--------|--------|--------|--------|--------|--------|--------|--------|
G|--------|--------|--------|--------|--------|--------|--------|--------|--------|


E|-----------------|------------------------------|------------------------------|
B|-----------------|-------------15---------------|--------------15----------18--|
G|-----------------|-----12--16------16---16--12--|-10--12--12-------16--16------|
D|-----------------|------------------------------|------------------------------|
B|-----------------|------------------------------|------------------------------|
G|-----------------|------------------------------|------------------------------|


E|---------------------------|--------------------------------|----------------|------------------------------|
B|---------------14-15----14-|-15-15-14--15---15------18------|----------------|--------------15----------15--|
G|-19------------------16----|-------14--16-------16------19--|----------------|------14--16------14--16------|
D|-----19--17----------------|--------------------------------|-19--19--17-----|------------------------------|
B|---------------------------|--------------------------------|----------------|------------------------------|
G|---------------------------|--------------------------------|----------------|------------------------------|


E|----------------------|------------------------------|-------------|-----------------|
B|-------15-------------|--------------15----------15--|------18-----|-18---15----15---|
G|-14-16-----12---------|------14--16------14--16------|------19-----|-19---16----16---|
D|----------------------|------------------------------|-------------|-----------------|
B|----------------------|------------------------------|-------------|-----------------|
G|----------------------|------------------------------|-------------|-----------------|


E|---------------------------|-------------------------------|----------------|----------------|
B|-----15--18----------------|-20--18--15----------15--------|-18------12-----|-18-------------|
G|-----16--19---19---19--19--|-21--19--16----14-16-----16-19-|-----19--12-----|-----19--16-----|
D|---------------------------|-------------------------------|----------------|----------------|
B|---------------------------|-------------------------------|----------------|----------------|
G|---------------------------|-------------------------------|----------------|----------------|


E|----------------|-------------|--------|
B|-18-------------|-------------|--------|
G|-----19---------|-------------|--------|
D|---------17-----|-------------|--------|
B|----------------|-------------|--------|
G|----------------|-------------|--------|





Track 3: Untitled

G|--------|--------|--------|--------|--------|--------|--------|--------|--------|
D|--------|--------|--------|--------|--------|--------|--------|--------|--------|
A|--------|--------|--------|--------|--------|--------|--------|--------|--------|
E|--------|--------|--------|--------|--------|--------|--------|--------|--------|


G|--------|--------|--------|--------|--------|--------|--------|--------|--------|
D|--------|--------|--------|--------|--------|--------|--------|--------|--------|
A|--------|--------|--------|--------|--------|--------|--------|--------|--------|
E|--------|--------|--------|--------|--------|--------|--------|--------|--------|


G|--------|--------|--------|--------|--------|--------|--------|--------|--------|
D|--------|--------|--------|--------|--------|--------|--------|--------|--------|
A|--------|--------|--------|--------|--------|--------|--------|--------|--------|
E|--------|--------|--------|--------|--------|--------|--------|--------|--------|


G|--------|--------|--------|--------|--------|--------|--------|--------|--------|
D|--------|--------|--------|--------|--------|--------|--------|--------|--------|
A|--------|--------|--------|--------|--------|--------|--------|--------|--------|
E|--------|--------|--------|--------|--------|--------|--------|--------|--------|