Site menu:

    

Browse: 0-9 A B C D E F G H I J K L N O P Q R S T U V W X Y Z

poison - body talk:



Title: Body Talk
Artist: 
Album: Native Tongue
Author: Richie Kotzen, Bret Michaels, Bobby Dall & Rikki Rockett


Track 1: Guitar I

D#|-10-----------------------------------------|--------------3---------------|-10-----------------------------------------|
A#|-10-12-------7--------------7---8---10--8---|-8----8-------3-------3----3--|-10-12-------7--------------7---8---10--8---|
F#|-------------7--9--7--------7-----------5---|-5----5-------4---5---4----4--|-------------7--9--7--------7-----------5---|
C#|-------------7--------9--7--------------5---|-5----5-------5-------5----5--|-------------7--------9--7--------------5---|
G#|-------7--9---------------------------------|------------------------------|-------7--9---------------------------------|
C#|--------------------------------------------|----------0-------------------|--------------------------------------------|


D#|------------------------------|-10-----------------------------------------|--------------3---------------|
A#|-8----------------------------|-10-12-------9--------------7---8---10--8---|-8----8-------3-------3----3--|
F#|-5----------------------------|-------------7--9--7--------7-----------5---|-5----5-------4---5---4----4--|
C#|-5---------------9---7---5----|-------------7--------9--7--------------5---|-5----5-------5-------5----5--|
G#|-----------------7---5---3----|-------7--9---------------------------------|------------------------------|
C#|-----0---3---0----------------|--------------------------------------------|----------0-------------------|


D#|-10-----------------------------------------|------------------------------|-------------------------------------|
A#|-10-12-------7--------------7---8---10--8---|-8----------------------------|-------------------------------------|
F#|-------------7--9--7--------7-----------5---|-5----------------------------|-------------------------------------|
C#|-------------7--------9--7--------------5---|-5---------------9---7---5----|-----------------------------3-------|
G#|-------7--9---------------------------------|-----------------7---5---3----|-----------3---5-----------------5---|
C#|--------------------------------------------|-----0---3---0----------------|-0---3--5--------------3--5----------|


D#|-----------------------------------------|------------------------------|--------------------------------|
A#|-----------------------------------------|-3----------------------------|--------------------------------|
F#|-----------------------------------------|-2----------------------------|--------------------------------|
C#|---------------------5---3---------------|-0------------5-----------5---|-5----5-------3-----------------|
G#|-----------3---5--3----------5--3--------|--------------2-----------3---|-3----3-----------5---------3---|
C#|-0---3--5--------------------------5--3--|------3---0-------0---0-------|----------0-----------3--5------|


D#|---------------------------------|------------------------------|---------------------------------|
A#|---------------------------------|------------------------------|-3-------------------------------|
F#|---------------------------------|------------------------------|-2-------------------------------|
C#|-----------------5-----------5---|-5---------------9---7---5----|-0---------------5-----------5---|
G#|-5---------------2-----------3---|-3---------------7---5---3----|-----------------2-----------3---|
C#|-----0---3---0-------0---0-------|-----0---3---0----------------|-----0---3---0-------0---0-------|


D#|------3------------------------------|---------------------------------|------------------------------|
A#|-------------------------------------|---------------------------------|------------------------------|
F#|-------------------------------------|---------------------------------|------------------------------|
C#|-5----5------------3-----------------|-----------------5-----------5---|-5----5-------10--10----------|
G#|-3----3----------------5---------3---|-5---------------2-----------3---|-3----3-------9---9-----------|
C#|----------0--3--5----------3--5------|-----0---3---0-------0---0-------|----------0-----------0---0---|


D#|---------------------------------------|---------------------------------------|
A#|---------------------------------------|---------------------------------------|
F#|---------------------------------------|---------------------------------------|
C#|-----------------------------3--3------|---------------------------------------|
G#|-----------3---5-------------------5---|-----------3---5-------------3---------|
C#|-0---3--5--------------3--5------------|-0---3--5--------------3--5------5--3--|


D#|-------------------------------------|-------------------------------------|-10-----------------------------------------|
A#|-------------------------------------|-------------------------------------|-10-12----------------------7---8---10--8---|
F#|-------------------------------------|-------------------------------------|-------------7--9--7--------7-----------5---|
C#|-----------------------3-----3-------|---------3---------------------------|----------------------9--7--------------5---|
G#|-----------3---5-----------------5---|---------3-------5-------5--5--3--3--|-------7--9---------------------------------|
C#|-0---3--5-----------------5----------|-3---3-------3---3---5---------------|--------------------------------------------|


D#|------------------------|------------------------------------------|------------------------------|
A#|-8----8-------8----8----|-7------------------------7---8---10--8---|-8----------------------------|
F#|-5----5-------7----7----|-7---------7--9--7--------7-----------5---|-5----------------------------|
C#|-5----5-------9----9----|-7------------------9--7--------------5---|-5---------------9---7---5----|
G#|------------------------|-----7--9---------------------------------|-----------------7---5---3----|
C#|----------0-------------|------------------------------------------|-----0---3---0----------------|


D#|-10-----------------------------------------|------------------------|------------------------------------------|
A#|-10-12----------------------7---8---10--8---|-8----8-------8----8----|-7------------------------7---8---10--8---|
F#|-------------7--9--7--------7-----------5---|-5----5-------7----7----|-7---------7--9--7--------7-----------5---|
C#|----------------------9--7--------------5---|-5----5-------9----9----|-7------------------9--7--------------5---|
G#|-------7--9---------------------------------|------------------------|-----7--9---------------------------------|
C#|--------------------------------------------|----------0-------------|------------------------------------------|


D#|------------------------------|----------0---0------------|---------------------------|
A#|-8----------------------------|------------------3--------|-----3------------3--------|
F#|-5----------------------------|------2--------------------|-----------------------0---|
C#|-5---------------9---7---5----|-----------------------4---|-4--------2---2------------|
G#|-----------------7---5---3----|---------------------------|---------------------------|
C#|-----0---3---0----------------|-0-------------------------|---------------------------|


D#|------------------------------|--------------------------------|---------------------------------|
A#|-3----------------------------|--------------------------------|---------------------------------|
F#|-2----------------------------|--------------------------------|---------------------------------|
C#|-0------------5-----------5---|-5----5-------3-----------------|-----------------5-----------5---|
G#|--------------2-----------3---|-3----3-----------5---------3---|-5---------------2-----------3---|
C#|------3---0-------0---0-------|----------0-----------3--5------|-----0---3---0-------0---0-------|


D#|------------------------------|---------------------------------|------3------------------------------|
A#|------------------------------|-3-------------------------------|-------------------------------------|
F#|------------------------------|-2-------------------------------|-------------------------------------|
C#|-5---------------9---7---5----|-0---------------5-----------5---|-5----5------------3-----------------|
G#|-3---------------7---5---3----|-----------------2-----------3---|-3----3----------------5---------3---|
C#|-----0---3---0----------------|-----0---3---0-------0---0-------|----------0--3--5----------3--5------|


D#|---------------------------------|------------------------------|---------------------------------------|
A#|---------------------------------|------------------------------|---------------------------------------|
F#|---------------------------------|------------------------------|---------------------------------------|
C#|-----------------5-----------5---|-5----5-------10--10----------|-----------------------------3--3------|
G#|-5---------------2-----------3---|-3----3-------9---9-----------|-----------3---5-------------------5---|
C#|-----0---3---0-------0---0-------|----------0-----------0---0---|-0---3--5--------------3--5------------|


D#|---------------------------------------|-------------------------------------|-------------------------------------|
A#|---------------------------------------|-------------------------------------|-------------------------------------|
F#|---------------------------------------|-------------------------------------|-------------------------------------|
C#|---------------------------------------|-----------------------3-----3-------|---------3---------------------------|
G#|-----------3---5-------------3---------|-----------3---5-----------------5---|---------3-------5-------5--5--3--3--|
C#|-0---3--5--------------3--5------5--3--|-0---3--5-----------------5----------|-3---3-------3---3---5---------------|


D#|-10-----------------------------------------|------------------------|------------------------------------------|
A#|-10-12----------------------7---8---10--8---|-8----8-------8----8----|-7------------------------7---8---10--8---|
F#|-------------7--9--7--------7-----------5---|-5----5-------7----7----|-7---------7--9--7--------7-----------5---|
C#|----------------------9--7--------------5---|-5----5-------9----9----|-7------------------9--7--------------5---|
G#|-------7--9---------------------------------|------------------------|-----7--9---------------------------------|
C#|--------------------------------------------|----------0-------------|------------------------------------------|


D#|------------------------------|-10-----------------------------------------|------------------------|
A#|-8----------------------------|-10-12----------------------7---8---10--8---|-8----8-------8----8----|
F#|-5----------------------------|-------------7--9--7--------7-----------5---|-5----5-------7----7----|
C#|-5---------------9---7---5----|----------------------9--7--------------5---|-5----5-------9----9----|
G#|-----------------7---5---3----|-------7--9---------------------------------|------------------------|
C#|-----0---3---0----------------|--------------------------------------------|----------0-------------|


D#|------------------------------------------|------------------------------|-5-------------------------|
A#|-7------------------------7---8---10--8---|-8----------------------------|-7-------------------------|
F#|-7---------7--9--7--------7-----------5---|-5----------------------------|-7--------10--10---10------|
C#|-7------------------9--7--------------5---|-5---------------9---7---5----|----------10--10---10------|
G#|-----7--9---------------------------------|-----------------7---5---3----|---------------------------|
C#|------------------------------------------|-----0---3---0----------------|------0----------------0---|


D#|---------------------------|-5----------------------------|----------------------|
A#|-8--------8---8----8-------|-7------------------------8---|-8-----------8-----10-|
F#|-9--------7---7----7-------|-7--------10------10------9---|-9--------9-----------|
C#|-10-------9---9----9-------|-7--------10------10------10--|-10----10-------------|
G#|---------------------------|------------------------------|----------------------|
C#|------0----------------0---|------0-------0-------0-------|----------------------|


D#|-9-------------------------|---------------------------|-5----------------------------|
A#|-10------------------------|-8--------8---8----8-------|-7------------------------8---|
F#|-11-------10--10---10------|-9--------7---7----7-------|-7--------10------10------9---|
C#|-12-------10--10---10------|-10-------9---9----9-------|----------10------10------10--|
G#|---------------------------|---------------------------|------------------------------|
C#|------0----------------0---|------0----------------0---|------0-------0-------0-------|


D#|-------------------------------------------------|-----------------------------------------|
A#|-8----8------------------------------------------|-----------------------------------------|
F#|-9----9---5--7--10-14-7--5-----------------------|-7---------------------------------------|
C#|-10---10--------------------7--5--3--------------|-7---------------------------------------|
G#|-------------------------------------3--0--------|--------------------3--3---5-------------|
C#|-------------------------------------------5--0--|-----0--0--3--0--5-------------0--0---0--|


D#|--------------------------------|-------------------------------------------|--------------------------------|
A#|--------------------------------|-------------------------------------------|--------------------------------|
F#|-5----5-----------------5----5--|----------------------5--5---7-------------|-5----5--------7---7----7--7----|
C#|-3----2-----0--5---5----5----5--|-------------------------------------------|-3----2-----0--5---5----5--5----|
G#|---------------3---3----3----3--|----------------------3--3---5-------------|--------------------------------|
C#|--------------------------------|-0--0--0--0--3--0--5-------------0--0---0--|--------------------------------|


D#|-----------------------------------------|--------------------------------|-----------------------------------------|
A#|-----------------------------------------|--------------------------------|-----------------------------------------|
F#|-----------------------------------------|-5----5--------------------5----|-----------------------------------------|
C#|-----------------------------------------|-3----2-----0--5---5---5---5----|-----------------------------------------|
G#|--------------------3--3---5-------------|---------------3---3---3--------|--------------------3--3---5-------------|
C#|-0--0---0--3--0--5-------------0--0---0--|--------------------------------|-0--0---0--3--0--5-------------0--0---0--|


D#|---------------------------------|-----------------|--------------------|-----------3-------3---|
A#|---------------------------------|-3---------------|--------------------|-3-----3---3-------3---|
F#|---------------------------------|-2---------------|--------------------|-2-----2---0-------0---|
C#|---------3---------------5-------|-0---------------|-------9---7---5----|-0-----0---------------|
G#|-5-------3-------5---5---5---3---|-0---------------|-------7---5---3----|-0-----0---2-------3---|
C#|-3---3---3---3---5---5---5---3---|-0---------------|--------------------|-0-----0-------0-------|


D#|-3-----3-----------------|-10-----------------------------------------|------------------------|
A#|-3-----3-----------------|-10-12----------------------7---8---10--8---|-8----8-------8----8----|
F#|-0-----0-----------------|-------------7--9--7--------7-----------5---|-5----5-------7----7----|
C#|-------------------------|----------------------9--7--------------5---|-5----5-------9----9----|
G#|-3-----3-------2--2------|-------7--9---------------------------------|------------------------|
C#|-----------0---------3---|--------------------------------------------|----------0-------------|


D#|------------------------------------------|------------------------------|-10-----------------------------------------|
A#|-7------------------------7---8---10--8---|-8----------------------------|-10-12----------------------7---8---10--8---|
F#|-7---------7--9--7--------7-----------5---|-5----------------------------|-------------7--9--7--------7-----------5---|
C#|-7------------------9--7--------------5---|-5---------------9---7---5----|----------------------9--7--------------5---|
G#|-----7--9---------------------------------|-----------------7---5---3----|-------7--9---------------------------------|
C#|------------------------------------------|-----0---3---0----------------|--------------------------------------------|


D#|------------------------|------------------------------------------|------------------------------|
A#|-8----8-------8----8----|-7------------------------7---8---10--8---|-8----------------------------|
F#|-5----5-------7----7----|-7---------7--9--7--------7-----------5---|-5----------------------------|
C#|-5----5-------9----9----|-7------------------9--7--------------5---|-5---------------9---7---5----|
G#|------------------------|-----7--9---------------------------------|-----------------7---5---3----|
C#|----------0-------------|------------------------------------------|-----0---3---0----------------|


D#|-10-----------------------------------------|------------------------|------------------------------------------|
A#|-10-12----------------------7---8---10--8---|-8----8-------3----3----|-7------------------------7---8---10--8---|
F#|-------------7--9--7--------7-----------5---|-5----5-------4----4----|-7---------7--9--7--------7-----------5---|
C#|----------------------9--7--------------5---|-5----5-------5----5----|-7------------------9--7--------------5---|
G#|-------7--9---------------------------------|------------------------|-----7--9---------------------------------|
C#|--------------------------------------------|----------0-------------|------------------------------------------|


D#|------------------------------|-10-----------------------------------------|------------------------|
A#|-8----------------------------|-10-2-----------------------7---8---10--8---|-8----8-------8----8----|
F#|-5----------------------------|-------------7--9--7--------7-----------5---|-5----5-------7----7----|
C#|-5---------------9---7---5----|----------------------9--7--------------5---|-5----5-------9----9----|
G#|-----------------7---5---3----|-------7--9---------------------------------|------------------------|
C#|-----0---3---0----------------|--------------------------------------------|----------0-------------|


D#|------------------------------------------|------------------------------|-----------------------------------------------|
A#|-7------------------------7---8---10--8---|-8----------------------------|-----------------------------------------------|
F#|-7---------7--9--7--------7-----------5---|-5----------------------------|----------10-------12--12-10-------------------|
C#|-7------------------9--7--------------5---|-5---------------9---7---5----|----------10-------12--12----------------------|
G#|-----7--9---------------------------------|-----------------7---5---3----|-10-11-12--------------------12-11-10-8--------|
C#|------------------------------------------|-----0---3---0----------------|----------------0------------------------12-10-|


D#|---------------------------------|-13-----|--------|---------------------|---------------------|
A#|-------------------10--10----13--|-13-----|--------|---------------------|---------------------|
F#|----------10-------10--10--------|--------|--------|---------------------|-10---10---10---10---|
C#|----------10-------10--10----10--|-10-----|-10-----|-10---10---10---10---|-10---10---10---10---|
G#|-10-11-12------------------------|--------|--------|---------------------|---------------------|
C#|----------------0----------------|--------|--------|---------------------|---------------------|


D#|-----------------|--------|
A#|-----------------|--------|
F#|-10--------------|--------|
C#|-10----10--------|--------|
G#|-----------------|--------|
C#|-----------------|--------|





Track 2: Guitar II

D#|--------|--------|--------|--------|-10---10---10----10--|-10---10---10-10---10------10-|
A#|--------|--------|--------|--------|-13---13---13----13--|-13---12---10-10---10------10-|
F#|--------|--------|--------|--------|---------------------|----------------------12------|
C#|--------|--------|--------|--------|---------------------|------------------------------|
G#|--------|--------|--------|--------|---------------------|------------------------------|
C#|--------|--------|--------|--------|---------------------|------------------------------|


D#|--------------2--------3---|-3---------------|--------|--------|--------|--------|
A#|-12-----------3--------3---|-3----4----------|--------|--------|--------|--------|
F#|-12-----------2--------0---|-0----1----------|--------|--------|--------|--------|
C#|-12-----------0------------|------3----------|--------|--------|--------|--------|
G#|----------2---0--------3---|-3----5----------|--------|--------|--------|--------|
C#|------0--------------------|-----------------|--------|--------|--------|--------|


D#|--------|--------|--------|--------|--------|--------|--------|--------|--------|
A#|--------|--------|--------|--------|--------|--------|--------|--------|--------|
F#|--------|--------|--------|--------|--------|--------|--------|--------|--------|
C#|--------|--------|--------|--------|--------|--------|--------|--------|--------|
G#|--------|--------|--------|--------|--------|--------|--------|--------|--------|
C#|--------|--------|--------|--------|--------|--------|--------|--------|--------|


D#|--------|--------|--------|--------|--------|--------|--------|--------|--------|
A#|--------|--------|--------|--------|--------|--------|--------|--------|--------|
F#|--------|--------|--------|--------|--------|--------|--------|--------|--------|
C#|--------|--------|--------|--------|--------|--------|--------|--------|--------|
G#|--------|--------|--------|--------|--------|--------|--------|--------|--------|
C#|--------|--------|--------|--------|--------|--------|--------|--------|--------|


D#|--------|--------|--------|--------|--------|--------|--------|--------|--------|
A#|--------|--------|--------|--------|--------|--------|--------|--------|--------|
F#|--------|--------|--------|--------|--------|--------|--------|--------|--------|
C#|--------|--------|--------|--------|--------|--------|--------|--------|--------|
G#|--------|--------|--------|--------|--------|--------|--------|--------|--------|
C#|--------|--------|--------|--------|--------|--------|--------|--------|--------|


D#|--------|--------|--------|--------|--------|--------|--------|--------|--------|
A#|--------|--------|--------|--------|--------|--------|--------|--------|--------|
F#|--------|--------|--------|--------|--------|--------|--------|--------|--------|
C#|--------|--------|--------|--------|--------|--------|--------|--------|--------|
G#|--------|--------|--------|--------|--------|--------|--------|--------|--------|
C#|--------|--------|--------|--------|--------|--------|--------|--------|--------|


D#|--------|--------|--------|--------|--------|--------|--------|--------|--------|
A#|--------|--------|--------|--------|--------|--------|--------|--------|--------|
F#|--------|--------|--------|--------|--------|--------|--------|--------|--------|
C#|--------|--------|--------|--------|--------|--------|--------|--------|--------|
G#|--------|--------|--------|--------|--------|--------|--------|--------|--------|
C#|--------|--------|--------|--------|--------|--------|--------|--------|--------|


D#|--------|--------|--------|--------|--------|--------|--------|--------|--------|
A#|--------|--------|--------|--------|--------|--------|--------|--------|--------|
F#|--------|--------|--------|--------|--------|--------|--------|--------|--------|
C#|--------|--------|--------|--------|--------|--------|--------|--------|--------|
G#|--------|--------|--------|--------|--------|--------|--------|--------|--------|
C#|--------|--------|--------|--------|--------|--------|--------|--------|--------|


D#|--------|--------|--------|--------|--------|--------|--------|--------|--------|
A#|--------|--------|--------|--------|--------|--------|--------|--------|--------|
F#|--------|--------|--------|--------|--------|--------|--------|--------|--------|
C#|--------|--------|--------|--------|--------|--------|--------|--------|--------|
G#|--------|--------|--------|--------|--------|--------|--------|--------|--------|
C#|--------|--------|--------|--------|--------|--------|--------|--------|--------|


D#|--------|--------|--------|-----------------------3---|-3----------------------------|
A#|--------|--------|--------|-7---------------------3---|-3----------------------------|
F#|--------|--------|--------|-7------------7--------0---|-0----------------------------|
C#|--------|--------|--------|-7------------7------------|-----------------9---7---5----|
G#|--------|--------|--------|----------4---5--------3---|-3---------------7---5---3----|
C#|--------|--------|--------|------0--------------------|-----0---3---0----------------|


D#|-----------------------3---|-3-------3--------------|-----------------------3---|
A#|-12--------------------3---|-3-------3----3----3----|-7---------------------3---|
F#|-12-----------7--------0---|-0---0---0----4----4----|-7------------7--------0---|
C#|-12-----------7------------|--------------5----5----|-7------------7------------|
G#|-10-------4---5----5---3---|-3---3---3--------------|----------4---5--------3---|
C#|------0--------------------|------------------------|------0--------------------|


D#|-3----------------------------|-----------------------3---|-3-------3--------------|
A#|-3----------------------------|-12--------------------3---|-3-------3----3----3----|
F#|-0----------------------------|-10-----------7--------0---|-0---0---0----4----4----|
C#|-----------------9---7---5----|-10-----------7------------|--------------5----5----|
G#|-3---------------7---5---3----|-10-------4---5----5---3---|-3---3---3--------------|
C#|-----0---3---0----------------|------0--------------------|------------------------|


D#|-----------------------3---|-3----------------------------|--------|--------|--------|
A#|-7---------------------3---|-3----------------------------|--------|--------|--------|
F#|-7------------7--------0---|-0----------------------------|--------|--------|--------|
C#|-7------------7------------|-----------------9---7---5----|--------|--------|--------|
G#|----------4---5--------3---|-3---------------7---5---3----|--------|--------|--------|
C#|------0--------------------|-----0---3---0----------------|--------|--------|--------|


D#|------------------------|---------------------------------------------|--------------------------------------|
A#|------------------------|---------------------------------------------|--------------------------------------|
F#|------------------------|---------------------------------------------|--------------------------------------|
C#|------------5--4--3--2--|-3--4--4--4--4------2--2--2-----3--4------3--|-2--2-----4--4------------4--4-----3--|
G#|------------------------|---------------------------------------------|--------------------------------------|
C#|------------------------|---------------------------------------------|--------------------------------------|


D#|-----------------------------------------|--------------------------------------|
A#|-----------------------------------------|--------------------------------------|
F#|-----------------------------------------|--------------------------------------|
C#|-2--2-----------5--5--5--4--4--3--2------|------5------4--4--3--2--2--2--1------|
G#|-----------------------------------------|--------------------------------------|
C#|-----------------------------------------|--------------------------------------|





Track 3: Guitar III

D#|--------|--------|--------|--------|--------------2--------3---|-3---------------|
A#|--------|--------|--------|--------|-12-----------3--------3---|-3----4----------|
F#|--------|--------|--------|--------|-12-----------2--------0---|-0----1----------|
C#|--------|--------|--------|--------|-12-----------0------------|------3----------|
G#|--------|--------|--------|--------|----------2---0--------3---|-3----5----------|
C#|--------|--------|--------|--------|------0--------------------|-----------------|


D#|-------------------------------------------|----------------------------------------|
A#|-10----------------------------------------|----------------------------------------|
F#|-10----------------------------------------|----------------------------------------|
C#|-----12-10-12-12---12-12-10----10-10-------|----12-------11----------10-10-10--10---|
G#|----------------------------12-------12-11-|-10----11-10----11-10-8-----------------|
C#|-------------------------------------------|----------------------------------------|


D#|--------|--------|--------|--------|--------|--------|--------|--------|---------------------------------|
A#|--------|--------|--------|--------|--------|--------|--------|--------|---------------------------------|
F#|--------|--------|--------|--------|--------|--------|--------|--------|---------------------------------|
C#|--------|--------|--------|--------|--------|--------|--------|--------|-----------------5-----------5---|
G#|--------|--------|--------|--------|--------|--------|--------|--------|-5---------------2-----------3---|
C#|--------|--------|--------|--------|--------|--------|--------|--------|-----0---3---0-------0---0-------|


D#|------------------------------------------|-----------------|-----------------|
A#|------------------------------------------|-----------------|-5-----6---6-----|
F#|--------------12-12-10--------------------|-7-----10--10----|-5-----7---7-----|
C#|-5----5----------------12-10--------------|-7-----10--10----|-5---------------|
G#|-3----3----------------------12-10-8------|-----------------|-----------------|
C#|----------0---------------------------12--|-----------------|-----------------|


D#|---------------------|-------------------------------------------|-----------------------3---|
A#|---------------------|-----10-10---------12-10-12-10-12-10-------|-12--------------------3---|
F#|-7-----10------10----|-----12-12-12--10--12-10-12-10-12-10-------|-12-----------7--------0---|
C#|-7-----10------10----|-------------------------------------12-10-|-12-----------7------------|
G#|---------------------|-------------------------------------------|-10-------4---5----5---3---|
C#|---------------------|-------------------------------------------|------0--------------------|


D#|-3-------3--------------|-----------------------3---|-3----------------------------|
A#|-3-------3----3----3----|-7---------------------3---|-3----------------------------|
F#|-0---0---0----4----4----|-7------------7--------0---|-0----------------------------|
C#|--------------5----5----|-7------------7------------|-----------------9---7---5----|
G#|-3---3---3--------------|----------4---5--------3---|-3---------------7---5---3----|
C#|------------------------|------0--------------------|-----0---3---0----------------|


D#|-----------------------3---|-3-------3--------------|-----------------------3---|
A#|-12--------------------3---|-3-------3----3----3----|-7---------------------3---|
F#|-12-----------7--------0---|-0---0---0----4----4----|-7------------7--------0---|
C#|-12-----------7------------|--------------5----5----|-7------------7------------|
G#|-10-------4---5----5---3---|-3---3---3--------------|----------4---5--------3---|
C#|------0--------------------|------------------------|------0--------------------|


D#|-3----------------------------|--------|--------|--------|--------|--------|--------|
A#|-3----------------------------|--------|--------|--------|--------|--------|--------|
F#|-0----------------------------|--------|--------|--------|--------|--------|--------|
C#|-----------------9---7---5----|--------|--------|--------|--------|--------|--------|
G#|-3---------------7---5---3----|--------|--------|--------|--------|--------|--------|
C#|-----0---3---0----------------|--------|--------|--------|--------|--------|--------|


D#|--------|--------|---------------------------------|------------------------------------------|
A#|--------|--------|---------------------------------|------------------------------------------|
F#|--------|--------|---------------------------------|--------------12-12-10--------------------|
C#|--------|--------|-----------------5-----------5---|-5----5----------------12-10--------------|
G#|--------|--------|-5---------------2-----------3---|-3----3----------------------12-10-8------|
C#|--------|--------|-----0---3---0-------0---0-------|----------0---------------------------12--|


D#|-----------------|-----------------|---------------------|-------------------------------------------|
A#|-----------------|-5-----6---6-----|---------------------|-----10-10---------12-10-12-10-12-10-------|
F#|-7-----10--10----|-5-----7---7-----|-7-----10------10----|-----12-12-12--10--12-10-12-10-12-10-------|
C#|-7-----10--10----|-5---------------|-7-----10------10----|-------------------------------------12-10-|
G#|-----------------|-----------------|---------------------|-------------------------------------------|
C#|-----------------|-----------------|---------------------|-------------------------------------------|


D#|-----------------------3---|-3-------3--------------|-----------------------3---|
A#|-12--------------------3---|-3-------3----3----3----|-7---------------------3---|
F#|-12-----------7--------0---|-0---0---0----4----4----|-7------------7--------0---|
C#|-12-----------7------------|--------------5----5----|-7------------7------------|
G#|-10-------4---5----5---3---|-3---3---3--------------|----------4---5--------3---|
C#|------0--------------------|------------------------|------0--------------------|


D#|-3----------------------------|-----------------------3---|-3-------3--------------|
A#|-3----------------------------|-12--------------------3---|-3-------3----3----3----|
F#|-0----------------------------|-12-----------7--------0---|-0---0---0----4----4----|
C#|-----------------9---7---5----|-12-----------7------------|--------------5----5----|
G#|-3---------------7---5---3----|-10-------4---5----5---3---|-3---3---3--------------|
C#|-----0---3---0----------------|------0--------------------|------------------------|


D#|-----------------------3---|-3----------------------------|--------|--------|--------|
A#|-7---------------------3---|-3----------------------------|--------|--------|--------|
F#|-7------------7--------0---|-0----------------------------|--------|--------|--------|
C#|-7------------7------------|-----------------9---7---5----|--------|--------|--------|
G#|----------4---5--------3---|-3---------------7---5---3----|--------|--------|--------|
C#|------0--------------------|-----0---3---0----------------|--------|--------|--------|


D#|--------|--------|--------|--------|--------|--------|--------|--------|---------------------------15-|
A#|--------|--------|--------|--------|--------|--------|--------|--------|------------------------------|
F#|--------|--------|--------|--------|--------|--------|--------|--------|------------------------------|
C#|--------|--------|--------|--------|--------|--------|--------|--------|------------------------------|
G#|--------|--------|--------|--------|--------|--------|--------|--------|---------------10-12-14-15----|
C#|--------|--------|--------|--------|--------|--------|--------|--------|------------------------------|


D#|-15---15--15-15-13-15---15---13-|-----15--13--15--13--13-13---------|----------10----12-131210---10---------------------------------------|
A#|-----------------------------15-|-15------------------------15---13-|-8--10-13----13----------13----12-131210--10---------------------12--|
F#|-----------------------------15-|-15--------------------------------|----------------------------------------13--12121210-12-12-10------12|
C#|--------------------------------|-17--------------------------------|--------------------------------------------------------------12-----|
G#|--------------------------------|-----------------------------------|---------------------------------------------------------------------|
C#|--------------------------------|-----------------------------------|---------------------------------------------------------------------|


D#|------------8-101212108--------------------------------------|--------------------|
A#|----------12------------13-----------------------------------|--------------------|
F#|-10-9--10-----------------10-14130--101210-9-----------------|-10---10------------|
C#|----------------------------------------------12-10-12-10----|--------------------|
G#|----------------------------------------------------12-10-8--|--------------------|
C#|-------------------------------------------------------------|--------------------|


D#|--------|--------|--------|--------|--------|--------|--------|--------|--------|
A#|--------|--------|--------|--------|--------|--------|--------|--------|--------|
F#|--------|--------|--------|--------|--------|--------|--------|--------|--------|
C#|--------|--------|--------|--------|--------|--------|--------|--------|--------|
G#|--------|--------|--------|--------|--------|--------|--------|--------|--------|
C#|--------|--------|--------|--------|--------|--------|--------|--------|--------|


D#|-----------------|--------------------|-13---13---13----13--|-13---13---13--13--10-----------|
A#|-----------------|----------------13--|---------------------|----------------------13-10-13--|
F#|-----------12----|-12----12--14-------|---------------------|--------------------------------|
C#|-----------------|--------------------|---------------------|--------------------------------|
G#|-----------------|--------------------|---------------------|--------------------------------|
C#|-----------------|--------------------|---------------------|--------------------------------|


D#|-----------10---10--|-10--10--10--10----10--10-10-10--10--|---------15---15--15--15---|
A#|-13----13--13---13--|-13--13--13--10-13-12--12-12-10--10--|---------------------------|
F#|--------------------|-------------------------------------|-7---14--------------------|
C#|--------------------|-------------------------------------|---------------------------|
G#|--------------------|-------------------------------------|---------------------------|
C#|--------------------|-------------------------------------|---------------------------|


D#|-13--------------------------17--|-17---17---15--15--13--10-13-15-|-10------------------------------17---17-|
A#|----15---15---13-----15--15--17--|-17-----------------------------|----13-10--------------------------------|
F#|-----------------16--------------|--------------------------------|----------12-12-12-12-11-----------------|
C#|---------------------------------|--------------------------------|-----------------------------------------|
G#|---------------------------------|--------------------------------|-----------------------------------------|
C#|---------------------------------|--------------------------------|-------------------------0---0-----------|


D#|--------|--------|--------|--------|--------|--------|--------|--------|
A#|--------|--------|--------|--------|--------|--------|--------|--------|
F#|--------|--------|--------|--------|--------|--------|--------|--------|
C#|--------|--------|--------|--------|--------|--------|--------|--------|
G#|--------|--------|--------|--------|--------|--------|--------|--------|
C#|--------|--------|--------|--------|--------|--------|--------|--------|





Track 4: Guitar I

D#|--------|--------|--------|--------|--------|--------|--------|--------|--------|
A#|--------|--------|--------|--------|--------|--------|--------|--------|--------|
F#|--------|--------|--------|--------|--------|--------|--------|--------|--------|
C#|--------|--------|--------|--------|--------|--------|--------|--------|--------|
G#|--------|--------|--------|--------|--------|--------|--------|--------|--------|
C#|--------|--------|--------|--------|--------|--------|--------|--------|--------|


D#|--------|--------|--------|--------|--------|--------|--------|--------|--------|
A#|--------|--------|--------|--------|--------|--------|--------|--------|--------|
F#|--------|--------|--------|--------|--------|--------|--------|--------|--------|
C#|--------|--------|--------|--------|--------|--------|--------|--------|--------|
G#|--------|--------|--------|--------|--------|--------|--------|--------|--------|
C#|--------|--------|--------|--------|--------|--------|--------|--------|--------|


D#|--------|--------|--------|--------|--------|--------|--------|--------|--------|
A#|--------|--------|--------|--------|--------|--------|--------|--------|--------|
F#|--------|--------|--------|--------|--------|--------|--------|--------|--------|
C#|--------|--------|--------|--------|--------|--------|--------|--------|--------|
G#|--------|--------|--------|--------|--------|--------|--------|--------|--------|
C#|--------|--------|--------|--------|--------|--------|--------|--------|--------|


D#|--------|--------|--------|--------|--------|--------|--------|--------|--------|
A#|--------|--------|--------|--------|--------|--------|--------|--------|--------|
F#|--------|--------|--------|--------|--------|--------|--------|--------|--------|
C#|--------|--------|--------|--------|--------|--------|--------|--------|--------|
G#|--------|--------|--------|--------|--------|--------|--------|--------|--------|
C#|--------|--------|--------|--------|--------|--------|--------|--------|--------|


D#|--------|--------|--------|--------|--------|--------|--------|--------|--------|
A#|--------|--------|--------|--------|--------|--------|--------|--------|--------|
F#|--------|--------|--------|--------|--------|--------|--------|--------|--------|
C#|--------|--------|--------|--------|--------|--------|--------|--------|--------|
G#|--------|--------|--------|--------|--------|--------|--------|--------|--------|
C#|--------|--------|--------|--------|--------|--------|--------|--------|--------|


D#|--------|--------|--------|--------|--------|--------|--------|--------|--------|
A#|--------|--------|--------|--------|--------|--------|--------|--------|--------|
F#|--------|--------|--------|--------|--------|--------|--------|--------|--------|
C#|--------|--------|--------|--------|--------|--------|--------|--------|--------|
G#|--------|--------|--------|--------|--------|--------|--------|--------|--------|
C#|--------|--------|--------|--------|--------|--------|--------|--------|--------|


D#|--------|--------|--------|--------|--------|--------|--------|--------|--------|
A#|--------|--------|--------|--------|--------|--------|--------|--------|--------|
F#|--------|--------|--------|--------|--------|--------|--------|--------|--------|
C#|--------|--------|--------|--------|--------|--------|--------|--------|--------|
G#|--------|--------|--------|--------|--------|--------|--------|--------|--------|
C#|--------|--------|--------|--------|--------|--------|--------|--------|--------|


D#|--------|--------|--------|--------|--------|--------|--------|--------|--------|
A#|--------|--------|--------|--------|--------|--------|--------|--------|--------|
F#|--------|--------|--------|--------|--------|--------|--------|--------|--------|
C#|--------|--------|--------|--------|--------|--------|--------|--------|--------|
G#|--------|--------|--------|--------|--------|--------|--------|--------|--------|
C#|--------|--------|--------|--------|--------|--------|--------|--------|--------|


D#|-----------------------3---|-3-------3--------------|-----------------------3---|
A#|-12--------------------3---|-3-------3----3----3----|-7---------------------3---|
F#|-12-----------7--------0---|-0---0---0----4----4----|-7------------7--------0---|
C#|-12-----------7------------|--------------5----5----|-7------------7------------|
G#|-10-------4---5----5---3---|-3---3---3--------------|----------4---5--------3---|
C#|------0--------------------|------------------------|------0--------------------|


D#|-3----------------------------|-----------------------3---|-3-------3--------------|
A#|-3----------------------------|-12--------------------3---|-3-------3----3----3----|
F#|-0----------------------------|-12-----------7--------0---|-0---0---0----4----4----|
C#|-----------------9---7---5----|-12-----------7------------|--------------5----5----|
G#|-3---------------7---5---3----|-10-------4---5----5---3---|-3---3---3--------------|
C#|-----0---3---0----------------|------0--------------------|------------------------|


D#|--------|--------|--------|--------|--------|--------|--------|--------|--------|
A#|--------|--------|--------|--------|--------|--------|--------|--------|--------|
F#|--------|--------|--------|--------|--------|--------|--------|--------|--------|
C#|--------|--------|--------|--------|--------|--------|--------|--------|--------|
G#|--------|--------|--------|--------|--------|--------|--------|--------|--------|
C#|--------|--------|--------|--------|--------|--------|--------|--------|--------|


D#|--------|--------|--------|--------|--------|--------|--------|--------|--------|
A#|--------|--------|--------|--------|--------|--------|--------|--------|--------|
F#|--------|--------|--------|--------|--------|--------|--------|--------|--------|
C#|--------|--------|--------|--------|--------|--------|--------|--------|--------|
G#|--------|--------|--------|--------|--------|--------|--------|--------|--------|
C#|--------|--------|--------|--------|--------|--------|--------|--------|--------|





Track 5: Untitled

G|--------|--------|--------|--------|--------|--------|--------|--------|--------|
D|--------|--------|--------|--------|--------|--------|--------|--------|--------|
A|--------|--------|--------|--------|--------|--------|--------|--------|--------|
E|--------|--------|--------|--------|--------|--------|--------|--------|--------|


G|--------|--------|--------|--------|--------|--------|--------|--------|--------|
D|--------|--------|--------|--------|--------|--------|--------|--------|--------|
A|--------|--------|--------|--------|--------|--------|--------|--------|--------|
E|--------|--------|--------|--------|--------|--------|--------|--------|--------|


G|--------|--------|--------|--------|--------|--------|--------|--------|--------|
D|--------|--------|--------|--------|--------|--------|--------|--------|--------|
A|--------|--------|--------|--------|--------|--------|--------|--------|--------|
E|--------|--------|--------|--------|--------|--------|--------|--------|--------|


G|--------|--------|--------|--------|--------|--------|--------|--------|--------|
D|--------|--------|--------|--------|--------|--------|--------|--------|--------|
A|--------|--------|--------|--------|--------|--------|--------|--------|--------|
E|--------|--------|--------|--------|--------|--------|--------|--------|--------|


G|--------|--------|--------|--------|--------|--------|--------|--------|--------|
D|--------|--------|--------|--------|--------|--------|--------|--------|--------|
A|--------|--------|--------|--------|--------|--------|--------|--------|--------|
E|--------|--------|--------|--------|--------|--------|--------|--------|--------|


G|--------|--------|--------|--------|--------|--------|--------|--------|--------|
D|--------|--------|--------|--------|--------|--------|--------|--------|--------|
A|--------|--------|--------|--------|--------|--------|--------|--------|--------|
E|--------|--------|--------|--------|--------|--------|--------|--------|--------|


G|--------|--------|--------|--------|--------|--------|--------|--------|--------|
D|--------|--------|--------|--------|--------|--------|--------|--------|--------|
A|--------|--------|--------|--------|--------|--------|--------|--------|--------|
E|--------|--------|--------|--------|--------|--------|--------|--------|--------|


G|--------|--------|--------|--------|--------|--------|--------|--------|--------|
D|--------|--------|--------|--------|--------|--------|--------|--------|--------|
A|--------|--------|--------|--------|--------|--------|--------|--------|--------|
E|--------|--------|--------|--------|--------|--------|--------|--------|--------|


G|--------|--------|--------|--------|--------|--------|--------|--------|--------|
D|--------|--------|--------|--------|--------|--------|--------|--------|--------|
A|--------|--------|--------|--------|--------|--------|--------|--------|--------|
E|--------|--------|--------|--------|--------|--------|--------|--------|--------|


G|--------|--------|--------|--------|--------|--------|--------|--------|--------|
D|--------|--------|--------|--------|--------|--------|--------|--------|--------|
A|--------|--------|--------|--------|--------|--------|--------|--------|--------|
E|--------|--------|--------|--------|--------|--------|--------|--------|--------|


G|--------|--------|--------|--------|--------|--------|
D|--------|--------|--------|--------|--------|--------|
A|--------|--------|--------|--------|--------|--------|
E|--------|--------|--------|--------|--------|--------|