Site menu:

    

Browse: 0-9 A B C D E F G H I J K L N O P Q R S T U V W X Y Z

peter omara - stairway:



Title: Stairway
Artist: 
Album: 
Author: Peter O'Mara


Track 1: Electric Guitar

E|---------------------|---------------------|---------------------7---7-------|---------------------|
B|---------------------|---------------------|-----5---5---7---7---------------|---------------------|
G|-----------------4---|-4-----6---6-----8---|-8---------------------------4---|-4-----6---6---------|
D|-6-----8---8---------|---------------------|---------------------------------|-----------------6---|
A|---------------------|---------------------|---------------------------------|---------------------|
E|---------------------|---------------------|---------------------------------|---------------------|


E|---------------------|---------------------|-------------|---------------------|
B|---------------------|---------------------|-------------|---------------------|
G|-----------------4---|-4-----6---6-----8---|-8-----------|-----------------4---|
D|-6-----8---8---------|---------------------|-------------|-6-----8---8---------|
A|---------------------|---------------------|-------------|---------------------|
E|---------------------|---------------------|-------------|---------------------|


E|---------------------|---------------------7---7-------|---------------------|---------------------|
B|---------------------|-----5---5---7---7---------------|---------------------|---------------------|
G|-4-----6---6-----8---|-8---------------------------4---|-4-----6---6---------|-----------------4---|
D|---------------------|---------------------------------|-----------------6---|-6-----8---8---------|
A|---------------------|---------------------------------|---------------------|---------------------|
E|---------------------|---------------------------------|---------------------|---------------------|


E|---------------------|-------------|---------------------|---------------------|
B|---------------------|-------------|---------------------|---------------------|
G|-4-----6---6-----4---|-4-----------|-----------------4---|-4-----6---6-----8---|
D|---------------------|-------------|-6-----8---8---------|---------------------|
A|---------------------|-------------|---------------------|---------------------|
E|---------------------|-------------|---------------------|---------------------|


E|---------------------7---7-------|---------------------|---------------------|---------------------|
B|-----5---5---7---7---------------|---------------------|---------------------|---------------------|
G|-8---------------------------4---|-4-----6---6---------|-----------------4---|-4-----6---6-----8---|
D|---------------------------------|-----------------6---|-6-----8---8---------|---------------------|
A|---------------------------------|---------------------|---------------------|---------------------|
E|---------------------------------|---------------------|---------------------|---------------------|


E|-------------|---------------------|---------------------|---------------------7---7-------|
B|-------------|---------------------|---------------------|-----5---5---7---7---------------|
G|-8-----------|-----------------4---|-4-----6---6-----8---|-8---------------------------4---|
D|-------------|-6-----8---8---------|---------------------|---------------------------------|
A|-------------|---------------------|---------------------|---------------------------------|
E|-------------|---------------------|---------------------|---------------------------------|


E|---------------------|---------------------|---------------------|-------------|
B|---------------------|---------------------|---------------------|-------------|
G|-4-----6---6---------|-----------------4---|-4-----6---6-----4---|-4-----------|
D|-----------------6---|-6-----8---8---------|---------------------|-------------|
A|---------------------|---------------------|---------------------|-------------|
E|---------------------|---------------------|---------------------|-------------|


E|-------6---4----3---4---|-4---------------------|-------4---3---2---3----|-3-----------|
B|-4----------------------|-----------4-----------|-2----------------------|-------------|
G|------------------------|---------------3---5---|------------------------|-------------|
D|------------------------|-----------------------|------------------------|-------------|
A|------------------------|-----------------------|------------------------|-------------|
E|------------------------|-----------------------|------------------------|-------------|


E|-------3---2--------2---|-2-----------|-------2----------------|-------------|-------8---6------------|
B|----------------5-------|-------5-----|-4---------5----4---5---|-5-----------|----------------9---9---|
G|-4----------------------|-------------|------------------------|-------------|-8----------------------|
D|------------------------|-------------|------------------------|-------------|------------------------|
A|------------------------|-------------|------------------------|-------------|------------------------|
E|------------------------|-------------|------------------------|-------------|------------------------|


E|-----------------------|------------------------|------------------------|---------------------|
B|-9---------------------|-------9---8---6---7----|-7----------------------|---------------------|
G|-----------8-------5---|-6----------------------|-------6----------------|---------------------|
D|---------------8-------|------------------------|-----------9----8---6---|-6-----8---8-----9---|
A|-----------------------|------------------------|------------------------|---------------------|
E|-----------------------|------------------------|------------------------|---------------------|


E|-------------|------------------------|-------------|
B|-------------|------------------------|-------------|
G|-------------|----------------6-------|-------------|
D|-9-----------|-6-----8---8--------9---|-9-----------|
A|-------------|------------------------|-------------|
E|-------------|------------------------|-------------|





Track 2: Western Guitar

E|---------------------|---------------------|---------------------7---7-------|---------------------|
B|---------------------|---------------------|-------------7---7-----------0---|-0-----2---2---------|
G|-1-----3---3-----4---|-4-----6---6-----8---|-8---9---9-------------------1---|-1-----4---4-----1---|
D|-4-----6---6-----4---|-4-----6---6-----11--|-11--------------------------4---|-4-----4---4-----4---|
A|-2-----4---4-----7---|-7-----9---9-----9---|-9---------------------------4---|-4-----6---6-----2---|
E|-0-----2---2-----4---|-4-----6---6-----7---|-7-------------------------------|-----------------0---|


E|---------------------|---------------------|-------------|---------------------|
B|---------------------|---------------------|-------------|---------------------|
G|-1-----3---3-----4---|-4-----6---6-----8---|-8-----------|-1-----3---3-----4---|
D|-4-----6---6-----4---|-4-----6---6-----11--|-11----------|-4-----6---6-----4---|
A|-2-----4---4-----7---|-7-----9---9-----9---|-9-----------|-2-----4---4-----7---|
E|-0-----2---2-----4---|-4-----6---6-----7---|-7-----------|-0-----2---2-----4---|


E|---------------------|---------------------7---7-------|---------------------|---------------------|
B|---------------------|-------------7---7-----------0---|-0-----2---2---------|---------------------|
G|-4-----6---6-----8---|-8---9---9-------------------1---|-1-----4---4-----1---|-1-----3---3-----4---|
D|-4-----6---6-----11--|-11--------------------------4---|-4-----4---4-----4---|-4-----6---6-----4---|
A|-7-----9---9-----9---|-9---------------------------4---|-4-----6---6-----2---|-2-----4---4-----7---|
E|-4-----6---6-----7---|-7-------------------------------|-----------------0---|-0-----2---2-----4---|


E|---------------------|-------------|---------------------|---------------------|
B|---------------------|-------------|---------------------|---------------------|
G|-4-----6---6-----4---|-4-----------|-1-----3---3-----4---|-4-----6---6-----8---|
D|-4-----6---6-----4---|-4-----------|-4-----6---6-----4---|-4-----6---6-----11--|
A|-7-----9---9-----7---|-7-----------|-2-----4---4-----7---|-7-----9---9-----9---|
E|-4-----6---6-----7---|-7-----------|-0-----2---2-----4---|-4-----6---6-----7---|


E|---------------------7---7-------|---------------------|---------------------|---------------------|
B|-------------7---7-----------0---|-0-----2---2---------|---------------------|---------------------|
G|-8---9---9-------------------1---|-1-----4---4-----1---|-1-----3---3-----4---|-4-----6---6-----8---|
D|-11--------------------------4---|-4-----4---4-----4---|-4-----6---6-----4---|-4-----6---6-----11--|
A|-9---------------------------4---|-4-----6---6-----2---|-2-----4---4-----7---|-7-----9---9-----9---|
E|-7-------------------------------|-----------------0---|-0-----2---2-----4---|-4-----6---6-----7---|


E|-------------|---------------------|---------------------|---------------------7---7-------|
B|-------------|---------------------|---------------------|-------------7---7-----------0---|
G|-8-----------|-1-----3---3-----4---|-4-----6---6-----8---|-8---9---9-------------------1---|
D|-11----------|-4-----6---6-----4---|-4-----6---6-----11--|-11--------------------------4---|
A|-9-----------|-2-----4---4-----7---|-7-----9---9-----9---|-9---------------------------4---|
E|-7-----------|-0-----2---2-----4---|-4-----6---6-----7---|-7-------------------------------|


E|---------------------|---------------------|---------------------|-------------|
B|-0-----2---2---------|---------------------|---------------------|-------------|
G|-1-----4---4-----1---|-1-----3---3-----4---|-4-----6---6-----4---|-4-----------|
D|-4-----4---4-----4---|-4-----6---6-----4---|-4-----6---6-----4---|-4-----------|
A|-4-----6---6-----2---|-2-----4---4-----7---|-7-----9---9-----7---|-7-----------|
E|-----------------0---|-0-----2---2-----4---|-4-----6---6-----7---|-7-----------|


E|--------4---|-4-----------|------------|-------------|--------2---|-2-----------|
B|-4------4---|-4-----------|-2------1---|-1-----3-----|-5------2---|-2-----------|
G|-3------6---|-6-----------|-5------4---|-4-----2-----|-4------4---|-4-----------|
D|-6------3---|-3-----------|-3------2---|-2-----5-----|-5------5---|-5-----------|
A|-3----------|-------------|------------|-------2-----|-4----------|-------------|
E|------------|-------------|------------|-------------|------------|-------------|


E|------------|--------|--------4---|-4-----------|--------2----|-2----------|---------------------|
B|-4------5---|-5------|-4------4---|-4-----------|-2------4----|-4----------|-----------------0---|
G|-6------6---|-6------|-3------6---|-6-----------|-3------6----|-6------1---|-1-----3---3-----1---|
D|-4------5---|-5------|-6------6---|-6-----------|-6------4----|-4------4---|-4-----4---4-----4---|
A|------------|--------|-3----------|-------------|-------------|--------2---|-2-----4---4---------|
E|------------|--------|------------|-------------|-------------|------------|---------------------|


E|-------------|-----------------0---|-0------|
B|-0-----------|-----------------0---|-0------|
G|-1-----------|-1-----3---3-----1---|-1------|
D|-4-----------|-4-----4---4-----4---|-4------|
A|-------------|-2-----4---4---------|--------|
E|-------------|---------------------|--------|





Track 3: Untitled

G|--------|--------|--------|--------|--------|--------|--------|--------|--------|
D|--------|--------|--------|--------|--------|--------|--------|--------|--------|
A|--------|--------|--------|--------|--------|--------|--------|--------|--------|
E|--------|--------|--------|--------|--------|--------|--------|--------|--------|


G|--------|--------|--------|--------|--------|--------|--------|--------|--------|
D|--------|--------|--------|--------|--------|--------|--------|--------|--------|
A|--------|--------|--------|--------|--------|--------|--------|--------|--------|
E|--------|--------|--------|--------|--------|--------|--------|--------|--------|


G|--------|--------|--------|--------|--------|--------|--------|--------|--------|
D|--------|--------|--------|--------|--------|--------|--------|--------|--------|
A|--------|--------|--------|--------|--------|--------|--------|--------|--------|
E|--------|--------|--------|--------|--------|--------|--------|--------|--------|


G|--------|--------|--------|--------|--------|--------|--------|--------|--------|
D|--------|--------|--------|--------|--------|--------|--------|--------|--------|
A|--------|--------|--------|--------|--------|--------|--------|--------|--------|
E|--------|--------|--------|--------|--------|--------|--------|--------|--------|


G|--------|--------|--------|--------|--------|--------|--------|--------|
D|--------|--------|--------|--------|--------|--------|--------|--------|
A|--------|--------|--------|--------|--------|--------|--------|--------|
E|--------|--------|--------|--------|--------|--------|--------|--------|