Site menu:

    

Browse: 0-9 A B C D E F G H I J K L N O P Q R S T U V W X Y Z

paradise lost - hallowed land:



Title: Hallowed Land
Artist: 
Album: 
Author: 


Track 1: Lead

D|-----------------------|---------------------------|-----------------------|---------------------------|
A|-----9---5-------------|-----9---5---9----7----5---|-----9---5-------------|-----9---5---9----7----5---|
F|-6-----------6---6-----|-6-------------------------|-6-----------6---6-----|-6-------------------------|
C|-----------------------|---------------------------|-----------------------|---------------------------|
G|-----------------------|---------------------------|-----------------------|---------------------------|
D|-----------------------|---------------------------|-----------------------|---------------------------|


D|------------------------|----------4-------------|--------------------------|--------------------------|
A|----------5----4--------|---------------5----7---|------------7----5----5---|------------7----5----5---|
F|-4----4-------------6---|-4----4-----------------|-4----4--4----------------|-4----4--4----------------|
C|------------------------|------------------------|--------------------------|--------------------------|
G|------------------------|------------------------|--------------------------|--------------------------|
D|------------------------|------------------------|--------------------------|--------------------------|


D|------------------------|----------4-------------|--------------------------|--------------------------|
A|----------5----4--------|---------------5----7---|------------7----5----5---|------------7----5----5---|
F|-4----4-------------6---|-4----4-----------------|-4----4--4----------------|-4----4--4----------------|
C|------------------------|------------------------|--------------------------|--------------------------|
G|------------------------|------------------------|--------------------------|--------------------------|
D|------------------------|------------------------|--------------------------|--------------------------|


D|--------|--------|--------|--------|--------|--------|--------|--------|--------|
A|--------|--------|--------|--------|--------|--------|--------|--------|--------|
F|--------|--------|--------|--------|--------|--------|--------|--------|--------|
C|--------|--------|--------|--------|--------|--------|--------|--------|--------|
G|--------|--------|--------|--------|--------|--------|--------|--------|--------|
D|--------|--------|--------|--------|--------|--------|--------|--------|--------|


D|--------|--------|--------|--------|--------|--------|--------|--------|--------|
A|--------|--------|--------|--------|--------|--------|--------|--------|--------|
F|--------|--------|--------|--------|--------|--------|--------|--------|--------|
C|--------|--------|--------|--------|--------|--------|--------|--------|--------|
G|--------|--------|--------|--------|--------|--------|--------|--------|--------|
D|--------|--------|--------|--------|--------|--------|--------|--------|--------|


D|--------|--------|--------|--------|--------|--------|-----------------------|---------------------------|
A|--------|--------|--------|--------|--------|--------|-----9---5-------------|-----9---5---9----7----5---|
F|--------|--------|--------|--------|--------|--------|-6-----------6---6-----|-6-------------------------|
C|--------|--------|--------|--------|--------|--------|-----------------------|---------------------------|
G|--------|--------|--------|--------|--------|--------|-----------------------|---------------------------|
D|--------|--------|--------|--------|--------|--------|-----------------------|---------------------------|


D|-----------------------|---------------------------|-----------------------|---------------------------|
A|-----9---5-------------|-----9---5---9----7----5---|-----9---5-------------|-----9---5---9----7----5---|
F|-6-----------6---6-----|-6-------------------------|-6-----------6---6-----|-6-------------------------|
C|-----------------------|---------------------------|-----------------------|---------------------------|
G|-----------------------|---------------------------|-----------------------|---------------------------|
D|-----------------------|---------------------------|-----------------------|---------------------------|


D|-----------------------|---------------------------|------------------------|----------4-------------|
A|-----9---5-------------|-----9---5---9----7----5---|----------5----4--------|---------------5----7---|
F|-6-----------6---6-----|-6-------------------------|-4----4-------------6---|-4----4-----------------|
C|-----------------------|---------------------------|------------------------|------------------------|
G|-----------------------|---------------------------|------------------------|------------------------|
D|-----------------------|---------------------------|------------------------|------------------------|


D|------------------------|------------------------|------------------------|----------4-------------|
A|----------7----5----5---|----------7----5----5---|----------5----4--------|---------------5----7---|
F|-4----4-----------------|-4----4-----------------|-4----4-------------6---|-4----4-----------------|
C|------------------------|------------------------|------------------------|------------------------|
G|------------------------|------------------------|------------------------|------------------------|
D|------------------------|------------------------|------------------------|------------------------|


D|------------------------|------------------------|--------|--------|--------|--------|
A|----------7----5----5---|----------7----5----5---|--------|--------|--------|--------|
F|-4----4-----------------|-4----4-----------------|--------|--------|--------|--------|
C|------------------------|------------------------|--------|--------|--------|--------|
G|------------------------|------------------------|--------|--------|--------|--------|
D|------------------------|------------------------|--------|--------|--------|--------|


D|--------|--------|--------|--------|--------|--------|--------|--------|--------|
A|--------|--------|--------|--------|--------|--------|--------|--------|--------|
F|--------|--------|--------|--------|--------|--------|--------|--------|--------|
C|--------|--------|--------|--------|--------|--------|--------|--------|--------|
G|--------|--------|--------|--------|--------|--------|--------|--------|--------|
D|--------|--------|--------|--------|--------|--------|--------|--------|--------|


D|--------|--------|--------|--------|--------|--------|--------|--------|--------|
A|--------|--------|--------|--------|--------|--------|--------|--------|--------|
F|--------|--------|--------|--------|--------|--------|--------|--------|--------|
C|--------|--------|--------|--------|--------|--------|--------|--------|--------|
G|--------|--------|--------|--------|--------|--------|--------|--------|--------|
D|--------|--------|--------|--------|--------|--------|--------|--------|--------|


D|--------|--------|-----------------------|---------------------------|-----------------------|
A|--------|--------|-----9---5-------------|-----9---5---9----7----5---|-----9---5-------------|
F|--------|--------|-6-----------6---6-----|-6-------------------------|-6-----------6---6-----|
C|--------|--------|-----------------------|---------------------------|-----------------------|
G|--------|--------|-----------------------|---------------------------|-----------------------|
D|--------|--------|-----------------------|---------------------------|-----------------------|


D|---------------------------|-----------------------|---------------------------|
A|-----9---5---9----7----5---|-----9---5-------------|-----9---5---9----7----5---|
F|-6-------------------------|-6-----------6---6-----|-6-------------------------|
C|---------------------------|-----------------------|---------------------------|
G|---------------------------|-----------------------|---------------------------|
D|---------------------------|-----------------------|---------------------------|


D|-----------------------|---------------------------|------------------------|----------4-------------|
A|-----9---5-------------|-----9---5---9----7----5---|----------5----4--------|---------------5----7---|
F|-6-----------6---6-----|-6-------------------------|-4----4-------------6---|-4----4-----------------|
C|-----------------------|---------------------------|------------------------|------------------------|
G|-----------------------|---------------------------|------------------------|------------------------|
D|-----------------------|---------------------------|------------------------|------------------------|


D|------------------------|------------------------|------------------------|----------4-------------|
A|----------7----5----5---|----------7----5----5---|----------5----4--------|---------------5----7---|
F|-4----4-----------------|-4----4-----------------|-4----4-------------6---|-4----4-----------------|
C|------------------------|------------------------|------------------------|------------------------|
G|------------------------|------------------------|------------------------|------------------------|
D|------------------------|------------------------|------------------------|------------------------|


D|------------------------|------------------------|---------------------|---------------------|
A|----------7----5----5---|----------7----5----5---|---------------------|---------------------|
F|-4----4-----------------|-4----4-----------------|-6----6----6----6----|-6----6----6----6----|
C|------------------------|------------------------|---------------------|---------------------|
G|------------------------|------------------------|---------------------|---------------------|
D|------------------------|------------------------|---------------------|---------------------|


D|---------------------|---------------------|---------------------|---------------------|
A|---------------------|---------------------|---------------------|---------------------|
F|-6----6----6----6----|-6----6----6----6----|-6----6----6----6----|-6----6----6----6----|
C|---------------------|---------------------|---------------------|---------------------|
G|---------------------|---------------------|---------------------|---------------------|
D|---------------------|---------------------|---------------------|---------------------|


D|---------------------|---------------------|--------|--------|--------|--------|
A|---------------------|---------------------|--------|--------|-5------|-7------|
F|-6----6----6----6----|-6----6----6----6----|-6------|-6------|--------|--------|
C|---------------------|---------------------|--------|--------|--------|--------|
G|---------------------|---------------------|--------|--------|--------|--------|
D|---------------------|---------------------|--------|--------|--------|--------|


D|--------|--------|-------------------------------------------------|-------------------------------------------------|
A|-12-----|-14-----|-14-17-14-12-14-17-14-12-14-17-14-12-14-17-14-12-|-14-17-14-12-14-17-14-12-14-17-14-12-14-17-14-12-|
F|--------|--------|-------------------------------------------------|-------------------------------------------------|
C|--------|--------|-------------------------------------------------|-------------------------------------------------|
G|--------|--------|-------------------------------------------------|-------------------------------------------------|
D|--------|--------|-------------------------------------------------|-------------------------------------------------|


D|-------------|-------------|-------------------------------------------------|-------------------------------------------------|
A|-14----12----|-7-----5-----|-2--5--2--0--2--5--2--0--2--5--2--0--2--5--2--0--|-2--5--2--0--2--5--2--0--2--5--2--0--2--5--2--0--|
F|-------------|-------------|-------------------------------------------------|-------------------------------------------------|
C|-------------|-------------|-------------------------------------------------|-------------------------------------------------|
G|-------------|-------------|-------------------------------------------------|-------------------------------------------------|
D|-------------|-------------|-------------------------------------------------|-------------------------------------------------|


D|--------|--------|---------------------|---------------------|--------|--------|
A|--------|--------|---------------------|---------------------|--------|--------|
F|-6------|-4------|-6----6----6----6----|-6----6----6----6----|--------|--------|
C|--------|--------|---------------------|---------------------|--------|--------|
G|--------|--------|---------------------|---------------------|--------|--------|
D|--------|--------|---------------------|---------------------|--------|--------|


D|--------|--------|--------|--------|--------|--------|------------------------|------------------------|
A|--------|--------|--------|--------|--------|--------|------10--9----7---7----|-9----10--9-------------|
F|--------|--------|--------|--------|--------|--------|-6----------------------|---------------9---9----|
C|--------|--------|--------|--------|--------|--------|------------------------|------------------------|
G|--------|--------|--------|--------|--------|--------|------------------------|------------------------|
D|--------|--------|--------|--------|--------|--------|------------------------|------------------------|


D|------------------------|--------|------------------------|------------------------|
A|------------------------|--------|------10--9----7---7----|-9----10--9-------------|
F|-9----9----9---8----6---|-6------|-6----------------------|---------------9---9----|
C|------------------------|--------|------------------------|------------------------|
G|------------------------|--------|------------------------|------------------------|
D|------------------------|--------|------------------------|------------------------|


D|------------------------|---------------------------|--------|--------|
A|------------------------|---------------------------|--------|--------|
F|-9---9----9----9----9---|-9---8---8----6---4---4----|-6------|-6------|
C|------------------------|---------------------------|--------|--------|
G|------------------------|---------------------------|--------|--------|
D|------------------------|---------------------------|--------|--------|





Track 2: Rythm

D|--------|--------|--------|---------------------------------|--------------------|
A|--------|--------|--------|---------------------------------|--------------------|
F|--------|--------|--------|---------------------------------|--------------------|
C|--------|--------|--------|-4---4---4---4---4---4---4---4---|-2-----2----2---4---|
G|--------|--------|--------|-4---4---4---4---4---4---4---4---|-2-----2----2---4---|
D|--------|--------|--------|-2---2---2---2---2---2---2---2---|-0-----0----0---2---|


D|--------|--------------------------|--------------------------|--------------------|
A|--------|--------------------------|--------------------------|--------------------|
F|--------|-4------------------------|-4------------------------|--------------------|
C|-6------|-4----------4----2----2---|-4----------4----2----2---|-2-----2----2---4---|
G|-6------|-2----2--2--4----2----2---|-2----2--2--4----2----2---|-2-----2----2---4---|
D|-4------|------------2----0----0---|------------2----0----0---|-0-----0----0---2---|


D|--------|--------------------------|--------------------------|-----------------|
A|--------|--------------------------|--------------------------|-----------------|
F|--------|-4------------------------|-4------------------------|-----------------|
C|-6------|-4----------4----2----2---|-4----------4----2----2---|-9-----9----9----|
G|-6------|-2----2--2--4----2----2---|-2----2--2--4----2----2---|-7-----7----7----|
D|-4------|------------2----0----0---|------------2----0----0---|-----------------|


D|--------|----------------------------------|----------------------------------|-----------------|
A|--------|----------------------------------|----------------------------------|-----------------|
F|--------|----------------------------------|----------------------------------|-----------------|
C|-11-----|-4---6---6--6--6----6--6--9---9---|-4---6---6--6--6----6--6--6---9---|-9-----9----9----|
G|-9------|-2---4---4--4--4----4--4--7---7---|-2---4---4--4--4----4--4--4---7---|-7-----7----7----|
D|--------|----------------------------------|----------------------------------|-----------------|


D|--------|----------------------------------|-----------------------------|-----------------|
A|--------|----------------------------------|-----------------------------|-----------------|
F|--------|----------------------------------|-----------------------------|-----------------|
C|-11-----|-4---6---6--6--6----6--6--9---9---|-4---6--6--6---6----4----2---|-9-----9----9----|
G|-9------|-2---4---4--4--4----4--4--7---7---|-2---4--4--4---6----4----2---|-7-----7----7----|
D|--------|----------------------------------|---------------4----2----0---|-----------------|


D|--------|----------------------------------|----------------------------------|-----------------|
A|--------|----------------------------------|----------------------------------|-----------------|
F|--------|----------------------------------|----------------------------------|-----------------|
C|-11-----|-4---6---6--6--6----6--6--9---9---|-4---6---6--6--6----6--6--6---9---|-9-----9----9----|
G|-9------|-2---4---4--4--4----4--4--7---7---|-2---4---4--4--4----4--4--4---7---|-7-----7----7----|
D|--------|----------------------------------|----------------------------------|-----------------|


D|--------|----------------------------------|-----------------------------|--------|
A|--------|----------------------------------|-----------------------------|--------|
F|--------|----------------------------------|-----------------------------|--------|
C|-11-----|-4---6---6--6--6----6--6--9---9---|-4---6--6--6---6----4----2---|--------|
G|-9------|-2---4---4--4--4----4--4--7---7---|-2---4--4--4---6----4----2---|--------|
D|--------|----------------------------------|---------------4----2----0---|--------|


D|--------|----------------------|--------|--------|--------|--------|--------|--------|
A|--------|----------------------|--------|--------|--------|--------|--------|--------|
F|--------|----------------6--6--|-6------|-2------|-6------|-9------|-6------|-6------|
C|--------|----------------6--6--|-6------|-2------|-6------|-9------|-6------|-6------|
G|--------|----------------4--4--|-4------|-0------|-4------|-7------|-4------|-4------|
D|--------|----------------------|--------|--------|--------|--------|--------|--------|


D|--------|--------|--------|--------|--------|--------|--------|--------------------|
A|--------|--------|--------|--------|--------|--------|--------|--------------------|
F|-9------|--------|--------|-6------|-9------|--------|--------|--------------------|
C|-9------|-4------|-4------|-6------|-9------|-4------|-4------|-2-----2----2---4---|
G|-7------|-4------|-4------|-4------|-7------|-4------|-4------|-2-----2----2---4---|
D|--------|-2------|-2------|--------|--------|-2------|-2------|-0-----0----0---2---|


D|--------|--------------------------|--------------------------|--------------------|
A|--------|--------------------------|--------------------------|--------------------|
F|--------|-4------------------------|-4------------------------|--------------------|
C|-6------|-4----------4----2----2---|-4----------4----2----2---|-2-----2----2---4---|
G|-6------|-2----2--2--4----2----2---|-2----2--2--4----2----2---|-2-----2----2---4---|
D|-4------|------------2----0----0---|------------2----0----0---|-0-----0----0---2---|


D|--------|--------------------------|--------------------------|-----------------|
A|--------|--------------------------|--------------------------|-----------------|
F|--------|-4------------------------|-4------------------------|-----------------|
C|-6------|-4----------4----2----2---|-4----------4----2----2---|-9-----9----9----|
G|-6------|-2----2--2--4----2----2---|-2----2--2--4----2----2---|-7-----7----7----|
D|-4------|------------2----0----0---|------------2----0----0---|-----------------|


D|--------|----------------------------------|----------------------------------|-----------------|
A|--------|----------------------------------|----------------------------------|-----------------|
F|--------|----------------------------------|----------------------------------|-----------------|
C|-11-----|-4---6---6--6--6----6--6--9---9---|-4---6---6--6--6----6--6--6---9---|-9-----9----9----|
G|-9------|-2---4---4--4--4----4--4--7---7---|-2---4---4--4--4----4--4--4---7---|-7-----7----7----|
D|--------|----------------------------------|----------------------------------|-----------------|


D|--------|----------------------------------|-----------------------------|-----------------|
A|--------|----------------------------------|-----------------------------|-----------------|
F|--------|----------------------------------|-----------------------------|-----------------|
C|-11-----|-4---6---6--6--6----6--6--9---9---|-4---6--6--6---6----4----2---|-9-----9----9----|
G|-9------|-2---4---4--4--4----4--4--7---7---|-2---4--4--4---6----4----2---|-7-----7----7----|
D|--------|----------------------------------|---------------4----2----0---|-----------------|


D|--------|----------------------------------|----------------------------------|-----------------|
A|--------|----------------------------------|----------------------------------|-----------------|
F|--------|----------------------------------|----------------------------------|-----------------|
C|-11-----|-4---6---6--6--6----6--6--9---9---|-4---6---6--6--6----6--6--6---9---|-9-----9----9----|
G|-9------|-2---4---4--4--4----4--4--7---7---|-2---4---4--4--4----4--4--4---7---|-7-----7----7----|
D|--------|----------------------------------|----------------------------------|-----------------|


D|--------|----------------------------------|-----------------------------|--------|
A|--------|----------------------------------|-----------------------------|--------|
F|--------|----------------------------------|-----------------------------|--------|
C|-11-----|-4---6---6--6--6----6--6--9---9---|-4---6--6--6---6----4----2---|--------|
G|-9------|-2---4---4--4--4----4--4--7---7---|-2---4--4--4---6----4----2---|--------|
D|--------|----------------------------------|---------------4----2----0---|--------|


D|--------|----------------------|--------|--------|--------|--------|--------|--------|
A|--------|----------------------|--------|--------|--------|--------|--------|--------|
F|--------|----------------6--6--|-6------|-2------|-6------|-9------|-6------|-6------|
C|--------|----------------6--6--|-6------|-2------|-6------|-9------|-6------|-6------|
G|--------|----------------4--4--|-4------|-0------|-4------|-7------|-4------|-4------|
D|--------|----------------------|--------|--------|--------|--------|--------|--------|


D|--------|--------|--------|--------|--------|--------|--------|--------------------|
A|--------|--------|--------|--------|--------|--------|--------|--------------------|
F|-9------|--------|--------|-6------|-9------|--------|--------|--------------------|
C|-9------|-4------|-4------|-6------|-9------|-4------|-4------|-2-----2----2---4---|
G|-7------|-4------|-4------|-4------|-7------|-4------|-4------|-2-----2----2---4---|
D|--------|-2------|-2------|--------|--------|-2------|-2------|-0-----0----0---2---|


D|--------|--------------------------|--------------------------|--------------------|
A|--------|--------------------------|--------------------------|--------------------|
F|--------|-4------------------------|-4------------------------|--------------------|
C|-6------|-4----------4----2----2---|-4----------4----2----2---|-2-----2----2---4---|
G|-6------|-2----2--2--4----2----2---|-2----2--2--4----2----2---|-2-----2----2---4---|
D|-4------|------------2----0----0---|------------2----0----0---|-0-----0----0---2---|


D|--------|--------------------------|--------------------------|-------------|-------------|
A|--------|--------------------------|--------------------------|-------------|-------------|
F|--------|-4------------------------|-4------------------------|-2-----6-----|-------------|
C|-6------|-4----------4----2----2---|-4----------4----2----2---|-2-----6-----|-4-----2-----|
G|-6------|-2----2--2--4----2----2---|-2----2--2--4----2----2---|-0-----4-----|-4-----2-----|
D|-4------|------------2----0----0---|------------2----0----0---|-------------|-2-----0-----|


D|-------------|--------|-------------|-------------|-------------|--------|--------------------|
A|-------------|--------|-------------|-------------|-------------|--------|--------------------|
F|-------4-----|-6------|-2-----------|-6-----------|-9-----------|--------|--------------------|
C|-6-----4-----|-6------|-2-----4-----|-6-----6-----|-9-----9-----|-11-----|-2---2---2----2-----|
G|-6-----2-----|-4------|-0-----4-----|-4-----6-----|-7-----9-----|-11-----|-2---2---2----2-----|
D|-4-----------|--------|-------2-----|-------4-----|-------7-----|-9------|-0---0---0----0-----|


D|--------------------|--------------------|--------------------|--------------------|
A|--------------------|--------------------|--------------------|--------------------|
F|--------------------|-6---6---6----6-----|--------------------|--------------------|
C|-6---6---6----6-----|-6---6---6----6-----|-4---4---4----4-----|-2---2---2----2-----|
G|-6---6---6----6-----|-4---4---4----4-----|-4---4---4----4-----|-2---2---2----2-----|
D|-4---4---4----4-----|--------------------|-2---2---2----2-----|-0---0---0----0-----|


D|--------------------|--------------------|--------------------|--------------------|
A|--------------------|--------------------|--------------------|--------------------|
F|--------------------|-6---6---6----6-----|--------------------|--------------------|
C|-6---6---6----6-----|-6---6---6----6-----|-4---4---4----4-----|-2---2---2----2-----|
G|-6---6---6----6-----|-4---4---4----4-----|-4---4---4----4-----|-2---2---2----2-----|
D|-4---4---4----4-----|--------------------|-2---2---2----2-----|-0---0---0----0-----|


D|--------------------|--------------------|--------------------|--------------------|
A|--------------------|--------------------|--------------------|--------------------|
F|--------------------|-6---6---6----6-----|--------------------|--------------------|
C|-6---6---6----6-----|-6---6---6----6-----|-4---4---4----4-----|-2---2---2----2-----|
G|-6---6---6----6-----|-4---4---4----4-----|-4---4---4----4-----|-2---2---2----2-----|
D|-4---4---4----4-----|--------------------|-2---2---2----2-----|-0---0---0----0-----|


D|--------------------|--------------------|------------------------|-------------|
A|--------------------|--------------------|------------------------|-------------|
F|--------------------|-6---6---6----6-----|------------------------|-2-----6-----|
C|-6---6---6----6-----|-6---6---6----6-----|-4---4---4----4----11---|-2-----6-----|
G|-6---6---6----6-----|-4---4---4----4-----|-4---4---4----4----11---|-0-----4-----|
D|-4---4---4----4-----|--------------------|-2---2---2----2----9----|-------------|


D|-------------|-------------|--------|-------------|-------------|-------------|--------|
A|-------------|-------------|--------|-------------|-------------|-------------|--------|
F|-------------|-------4-----|-6------|-2-----------|-6-----------|-9-----------|--------|
C|-4-----2-----|-6-----4-----|-6------|-2-----4-----|-6-----6-----|-9-----9-----|-11-----|
G|-4-----2-----|-6-----2-----|-4------|-0-----4-----|-4-----6-----|-7-----9-----|-11-----|
D|-2-----0-----|-4-----------|--------|-------2-----|-------4-----|-------7-----|-9------|


D|-------------|-------------|-------------|--------|-------------|-------------|--------|
A|-------------|-------------|-------------|--------|-------------|-------------|--------|
F|-2-----6-----|-------------|-------4-----|-6------|-2-----------|-6-----------|-9------|
C|-2-----6-----|-4-----2-----|-6-----4-----|-6------|-2-----4-----|-6-----6-----|-9------|
G|-0-----4-----|-4-----2-----|-6-----2-----|-4------|-0-----4-----|-4-----6-----|-7------|
D|-------------|-2-----0-----|-4-----------|--------|-------2-----|-------4-----|--------|


D|---------------------------|--------|--------|
A|---------------------------|--------|--------|
F|-9---8---8----6---4---4----|-6------|-6------|
C|-9---8---8----6---4---4----|-6------|-6------|
G|-7---6---6----4---2---2----|-4------|-4------|
D|---------------------------|--------|--------|





Track 3: Piano

D|--------|--------|--------|--------|--------|--------|--------|--------|--------|
A|--------|--------|--------|--------|--------|--------|--------|--------|--------|
F|--------|--------|--------|--------|--------|--------|--------|--------|--------|
C|--------|--------|--------|--------|--------|--------|--------|--------|--------|
G|--------|--------|--------|--------|--------|--------|--------|--------|--------|
D|--------|--------|--------|--------|--------|--------|--------|--------|--------|


D|--------|--------|--------|--------|--------|--------|--------|--------|--------|
A|--------|--------|--------|--------|--------|--------|--------|--------|--------|
F|--------|--------|--------|--------|--------|--------|--------|--------|--------|
C|--------|--------|--------|--------|--------|--------|--------|--------|--------|
G|--------|--------|--------|--------|--------|--------|--------|--------|--------|
D|--------|--------|--------|--------|--------|--------|--------|--------|--------|


D|--------|--------|--------|--------|--------|--------|--------|--------|--------|
A|--------|--------|--------|--------|--------|--------|--------|--------|--------|
F|--------|--------|--------|--------|--------|--------|--------|--------|--------|
C|--------|--------|--------|--------|--------|--------|--------|--------|--------|
G|--------|--------|--------|--------|--------|--------|--------|--------|--------|
D|--------|--------|--------|--------|--------|--------|--------|--------|--------|


D|--------|------------------------|------------------------|------------------------|
A|--------|------10--9----7---7----|-9----10--9-------------|------------------------|
F|--------|-6----------------------|---------------9---9----|-9----9----9---8----6---|
C|--------|------------------------|------------------------|------------------------|
G|--------|------------------------|------------------------|------------------------|
D|--------|------------------------|------------------------|------------------------|


D|--------|--------|--------|--------|--------|--------|--------|--------|--------|
A|--------|--------|--------|--------|--------|--------|--------|--------|--------|
F|-6------|--------|--------|--------|--------|--------|--------|--------|--------|
C|--------|--------|--------|--------|--------|--------|--------|--------|--------|
G|--------|--------|--------|--------|--------|--------|--------|--------|--------|
D|--------|--------|--------|--------|--------|--------|--------|--------|--------|


D|--------|--------|--------|--------|--------|--------|--------|--------|--------|
A|--------|--------|--------|--------|--------|--------|--------|--------|--------|
F|--------|--------|--------|--------|--------|--------|--------|--------|--------|
C|--------|--------|--------|--------|--------|--------|--------|--------|--------|
G|--------|--------|--------|--------|--------|--------|--------|--------|--------|
D|--------|--------|--------|--------|--------|--------|--------|--------|--------|


D|--------|--------|--------|--------|--------|--------|--------|--------|--------|
A|--------|--------|--------|--------|--------|--------|--------|--------|--------|
F|--------|--------|--------|--------|--------|--------|--------|--------|--------|
C|--------|--------|--------|--------|--------|--------|--------|--------|--------|
G|--------|--------|--------|--------|--------|--------|--------|--------|--------|
D|--------|--------|--------|--------|--------|--------|--------|--------|--------|


D|--------|--------|--------|--------|--------|--------|--------|--------|--------|
A|--------|--------|--------|--------|--------|--------|--------|--------|--------|
F|--------|--------|--------|--------|--------|--------|--------|--------|--------|
C|--------|--------|--------|--------|--------|--------|--------|--------|--------|
G|--------|--------|--------|--------|--------|--------|--------|--------|--------|
D|--------|--------|--------|--------|--------|--------|--------|--------|--------|


D|--------|------------------------|------------------------|------------------------|
A|--------|------10--9----7---7----|-9----10--9-------------|------------------------|
F|--------|-6----------------------|---------------9---9----|-9----9----9---8----6---|
C|--------|------------------------|------------------------|------------------------|
G|--------|------------------------|------------------------|------------------------|
D|--------|------------------------|------------------------|------------------------|


D|--------|--------|--------|--------|--------|--------|--------|--------|--------|
A|--------|--------|--------|--------|--------|--------|--------|--------|--------|
F|-6------|--------|--------|--------|--------|--------|--------|--------|--------|
C|--------|--------|--------|--------|--------|--------|--------|--------|--------|
G|--------|--------|--------|--------|--------|--------|--------|--------|--------|
D|--------|--------|--------|--------|--------|--------|--------|--------|--------|


D|--------|--------|--------|--------|--------|--------|--------|--------|--------|
A|--------|--------|--------|--------|--------|--------|--------|--------|--------|
F|--------|--------|--------|--------|--------|--------|--------|--------|--------|
C|--------|--------|--------|--------|--------|--------|--------|--------|--------|
G|--------|--------|--------|--------|--------|--------|--------|--------|--------|
D|--------|--------|--------|--------|--------|--------|--------|--------|--------|


D|--------|--------|--------|--------|--------|--------|--------|--------|--------|
A|--------|--------|--------|--------|--------|--------|--------|--------|--------|
F|--------|--------|--------|--------|--------|--------|--------|--------|--------|
C|--------|--------|--------|--------|--------|--------|--------|--------|--------|
G|--------|--------|--------|--------|--------|--------|--------|--------|--------|
D|--------|--------|--------|--------|--------|--------|--------|--------|--------|


D|--------|--------|--------|--------|--------|--------|--------|--------|--------|
A|--------|--------|--------|--------|--------|--------|--------|--------|--------|
F|--------|--------|--------|--------|--------|--------|--------|--------|--------|
C|--------|--------|--------|--------|--------|--------|--------|--------|--------|
G|--------|--------|--------|--------|--------|--------|--------|--------|--------|
D|--------|--------|--------|--------|--------|--------|--------|--------|--------|


D|--------|--------|--------|--------|--------|--------|--------|--------|--------|
A|--------|--------|--------|--------|--------|--------|--------|--------|--------|
F|--------|--------|--------|--------|--------|--------|--------|--------|--------|
C|--------|--------|--------|--------|--------|--------|--------|--------|--------|
G|--------|--------|--------|--------|--------|--------|--------|--------|--------|
D|--------|--------|--------|--------|--------|--------|--------|--------|--------|


D|--------|--------|--------|--------|--------|--------|--------|--------|--------|
A|--------|--------|--------|--------|--------|--------|--------|--------|--------|
F|--------|--------|--------|--------|--------|--------|--------|--------|--------|
C|--------|--------|--------|--------|--------|--------|--------|--------|--------|
G|--------|--------|--------|--------|--------|--------|--------|--------|--------|
D|--------|--------|--------|--------|--------|--------|--------|--------|--------|


D|--------|--------|--------|--------|--------|--------|--------|--------|--------|
A|--------|--------|--------|--------|--------|--------|--------|--------|--------|
F|--------|--------|--------|--------|--------|--------|--------|--------|--------|
C|--------|--------|--------|--------|--------|--------|--------|--------|--------|
G|--------|--------|--------|--------|--------|--------|--------|--------|--------|
D|--------|--------|--------|--------|--------|--------|--------|--------|--------|





Track 4: Bass

F|--------|--------|--------|---------------------------------|-----------------------------------|
C|--------|--------|--------|---------------------------------|-----------------------------------|
G|--------|--------|--------|---------------------------------|-----------------------------------|
D|--------|--------|--------|-2---2---2---2---2---2---2---2---|-0---0--0--0---0---0---0---0---0---|
A|--------|--------|--------|---------------------------------|-----------------------------------|


F|-----------------------------------|------------------------------|------------------------------|
C|-----------------------------------|------------------------------|------------------------------|
G|-----------------------------------|------------------------------|------------------------------|
D|-4---4--4--4---4---4---4---4---4---|-------------2----0---0---0---|-------------2----0---0---0---|
A|-----------------------------------|-2---2---2--------------------|-2---2---2--------------------|


F|-----------------------------------|-----------------------------------|------------------------------|
C|-----------------------------------|-----------------------------------|------------------------------|
G|-----------------------------------|-----------------------------------|------------------------------|
D|-0---0--0--0---0---0---0---0---0---|-4---4--4--4---4---4---4---4---4---|-------------2----0---0---0---|
A|-----------------------------------|-----------------------------------|-2---2---2--------------------|


F|------------------------------|--------------------------------|--------------------------------|
C|------------------------------|--------------------------------|--------------------------------|
G|------------------------------|--------------------------------|--------------------------------|
D|-------------2----0---0---0---|-0---0--0--0---0---0----0---0---|-2---2--2--2---2---2----2---2---|
A|-2---2---2--------------------|--------------------------------|--------------------------------|


F|------------------------------|------------------------------|--------------------------------|
C|------------------------------|------------------------------|--------------------------------|
G|------------------------------|------------------------------|--------------------------------|
D|------------------------------|------------------------------|-0---0--0--0---0---0----0---0---|
A|-0---2---2---2----2---5---5---|-0---2---2---2----2---2---5---|--------------------------------|


F|--------------------------------|------------------------------|---------------------------|
C|--------------------------------|------------------------------|---------------------------|
G|--------------------------------|------------------------------|---------------------------|
D|-2---2--2--2---2---2----2---2---|------------------------------|-------------4----2----0---|
A|--------------------------------|-0---2---2---2----2---5---5---|-0---2---2-----------------|


F|--------------------------------|--------------------------------|------------------------------|
C|--------------------------------|--------------------------------|------------------------------|
G|--------------------------------|--------------------------------|------------------------------|
D|-0---0--0--0---0---0----0---0---|-2---2--2--2---2---2----2---2---|------------------------------|
A|--------------------------------|--------------------------------|-0---2---2---2----2---5---5---|


F|------------------------------|--------------------------------|--------------------------------|
C|------------------------------|--------------------------------|--------------------------------|
G|------------------------------|--------------------------------|--------------------------------|
D|------------------------------|-0---0--0--0---0---0----0---0---|-2---2--2--2---2---2----2---2---|
A|-0---2---2---2----2---2---5---|--------------------------------|--------------------------------|


F|------------------------------|---------------------------|---------------------------------|
C|------------------------------|---------------------------|---------------------------------|
G|------------------------------|---------------------------|-----------------4---4---4---4---|
D|------------------------------|-------------4----2----0---|-5---5---5---5-------------------|
A|-0---2---2---2----2---5---5---|-0---2---2-----------------|---------------------------------|


F|---------------------------------|---------------------------------|---------------------------------|
C|---------------------------------|---------------------------------|---------------------------------|
G|---------------------------------|-----------------2---2---2---2---|-4---4---4---4---4---4---4---4---|
D|-2---2---2---2---0---0---0---0---|-4---4---4---4-------------------|---------------------------------|
A|---------------------------------|---------------------------------|---------------------------------|


F|---------------------------------|---------------------------------|---------------------------------|
C|---------------------------------|---------------------------------|---------------------------------|
G|-0---0---0---0-------------------|-4---4---4---4-------------------|-7---7---7---7-------------------|
D|-----------------2---2---2---2---|-----------------4---4---4---4---|-----------------7---7---7---7---|
A|---------------------------------|---------------------------------|---------------------------------|


F|---------------------------------|---------------------------------|---------------------------------|
C|---------------------------------|---------------------------------|---------------------------------|
G|---------------------------------|-4---4---4---4---4---4---4---4---|-7---7---7---7---7---7---7---7---|
D|-9---9---9---9---9---9---9---9---|---------------------------------|---------------------------------|
A|---------------------------------|---------------------------------|---------------------------------|


F|---------------------------------|---------------------------------|---------------------------------|
C|---------------------------------|-----------------------------2---|---------------------------------|
G|---------------------------------|-------------------------0-------|-4---4---4---4---4---4---4---4---|
D|-2---2---2---2---2---2---2---2---|-2---2---2---2---2---4-----------|---------------------------------|
A|---------------------------------|---------------------------------|---------------------------------|


F|---------------------------------|---------------------------------|---------------------------------|
C|---------------------------------|---------------------------------|---------------------------------|
G|-7---7---7---7---7---7---7---7---|---------------------------------|---------------------------------|
D|---------------------------------|-2---2---2---2---2---2---2---2---|-2---2---2---2---2---2---2---2---|
A|---------------------------------|---------------------------------|---------------------------------|


F|-----------------------------------|-----------------------------------|---------------------------------|
C|-----------------------------------|-----------------------------------|---------------------------------|
G|-----------------------------------|-----------------------------------|---------------------------------|
D|-0---0--0--0---0---0---0---0---0---|-4---4--4--4---4---4---4---4---4---|-------------2---2---0---0---0---|
A|-----------------------------------|-----------------------------------|-0---0---0-----------------------|


F|---------------------------------|-----------------------------------|-----------------------------------|
C|---------------------------------|-----------------------------------|-----------------------------------|
G|---------------------------------|-----------------------------------|-----------------------------------|
D|-------------2---2---0---0---0---|-0---0--0--0---0---0---0---0---0---|-4---4--4--4---4---4---4---4---4---|
A|-0---0---0-----------------------|-----------------------------------|-----------------------------------|


F|---------------------------------|---------------------------------|--------------------------------|
C|---------------------------------|---------------------------------|--------------------------------|
G|---------------------------------|---------------------------------|--------------------------------|
D|-------------2---2---0---0---0---|-------------2---2---0---0---0---|-0---0--0--0---0---0----0---0---|
A|-0---0---0-----------------------|-0---0---0-----------------------|--------------------------------|


F|--------------------------------|------------------------------|------------------------------|
C|--------------------------------|------------------------------|------------------------------|
G|--------------------------------|------------------------------|------------------------------|
D|-2---2--2--2---2---2----2---2---|------------------------------|------------------------------|
A|--------------------------------|-0---2---2---2----2---5---5---|-0---2---2---2----2---2---5---|


F|--------------------------------|--------------------------------|------------------------------|
C|--------------------------------|--------------------------------|------------------------------|
G|--------------------------------|--------------------------------|------------------------------|
D|-0---0--0--0---0---0----0---0---|-2---2--2--2---2---2----2---2---|------------------------------|
A|--------------------------------|--------------------------------|-0---2---2---2----2---5---5---|


F|---------------------------|--------------------------------|--------------------------------|
C|---------------------------|--------------------------------|--------------------------------|
G|---------------------------|--------------------------------|--------------------------------|
D|-------------4----2----0---|-0---0--0--0---0---0----0---0---|-2---2--2--2---2---2----2---2---|
A|-0---2---2-----------------|--------------------------------|--------------------------------|


F|------------------------------|------------------------------|--------------------------------|
C|------------------------------|------------------------------|--------------------------------|
G|------------------------------|------------------------------|--------------------------------|
D|------------------------------|------------------------------|-0---0--0--0---0---0----0---0---|
A|-0---2---2---2----2---5---5---|-0---2---2---2----2---2---5---|--------------------------------|


F|--------------------------------|------------------------------|---------------------------|
C|--------------------------------|------------------------------|---------------------------|
G|--------------------------------|------------------------------|---------------------------|
D|-2---2--2--2---2---2----2---2---|------------------------------|-------------4----2----0---|
A|--------------------------------|-0---2---2---2----2---5---5---|-0---2---2-----------------|


F|---------------------------------|---------------------------------|---------------------------------|
C|---------------------------------|---------------------------------|---------------------------------|
G|-----------------4---4---4---4---|---------------------------------|-----------------2---2---2---2---|
D|-5---5---5---5-------------------|-2---2---2---2---0---0---0---0---|-4---4---4---4-------------------|
A|---------------------------------|---------------------------------|---------------------------------|


F|---------------------------------|---------------------------------|---------------------------------|
C|---------------------------------|---------------------------------|---------------------------------|
G|-4---4---4---4---4---4---4---4---|-0---0---0---0-------------------|-4---4---4---4-------------------|
D|---------------------------------|-----------------2---2---2---2---|-----------------4---4---4---4---|
A|---------------------------------|---------------------------------|---------------------------------|


F|---------------------------------|---------------------------------|---------------------------------|
C|---------------------------------|---------------------------------|---------------------------------|
G|-7---7---7---7-------------------|---------------------------------|-4---4---4---4---4---4---4---4---|
D|-----------------7---7---7---7---|-9---9---9---9---9---9---9---9---|---------------------------------|
A|---------------------------------|---------------------------------|---------------------------------|


F|---------------------------------|---------------------------------|---------------------------------|
C|---------------------------------|---------------------------------|-----------------------------2---|
G|-7---7---7---7---7---7---7---7---|---------------------------------|-------------------------0-------|
D|---------------------------------|-2---2---2---2---2---2---2---2---|-2---2---2---2---2---4-----------|
A|---------------------------------|---------------------------------|---------------------------------|


F|---------------------------------|---------------------------------|---------------------------------|
C|---------------------------------|---------------------------------|---------------------------------|
G|-4---4---4---4---4---4---4---4---|-7---7---7---7---7---7---7---7---|---------------------------------|
D|---------------------------------|---------------------------------|-2---2---2---2---2---2---2---2---|
A|---------------------------------|---------------------------------|---------------------------------|


F|---------------------------------|-----------------------------------|-----------------------------------|
C|---------------------------------|-----------------------------------|-----------------------------------|
G|---------------------------------|-----------------------------------|-----------------------------------|
D|-2---2---2---2---2---2---2---2---|-0---0--0--0---0---0---0---0---0---|-4---4--4--4---4---4---4---4---4---|
A|---------------------------------|-----------------------------------|-----------------------------------|


F|---------------------------------|---------------------------------|-----------------------------------|
C|---------------------------------|---------------------------------|-----------------------------------|
G|---------------------------------|---------------------------------|-----------------------------------|
D|-------------2---2---0---0---0---|-------------2---2---0---0---0---|-0---0--0--0---0---0---0---0---0---|
A|-0---0---0-----------------------|-0---0---0-----------------------|-----------------------------------|


F|-----------------------------------|---------------------------------|---------------------------------|
C|-----------------------------------|---------------------------------|---------------------------------|
G|-----------------------------------|---------------------------------|---------------------------------|
D|-4---4--4--4---4---4---4---4---4---|-------------2---2---0---0---0---|-------------2---2---0---0---0---|
A|-----------------------------------|-0---0---0-----------------------|-0---0---0-----------------------|


F|---------------------------------|---------------------------------|---------------------------------|
C|---------------------------------|---------------------------------|---------------------------------|
G|-----------------4---4---4---4---|---------------------------------|-----------------2---2---2---2---|
D|-5---5---5---5-------------------|-2---2---2---2---0---0---0---0---|-4---4---4---4-------------------|
A|---------------------------------|---------------------------------|---------------------------------|


F|---------------------------------|---------------------------------|---------------------------------|
C|---------------------------------|---------------------------------|---------------------------------|
G|---------------------------------|-0---0---0---0-------------------|-4---4---4---4-------------------|
D|-4---4---4---4---4---4---4---4---|-----------------2---2---2---2---|-----------------4---4---4---4---|
A|---------------------------------|---------------------------------|---------------------------------|


F|---------------------------------|---------------------------------|---------------------------------|
C|---------------------------------|---------------------------------|---------------------------------|
G|-7---7---7---7-------------------|---------------------------------|---------------------------------|
D|-----------------7---7---7---7---|-9---9---9---9---9---9---9---9---|-0---0---0---0---0---0---0---0---|
A|---------------------------------|---------------------------------|---------------------------------|


F|---------------------------------|---------------------------------|---------------------------------|
C|---------------------------------|---------------------------------|---------------------------------|
G|---------------------------------|-4---4---4---4---4---4---4---4---|---------------------------------|
D|-4---4---4---4---4---4---4---4---|---------------------------------|-2---2---2---2---2---2---2---2---|
A|---------------------------------|---------------------------------|---------------------------------|


F|---------------------------------|---------------------------------|---------------------------------|
C|-2---2---2---2---2---2---2---2---|---------------------------------|---------------------------------|
G|---------------------------------|---------------------------------|-4---4---4---4---4---4---4---4---|
D|---------------------------------|-4---4---4---4---4---4---4---4---|---------------------------------|
A|---------------------------------|---------------------------------|---------------------------------|


F|---------------------------------|---------------------------------|---------------------------------|
C|---------------------------------|-2---2---2---2---2---2---2---2---|---------------------------------|
G|---------------------------------|---------------------------------|---------------------------------|
D|-2---2---2---2---2---2---2---2---|---------------------------------|-4---4---4---4---4---4---4---4---|
A|---------------------------------|---------------------------------|---------------------------------|


F|---------------------------------|---------------------------------|---------------------------------|
C|---------------------------------|---------------------------------|---------------------------------|
G|-4---4---4---4---4---4---4---4---|---------------------------------|---------------------------------|
D|---------------------------------|-2---2---2---2---2---2---2---2---|-0---0---0---0---0---0---0---0---|
A|---------------------------------|---------------------------------|---------------------------------|


F|---------------------------------|---------------------------------|---------------------------------|
C|---------------------------------|---------------------------------|---------------------------------|
G|---------------------------------|-4---4---4---4---4---4---4---4---|---------------------------------|
D|-4---4---4---4---4---4---4---4---|---------------------------------|-2---2---2---2---2---2---2---2---|
A|---------------------------------|---------------------------------|---------------------------------|


F|---------------------------------|---------------------------------|---------------------------------|
C|---------------------------------|---------------------------------|---------------------------------|
G|-----------------4---4---4---4---|---------------------------------|-----------------2---2---2---2---|
D|-5---5---5---5-------------------|-2---2---2---2---0---0---0---0---|-4---4---4---4-------------------|
A|---------------------------------|---------------------------------|---------------------------------|


F|---------------------------------|---------------------------------|---------------------------------|
C|---------------------------------|---------------------------------|---------------------------------|
G|-4---4---4---4---4---4---4---4---|-0---0---0---0-------------------|-4---4---4---4-------------------|
D|---------------------------------|-----------------2---2---2---2---|-----------------4---4---4---4---|
A|---------------------------------|---------------------------------|---------------------------------|


F|---------------------------------|---------------------------------|---------------------------------|
C|---------------------------------|---------------------------------|---------------------------------|
G|-7---7---7---7-------------------|---------------------------------|-----------------4---4---4---4---|
D|-----------------7---7---7---7---|-9---9---9---9---9---9---9---9---|-5---5---5---5-------------------|
A|---------------------------------|---------------------------------|---------------------------------|


F|---------------------------------|---------------------------------|---------------------------------|
C|---------------------------------|---------------------------------|---------------------------------|
G|---------------------------------|-----------------2---2---2---2---|-4---4---4---4---4---4---4---4---|
D|-2---2---2---2---0---0---0---0---|-4---4---4---4-------------------|---------------------------------|
A|---------------------------------|---------------------------------|---------------------------------|


F|---------------------------------|---------------------------------|-------------|
C|---------------------------------|---------------------------------|-------------|
G|-0---0---0---0-------------------|-4---4---4---4-------------------|-7-----------|
D|-----------------2---2---2---2---|-----------------4---4---4---4---|-------7-----|
A|---------------------------------|---------------------------------|-------------|


F|---------------------------|-------------|--------|
C|---------------------------|-------------|--------|
G|---------------------------|-4-----------|-4------|
D|-7---6---6----4---2---2----|-------4-----|--------|
A|---------------------------|-------------|--------|





Track 5: Drums

F|--------|--------|--------|-18--18--18--18--18--18--18--18--|-----------12------------12--12-12-----|
C|--------|--------|--------|-10--10--10--10--10--10--10--10--|-10--10-10-----10--10-10-----------10--|
G|--------|--------|--------|---------------------------------|---------------------------------------|
D|--------|--------|--------|---------------------------------|---------------------------------------|


F|-----------12------------12--12-12-18-18-|-----------12--12-----12-------12-----12-|
C|-10--10-10-----10--10-10-----------------|-10--10-10---------10----10-10----10-----|
G|-----------------------------------------|-----------------------------------------|
D|-----------------------------------------|-----------------------------------------|


F|-----------12--12-----12-----12--18-18-|-----------12------------12--12-12-----|
C|-10--10-10---------10-----10-----------|-10--10-10-----10--10-10-----------10--|
G|---------------------------------------|---------------------------------------|
D|---------------------------------------|---------------------------------------|


F|-----------12------------12--12-12-18-18-|-----------12--12-----12-------12-----12-|
C|-10--10-10-----10--10-10-----------------|-10--10-10---------10----10-10----10-----|
G|-----------------------------------------|-----------------------------------------|
D|-----------------------------------------|-----------------------------------------|


F|-----------12--12-----12-----12--18-18-|-----------12------------12--12-12-----|
C|-10--10-10---------10-----10-----------|-10--10-10-----10--10-10-----------10--|
G|---------------------------------------|---------------------------------------|
D|---------------------------------------|---------------------------------------|


F|-----------12------------12--12-12-18-18-|-----------12------------12--12--18-18-|
C|-10--10-10-----10--10-10-----------------|-10--10-10-----10--10-10---------------|
G|-----------------------------------------|---------------------------------------|
D|-----------------------------------------|---------------------------------------|


F|-----------12------------12--12--18-18-|-----------12------------12--12-12-----|
C|-10--10-10-----10--10-10---------------|-10--10-10-----10--10-10-----------10--|
G|---------------------------------------|---------------------------------------|
D|---------------------------------------|---------------------------------------|


F|-----------12------------12--12-12-18-18-|-----------12---------12-----12--12-12-|
C|-10--10-10-----10--10-10-----------------|-10--10-10-----10--10----10------------|
G|-----------------------------------------|---------------------------------------|
D|-----------------------------------------|---------------------------------------|


F|-----12-12-12-12-12---12---12--|-----------12------------12--12-12-----|-----------12------------12--12-12-18-18-|
C|-10--------------10---10---10--|-10--10-10-----10--10-10-----------10--|-10--10-10-----10--10-10-----------------|
G|-------------------------------|---------------------------------------|-----------------------------------------|
D|-------------------------------|---------------------------------------|-----------------------------------------|


F|-----------12------------12--12--18-18-|-----------12------------12--12--18-18-|
C|-10--10-10-----10--10-10---------------|-10--10-10-----10--10-10---------------|
G|---------------------------------------|---------------------------------------|
D|---------------------------------------|---------------------------------------|


F|-----------12------------12--12-12-----|-----------12------------12--12-12-18-18-|
C|-10--10-10-----10--10-10-----------10--|-10--10-10-----10--10-10-----------------|
G|---------------------------------------|-----------------------------------------|
D|---------------------------------------|-----------------------------------------|


F|-----------12---------12-----12--12-12-|-----12-12-12-12-12---12---12--|---------12-----------12---|
C|-10--10-10-----10--10----10------------|-10--------------10---10---10--|-10--10-------10--10-------|
G|---------------------------------------|-------------------------------|---------------------------|
D|---------------------------------------|-------------------------------|---------------------------|


F|---------12-----------12---|---------12-----------12---|---------12-----------18------|
C|-10--10-------10--10-------|-10--10-------10--10-------|-10--10------10---10------10--|
G|---------------------------|---------------------------|------------------------------|
D|---------------------------|---------------------------|------------------------------|


F|---------12-----------12---|---------12-----------12---|---------12-----------12---|
C|-10--10-------10--10-------|-10--10-------10--10-------|-10--10-------10--10-------|
G|---------------------------|---------------------------|---------------------------|
D|---------------------------|---------------------------|---------------------------|


F|---------12------18---18---|---------12-----------12---|---------12-----------12---|
C|-10--10------10--10---10---|-10--10-------10--10-------|-10--10-------10--10-------|
G|---------------------------|---------------------------|---------------------------|
D|---------------------------|---------------------------|---------------------------|


F|---------12-----------12--18-18-|---------12------12------12------|---------12-----------12------|
C|-10--10-------10--10------------|-10--10------10------10------10--|-10--10-------10--10------10--|
G|--------------------------------|---------------------------------|------------------------------|
D|--------------------------------|---------------------------------|------------------------------|


F|---------12-----------12------|---------12-----------12--18-18-|-12--12--12--12--12--12--16-16-18-18-|
C|-10--10-------10--10------10--|-10--10-------10--10------------|-10--10--10--10--10--10--------------|
G|------------------------------|--------------------------------|-------------------------------------|
D|------------------------------|--------------------------------|-------------------------------------|


F|-----------12------------12--12-12-----|-----------12------------12--12-12-18-18-|
C|-10--10-10-----10--10-10-----------10--|-10--10-10-----10--10-10-----------------|
G|---------------------------------------|-----------------------------------------|
D|---------------------------------------|-----------------------------------------|


F|-----------12--12-----12-------12-----12-|-----------12--12-----12-----12--18-18-|
C|-10--10-10---------10----10-10----10-----|-10--10-10---------10-----10-----------|
G|-----------------------------------------|---------------------------------------|
D|-----------------------------------------|---------------------------------------|


F|-----------12------------12--12-12-----|-----------12------------12--12-12-18-18-|
C|-10--10-10-----10--10-10-----------10--|-10--10-10-----10--10-10-----------------|
G|---------------------------------------|-----------------------------------------|
D|---------------------------------------|-----------------------------------------|


F|-----------12--12-----12-------12-----12-|-----------12--12-----12-----12--18-18-|
C|-10--10-10---------10----10-10----10-----|-10--10-10---------10-----10-----------|
G|-----------------------------------------|---------------------------------------|
D|-----------------------------------------|---------------------------------------|


F|-----------12------------12--12-12-----|-----------12------------12--12-12-18-18-|
C|-10--10-10-----10--10-10-----------10--|-10--10-10-----10--10-10-----------------|
G|---------------------------------------|-----------------------------------------|
D|---------------------------------------|-----------------------------------------|


F|-----------12------------12--12--18-18-|-----------12------------12--12--18-18-|
C|-10--10-10-----10--10-10---------------|-10--10-10-----10--10-10---------------|
G|---------------------------------------|---------------------------------------|
D|---------------------------------------|---------------------------------------|


F|-----------12------------12--12-12-----|-----------12------------12--12-12-18-18-|
C|-10--10-10-----10--10-10-----------10--|-10--10-10-----10--10-10-----------------|
G|---------------------------------------|-----------------------------------------|
D|---------------------------------------|-----------------------------------------|


F|-----------12---------12-----12--12-12-|-----12-12-12-12-12---12---12--|-----------12------------12--12-12-----|
C|-10--10-10-----10--10----10------------|-10--------------10---10---10--|-10--10-10-----10--10-10-----------10--|
G|---------------------------------------|-------------------------------|---------------------------------------|
D|---------------------------------------|-------------------------------|---------------------------------------|


F|-----------12------------12--12-12-18-18-|-----------12------------12--12--18-18-|
C|-10--10-10-----10--10-10-----------------|-10--10-10-----10--10-10---------------|
G|-----------------------------------------|---------------------------------------|
D|-----------------------------------------|---------------------------------------|


F|-----------12------------12--12--18-18-|-----------12------------12--12-12-----|
C|-10--10-10-----10--10-10---------------|-10--10-10-----10--10-10-----------10--|
G|---------------------------------------|---------------------------------------|
D|---------------------------------------|---------------------------------------|


F|-----------12------------12--12-12-18-18-|-----------12---------12-----12--12-12-|
C|-10--10-10-----10--10-10-----------------|-10--10-10-----10--10----10------------|
G|-----------------------------------------|---------------------------------------|
D|-----------------------------------------|---------------------------------------|


F|-----12-12-12-12-12---12---12--|---------12-----------12---|---------12-----------12---|
C|-10--------------10---10---10--|-10--10-------10--10-------|-10--10-------10--10-------|
G|-------------------------------|---------------------------|---------------------------|
D|-------------------------------|---------------------------|---------------------------|


F|---------12-----------12---|---------12-----------18------|---------12-----------12---|
C|-10--10-------10--10-------|-10--10------10---10------10--|-10--10-------10--10-------|
G|---------------------------|------------------------------|---------------------------|
D|---------------------------|------------------------------|---------------------------|


F|---------12-----------12---|---------12-----------12---|---------12------18---18---|
C|-10--10-------10--10-------|-10--10-------10--10-------|-10--10------10--10---10---|
G|---------------------------|---------------------------|---------------------------|
D|---------------------------|---------------------------|---------------------------|


F|---------12-----------12---|---------12-----------12---|---------12-----------12--18-18-|
C|-10--10-------10--10-------|-10--10-------10--10-------|-10--10-------10--10------------|
G|---------------------------|---------------------------|--------------------------------|
D|---------------------------|---------------------------|--------------------------------|


F|---------12------12------12------|---------12-----------12------|---------12-----------12------|
C|-10--10------10------10------10--|-10--10-------10--10------10--|-10--10-------10--10------10--|
G|---------------------------------|------------------------------|------------------------------|
D|---------------------------------|------------------------------|------------------------------|


F|---------12-----------12--18-18-|-12--12--12--12--12--12--16-16-18-18-|-----------12------------12--12-12-----|
C|-10--10-------10--10------------|-10--10--10--10--10--10--------------|-10--10-10-----10--10-10-----------10--|
G|--------------------------------|-------------------------------------|---------------------------------------|
D|--------------------------------|-------------------------------------|---------------------------------------|


F|-----------12------------12--12-12-18-18-|-----------12--12-----12-------12-----12-|
C|-10--10-10-----10--10-10-----------------|-10--10-10---------10----10-10----10-----|
G|-----------------------------------------|-----------------------------------------|
D|-----------------------------------------|-----------------------------------------|


F|-----------12--12-----12-----12--18-18-|-----------12------------12--12-12-----|
C|-10--10-10---------10-----10-----------|-10--10-10-----10--10-10-----------10--|
G|---------------------------------------|---------------------------------------|
D|---------------------------------------|---------------------------------------|


F|-----------12------------12--12-12-18-18-|-----------12--12-----12-------12-----12-|
C|-10--10-10-----10--10-10-----------------|-10--10-10---------10----10-10----10-----|
G|-----------------------------------------|-----------------------------------------|
D|-----------------------------------------|-----------------------------------------|


F|-----------12--12-----12-----12--18-18-|-----------12------------12--12-12-----|
C|-10--10-10---------10-----10-----------|-10--10-10-----10--10-10-----------10--|
G|---------------------------------------|---------------------------------------|
D|---------------------------------------|---------------------------------------|


F|-----------12------------12--12-12-----|---------12------------12--12-12-----|---------12------12-18-----12-----|
C|-10--10-10-----10--10-10-----------10--|-10--10------10--10-10-----------10--|-10--10-------10--------10----10--|
G|---------------------------------------|-------------------------------------|----------------------------------|
D|---------------------------------------|-------------------------------------|----------------------------------|


F|-----------12------------12--12-12-----|-----------12------------12--12-12-----|
C|-10--10-10-----10--10-10-----------10--|-10--10-10-----10--10-10-----------10--|
G|---------------------------------------|---------------------------------------|
D|---------------------------------------|---------------------------------------|


F|-----------12------------12--12-12-----|-----12-12-12-12-18-18-18-18-16-16-16-16-12-12-|
C|-10--10-10-----10--10-10-----------10--|-10--------------------------------------------|
G|---------------------------------------|-----------------------------------------------|
D|---------------------------------------|-----------------------------------------------|


F|-----------12------------12--12-12-----|-----------12------------12--16-------18-|
C|-10--10-10-----10--10-10-----------10--|-10--10-10-----10--10-10--------12-12----|
G|---------------------------------------|-----------------------------------------|
D|---------------------------------------|-----------------------------------------|


F|-----------12------------12--12-12-----|-----------12------------12--12-12-18-18-|
C|-10--10-10-----10--10-10-----------10--|-10--10-10-----10--10-10-----------------|
G|---------------------------------------|-----------------------------------------|
D|---------------------------------------|-----------------------------------------|


F|-----------12------------12--12-12-----|-----------12------------12--16-------18-|
C|-10--10-10-----10--10-10-----------10--|-10--10-10-----10--10-10--------12-12----|
G|---------------------------------------|-----------------------------------------|
D|---------------------------------------|-----------------------------------------|


F|-----------12------------12--12-12-----|-----------12------------12--16-------18-|
C|-10--10-10-----10--10-10-----------10--|-10--10-10-----10--10-10--------12-12----|
G|---------------------------------------|-----------------------------------------|
D|---------------------------------------|-----------------------------------------|


F|-----------12------------12--12-12-----|-----------12------------12--16-------18-|
C|-10--10-10-----10--10-10-----------10--|-10--10-10-----10--10-10--------12-12----|
G|---------------------------------------|-----------------------------------------|
D|---------------------------------------|-----------------------------------------|


F|-----------12------------12--12-12-----|-----------12------------12--16-------18-|
C|-10--10-10-----10--10-10-----------10--|-10--10-10-----10--10-10--------12-12----|
G|---------------------------------------|-----------------------------------------|
D|---------------------------------------|-----------------------------------------|


F|-----------12------------12--12-12-----|-----------12------------12--16-------18-|
C|-10--10-10-----10--10-10-----------10--|-10--10-10-----10--10-10--------12-12----|
G|---------------------------------------|-----------------------------------------|
D|---------------------------------------|-----------------------------------------|


F|-----------12------------12--12-12-----|-----------12------------12--12-12-18-18-|
C|-10--10-10-----10--10-10-----------10--|-10--10-10-----10--10-10-----------------|
G|---------------------------------------|-----------------------------------------|
D|---------------------------------------|-----------------------------------------|


F|---------12-----------12--12----|---------12--16----12--16----12------|---------12-----------12--12----|
C|-10--10-------10--10---------10-|-10--10---------10--------10-----10--|-10--10-------10--10---------10-|
G|--------------------------------|-------------------------------------|--------------------------------|
D|--------------------------------|-------------------------------------|--------------------------------|


F|-----12-12-12-12-18-18-18-18-16-16-16-16-12-12-|---------12-----------12--12----|
C|-10--------------------------------------------|-10--10-------10--10---------10-|
G|-----------------------------------------------|--------------------------------|
D|-----------------------------------------------|--------------------------------|


F|---------12----------12--18-18-12----|---------12-----------12--12----|---------12----------12--12-18-12----|
C|-10--10------10--10---------------10-|-10--10-------10--10---------10-|-10--10------10--10---------------10-|
G|-------------------------------------|--------------------------------|-------------------------------------|
D|-------------------------------------|--------------------------------|-------------------------------------|


F|---------12-----------12--12----|---------12--16----12--16----12------|---------12-----------12--12----|
C|-10--10-------10--10---------10-|-10--10---------10--------10-----10--|-10--10-------10--10---------10-|
G|--------------------------------|-------------------------------------|--------------------------------|
D|--------------------------------|-------------------------------------|--------------------------------|


F|-----12-12-12-12-18-18-18-18-16-16-16-16-12-12-|---------12-----------12--12----|
C|-10--------------------------------------------|-10--10-------10--10---------10-|
G|-----------------------------------------------|--------------------------------|
D|-----------------------------------------------|--------------------------------|


F|---------12----------12--18-18-12----|--------------12---12------|--------------12--16-16-16-12-----|
C|-10--10------10--10---------------10-|-10---10--10-----------10--|-10---10--10------------------10--|
G|-------------------------------------|---------------------------|----------------------------------|
D|-------------------------------------|---------------------------|----------------------------------|


F|--------|--------|
C|-10-----|-10-----|
G|--------|--------|
D|--------|--------|