Site menu:

    

Browse: 0-9 A B C D E F G H I J K L N O P Q R S T U V W X Y Z

otis redding - sittin on the dock of the bay:



Title: (Sittin' On) The Dock Of The Bay
Artist: 
Album: The Dock Of The Bay
Author: Steve Cropper & Otis Redding


Track 1: Otis Redding - Acoustic Gtr.

E|----------3-------3-------3---|----------3-------3-------3---|----------3-------3-------3---|
B|----------3-------3-------3---|----------3-------3-------3---|----------3-------3-------3---|
G|----------4-------4-------4---|----------4-------4-------4---|----------4-------4-------4---|
D|-5----5-------5-------5-------|-5----5-------5-------5-------|-5----5-------5-------5-------|
A|-5----5-------5-------5-------|-5----5-------5-------5-------|-5----5-------5-------5-------|
E|-3----3-------3-------3-------|-3----3-------3-------3-------|-3----3-------3-------3-------|


E|----------3-------3-------3---|-3----3----3--3---3---3---7---|-7-------7----7--7---7---7---7---|
B|----------3-------3-------3---|-3----3----3--3---3---3---7---|-7-------7----7--7---7---7---7---|
G|----------4-------4-------4---|-4----4----4--4---4---4---8---|-8-------8----8--8---8---8---8---|
D|-5----5-------5-------5-------|-5----5----5--5---5---5---9---|-9-------9----9--9---9---9---9---|
A|-5----5-------5-------5-------|-5----5----5--5---5---5---9---|-9-------9----9--9---9---9---9---|
E|-3----3-------3-------3-------|-3----3----3--3---3---3---7---|-7---7---7----7--7---7---7---7---|


E|-8----8----8--8---7---6---5---|-5-------5----5--5---5---5---5---|-3----3----3--3---3---3---7---|
B|-8----8----8--8---7---6---5---|-5-------5----5--5---5---5---5---|-3----3----3--3---3---3---7---|
G|-9----9----9--9---8---7---6---|-6-------6----6--6---6---6---6---|-4----4----4--4---4---4---8---|
D|-10---10---10-10--9---8---7---|-7-------7----7--7---7---7---7---|-5----5----5--5---5---5---9---|
A|-10---10---10-10--9---8---7---|-7-------7----7--7---7---7---7---|-5----5----5--5---5---5---9---|
E|-8----8----8--8---7---6---5---|-5---5---5----5--5---5---5---5---|-3----3----3--3---3---3---7---|


E|-7-------7----7--7---7---7---7---|-8----8----8--8---7---6---5---|-5-------5----5--5---5---5---5---|
B|-7-------7----7--7---7---7---7---|-8----8----8--8---7---6---5---|-5-------5----5--5---5---5---5---|
G|-8-------8----8--8---8---8---8---|-9----9----9--9---8---7---6---|-6-------6----6--6---6---6---6---|
D|-9-------9----9--9---9---9---9---|-10---10---10-10--9---8---7---|-7-------7----7--7---7---7---7---|
A|-9-------9----9--9---9---9---9---|-10---10---10-10--9---8---7---|-7-------7----7--7---7---7---7---|
E|-7---7---7----7--7---7---7---7---|-8----8----8--8---7---6---5---|-5---5---5----5--5---5---5---5---|


E|-3----3----3--3---3---3---0---|---------0--------0-------0---|-3----3----3--3---3---3---0---|
B|-3----3----3--3---3---3---0---|---------0--------0-------0---|-3----3----3--3---3---3---0---|
G|-4----4----4--4---4---4---1---|---------1--------1-------1---|-4----4----4--4---4---4---1---|
D|-5----5----5--5---5---5---2---|---------2----2-------2-------|-5----5----5--5---5---5---2---|
A|-5----5----5--5---5---5---2---|---------2----2-------2-------|-5----5----5--5---5---5---2---|
E|-3----3----3--3---3---3---0---|-0---0---0----0-------0-------|-3----3----3--3---3---3---0---|


E|---------0--------0-------0---|-3----3----3--3---3---3---5---|-5-------5----5--5---5---5---3---|
B|---------0--------0-------0---|-3----3----3--3---3---3---5---|-5-------5----5--5---5---5---3---|
G|---------1--------1-------1---|-4----4----4--4---4---4---6---|-6-------6----6--6---6---6---4---|
D|---------2----2-------2-------|-5----5----5--5---5---5---7---|-7-------7----7--7---7---7---5---|
A|---------2----2-------2-------|-5----5----5--5---5---5---7---|-7-------7----7--7---7---7---5---|
E|-0---0---0----0-------0-------|-3----3----3--3---3---3---5---|-5---5---5----5--5---5---5---3---|


E|-3-------3----3--3---3---3---0---|-0-------0----0---0---0---0---|-3----3----3--3---3---3---7---|
B|-3-------3----3--3---3---3---0---|-0-------0----0---0---0---0---|-3----3----3--3---3---3---7---|
G|-4-------4----4--4---4---4---1---|-1-------1----1---1---1---1---|-4----4----4--4---4---4---8---|
D|-5-------5----5--5---5---5---2---|-2-------2----2---2---2---2---|-5----5----5--5---5---5---9---|
A|-5-------5----5--5---5---5---2---|-2-------2----2---2---2---2---|-5----5----5--5---5---5---9---|
E|-3---3---3----3--3---3---3---0---|-0---0---0----0---0---0---0---|-3----3----3--3---3---3---7---|


E|-7-------7----7--7---7---7---7---|-8----8----8--8---7---6---5---|-5-------5----5--5---5---5---5---|
B|-7-------7----7--7---7---7---7---|-8----8----8--8---7---6---5---|-5-------5----5--5---5---5---5---|
G|-8-------8----8--8---8---8---8---|-9----9----9--9---8---7---6---|-6-------6----6--6---6---6---6---|
D|-9-------9----9--9---9---9---9---|-10---10---10-10--9---8---7---|-7-------7----7--7---7---7---7---|
A|-9-------9----9--9---9---9---9---|-10---10---10-10--9---8---7---|-7-------7----7--7---7---7---7---|
E|-7---7---7----7--7---7---7---7---|-8----8----8--8---7---6---5---|-5---5---5----5--5---5---5---5---|


E|-3----3----3--3---3---3---7---|-7-------7----7--7---7---7---7---|-8----8----8--8---7---6---5---|
B|-3----3----3--3---3---3---7---|-7-------7----7--7---7---7---7---|-8----8----8--8---7---6---5---|
G|-4----4----4--4---4---4---8---|-8-------8----8--8---8---8---8---|-9----9----9--9---8---7---6---|
D|-5----5----5--5---5---5---9---|-9-------9----9--9---9---9---9---|-10---10---10-10--9---8---7---|
A|-5----5----5--5---5---5---9---|-9-------9----9--9---9---9---9---|-10---10---10-10--9---8---7---|
E|-3----3----3--3---3---3---7---|-7---7---7----7--7---7---7---7---|-8----8----8--8---7---6---5---|


E|-5-------5----5--5---5---5---5---|-3----3----3--3---3---3---0---|---------0--------0-------0---|
B|-5-------5----5--5---5---5---5---|-3----3----3--3---3---3---0---|---------0--------0-------0---|
G|-6-------6----6--6---6---6---6---|-4----4----4--4---4---4---1---|---------1--------1-------1---|
D|-7-------7----7--7---7---7---7---|-5----5----5--5---5---5---2---|---------2----2-------2-------|
A|-7-------7----7--7---7---7---7---|-5----5----5--5---5---5---2---|---------2----2-------2-------|
E|-5---5---5----5--5---5---5---5---|-3----3----3--3---3---3---0---|-0---0---0----0-------0-------|


E|-3----3----3--3---3---3---0---|---------0--------0-------0---|-3----3----3--3---3---3---5---|
B|-3----3----3--3---3---3---0---|---------0--------0-------0---|-3----3----3--3---3---3---5---|
G|-4----4----4--4---4---4---1---|---------1--------1-------1---|-4----4----4--4---4---4---6---|
D|-5----5----5--5---5---5---2---|---------2----2-------2-------|-5----5----5--5---5---5---7---|
A|-5----5----5--5---5---5---2---|---------2----2-------2-------|-5----5----5--5---5---5---7---|
E|-3----3----3--3---3---3---0---|-0---0---0----0-------0-------|-3----3----3--3---3---3---5---|


E|-5-------5----5--5---5---5---3---|-3-------3----3--3---3---3---0---|-0-------0----0---0---0---0---|
B|-5-------5----5--5---5---5---3---|-3-------3----3--3---3---3---0---|-0-------0----0---0---0---0---|
G|-6-------6----6--6---6---6---4---|-4-------4----4--4---4---4---1---|-1-------1----1---1---1---1---|
D|-7-------7----7--7---7---7---5---|-5-------5----5--5---5---5---2---|-2-------2----2---2---2---2---|
A|-7-------7----7--7---7---7---5---|-5-------5----5--5---5---5---2---|-2-------2----2---2---2---2---|
E|-5---5---5----5--5---5---5---3---|-3---3---3----3--3---3---3---0---|-0---0---0----0---0---0---0---|


E|-3---3---3---3---------------8---|-8---8---8---8---8---8---8---8---|-3---3---3---3---------------8---|
B|-3---3---3---3---7---7---7---8---|-8---8---8---8---8---8---8---8---|-3---3---3---3---7---7---7---8---|
G|-4---4---4---4---7---7---7---9---|-9---9---9---9---9---9---9---9---|-4---4---4---4---7---7---7---9---|
D|-5---5---5---5---7---7---7---10--|-10--10--10--10--10--10--10--10--|-5---5---5---5---7---7---7---10--|
A|-5---5---5---5---5---5---5---10--|-10--10--10--10--10--10--10--10--|-5---5---5---5---5---5---5---10--|
E|-3---3---3---3---------------8---|-8---8---8---8---8---8---8---8---|-3---3---3---3---------------8---|


E|-8---8---8---8---8---8---8---8---|-3---3---3---3-------------------|-8---8---8---8---3---3---3---3---|
B|-8---8---8---8---8---8---8---8---|-3---3---3---3---7---7---7---7---|-8---8---8---8---3---3---3---3---|
G|-9---9---9---9---9---9---9---9---|-4---4---4---4---7---7---7---7---|-9---9---9---9---4---4---4---4---|
D|-10--10--10--10--10--10--10--10--|-5---5---5---5---7---7---7---7---|-10--10--10--10--5---5---5---5---|
A|-10--10--10--10--10--10--10--10--|-5---5---5---5---5---5---5---5---|-10--10--10--10--5---5---5---5---|
E|-8---8---8---8---8---8---8---8---|-3---3---3---3-------------------|-8---8---8---8---3---3---3---3---|


E|-1---1---1---1---1---1---1---1---|---------------------------------|-3----3----3--3---3---3---7---|
B|-1---1---1---1---1---1---1---1---|-7---7---7---7---7---7---7---7---|-3----3----3--3---3---3---7---|
G|-2---2---2---2---2---2---2---2---|-7---7---7---7---7---7---7---7---|-4----4----4--4---4---4---8---|
D|-3---3---3---3---3---3---3---3---|-7---7---7---7---7---7---7---7---|-5----5----5--5---5---5---9---|
A|-3---3---3---3---3---3---3---3---|-5---5---5---5---5---5---5---5---|-5----5----5--5---5---5---9---|
E|-1---1---1---1---1---1---1---1---|---------------------------------|-3----3----3--3---3---3---7---|


E|-7-------7----7--7---7---7---7---|-8----8----8--8---7---6---5---|-5-------5----5--5---5---5---5---|
B|-7-------7----7--7---7---7---7---|-8----8----8--8---7---6---5---|-5-------5----5--5---5---5---5---|
G|-8-------8----8--8---8---8---8---|-9----9----9--9---8---7---6---|-6-------6----6--6---6---6---6---|
D|-9-------9----9--9---9---9---9---|-10---10---10-10--9---8---7---|-7-------7----7--7---7---7---7---|
A|-9-------9----9--9---9---9---9---|-10---10---10-10--9---8---7---|-7-------7----7--7---7---7---7---|
E|-7---7---7----7--7---7---7---7---|-8----8----8--8---7---6---5---|-5---5---5----5--5---5---5---5---|


E|-3----3----3--3---3---3---7---|-7-------7----7--7---7---7---7---|-8----8----8--8---7---6---5---|
B|-3----3----3--3---3---3---7---|-7-------7----7--7---7---7---7---|-8----8----8--8---7---6---5---|
G|-4----4----4--4---4---4---8---|-8-------8----8--8---8---8---8---|-9----9----9--9---8---7---6---|
D|-5----5----5--5---5---5---9---|-9-------9----9--9---9---9---9---|-10---10---10-10--9---8---7---|
A|-5----5----5--5---5---5---9---|-9-------9----9--9---9---9---9---|-10---10---10-10--9---8---7---|
E|-3----3----3--3---3---3---7---|-7---7---7----7--7---7---7---7---|-8----8----8--8---7---6---5---|


E|-5-------5----5--5---5---5---5---|-3----3----3--3---3---3---0---|---------0--------0-------0---|
B|-5-------5----5--5---5---5---5---|-3----3----3--3---3---3---0---|---------0--------0-------0---|
G|-6-------6----6--6---6---6---6---|-4----4----4--4---4---4---1---|---------1--------1-------1---|
D|-7-------7----7--7---7---7---7---|-5----5----5--5---5---5---2---|---------2----2-------2-------|
A|-7-------7----7--7---7---7---7---|-5----5----5--5---5---5---2---|---------2----2-------2-------|
E|-5---5---5----5--5---5---5---5---|-3----3----3--3---3---3---0---|-0---0---0----0-------0-------|


E|-3----3----3--3---3---3---0---|---------0--------0-------0---|-3----3----3--3---3---3---5---|
B|-3----3----3--3---3---3---0---|---------0--------0-------0---|-3----3----3--3---3---3---5---|
G|-4----4----4--4---4---4---1---|---------1--------1-------1---|-4----4----4--4---4---4---6---|
D|-5----5----5--5---5---5---2---|---------2----2-------2-------|-5----5----5--5---5---5---7---|
A|-5----5----5--5---5---5---2---|---------2----2-------2-------|-5----5----5--5---5---5---7---|
E|-3----3----3--3---3---3---0---|-0---0---0----0-------0-------|-3----3----3--3---3---3---5---|


E|-5-------5----5--5---5---5---3---|-3-------3----3--3---3---3---0---|-0-------0----0---0---0---0---|
B|-5-------5----5--5---5---5---3---|-3-------3----3--3---3---3---0---|-0-------0----0---0---0---0---|
G|-6-------6----6--6---6---6---4---|-4-------4----4--4---4---4---1---|-1-------1----1---1---1---1---|
D|-7-------7----7--7---7---7---5---|-5-------5----5--5---5---5---2---|-2-------2----2---2---2---2---|
A|-7-------7----7--7---7---7---5---|-5-------5----5--5---5---5---2---|-2-------2----2---2---2---2---|
E|-5---5---5----5--5---5---5---3---|-3---3---3----3--3---3---3---0---|-0---0---0----0---0---0---0---|


E|----------3-------3-------3---|----------3-------3-------3---|----------3-------3-------3---|
B|----------3-------3-------3---|----------3-------3-------3---|----------3-------3-------3---|
G|----------4-------4-------4---|----------4-------4-------4---|----------4-------4-------4---|
D|-5----5-------5-------5-------|-5----5-------5-------5-------|-5----5-------5-------5-------|
A|-5----5-------5-------5-------|-5----5-------5-------5-------|-5----5-------5-------5-------|
E|-3----3-------3-------3-------|-3----3-------3-------3-------|-3----3-------3-------3-------|


E|----------0-------0-------0---|----------3-------3-------3---|----------3-------3-------3---|
B|----------0-------0-------0---|----------3-------3-------3---|----------3-------3-------3---|
G|----------1-------1-------1---|----------4-------4-------4---|----------4-------4-------4---|
D|-2----2-------2-------2-------|-5----5-------5-------5-------|-5----5-------5-------5-------|
A|-2----2-------2-------2-------|-5----5-------5-------5-------|-5----5-------5-------5-------|
E|-0----0-------0-------0-------|-3----3-------3-------3-------|-3----3-------3-------3-------|


E|----------3-------3-------3---|----------0-------0-------0---|----------3-------3-------3---|
B|----------3-------3-------3---|----------0-------0-------0---|----------3-------3-------3---|
G|----------4-------4-------4---|----------1-------1-------1---|----------4-------4-------4---|
D|-5----5-------5-------5-------|-2----2-------2-------2-------|-5----5-------5-------5-------|
A|-5----5-------5-------5-------|-2----2-------2-------2-------|-5----5-------5-------5-------|
E|-3----3-------3-------3-------|-0----0-------0-------0-------|-3----3-------3-------3-------|


E|----------3-------3-------3---|----------3-------3-------3---|----------0-------0-------0---|
B|----------3-------3-------3---|----------3-------3-------3---|----------0-------0-------0---|
G|----------4-------4-------4---|----------4-------4-------4---|----------1-------1-------1---|
D|-5----5-------5-------5-------|-5----5-------5-------5-------|-2----2-------2-------2-------|
A|-5----5-------5-------5-------|-5----5-------5-------5-------|-2----2-------2-------2-------|
E|-3----3-------3-------3-------|-3----3-------3-------3-------|-0----0-------0-------0-------|





Track 2: Steve Cropper - Electric Gtr.

E|--------|--------|--------|--------|-----------------------|-----------16--------------|
B|--------|--------|--------|--------|-------15--15------16--|-16------------16------16--|
G|--------|--------|--------|--------|-------16--14------16--|-16----16----------16------|
D|--------|--------|--------|--------|---------------17------|---------------------------|
A|--------|--------|--------|--------|-----------------------|---------------------------|
E|--------|--------|--------|--------|-----------------------|---------------------------|


E|-----------------------|----------------------------------|-----------------------|
B|-17----17--16--15--14--|-14------14---15-14-----15-14-----|-15----15--15----------|
G|-17----17--16--15--14--|-14--14-------------14--------14--|-16----16--14----------|
D|-----------------------|----------------------------------|---------------14--16--|
A|-----------------------|----------------------------------|-----------------------|
E|-----------------------|----------------------------------|-----------------------|


E|-----------16----|------------------------------|-------14----|-10------10------10--10----------|
B|-----------------|-17---17--17--17--16--15--14--|-14----------|-12------12------12--10------12--|
G|-----------------|-17---17--17--17--16--15--14--|-14----------|-------------------------12--11--|
D|-16----16--------|-17---17--17--17--16--15--14--|-14----------|---------------------------------|
A|-----------------|------------------------------|-------------|---------------------------------|
E|-----------------|------------------------------|-------------|---------------------------------|


E|-------------10--|-10------10------10--10----------|--------|------10---10--10------------|
B|-12----12----10--|-12------12------12--10------12--|-12-----|------12---12--10------12-14-|
G|-11----11--------|-------------------------12--11--|-11-----|-------------------12--------|
D|-----------------|---------------------------------|--------|-----------------------12-14-|
A|-----------------|---------------------------------|--------|-----------------------------|
E|-----------------|---------------------------------|--------|-----------------------------|


E|----12-----12------12--12----------|----10-----10------10--10----------|---------0------|
B|-14----14------14--14--12------12--|-12----12------12--12--10----------|----------------|
G|---------------------------14------|---------------------------8---13--|-13--13---------|
D|-14--------------------------------|-----------------------------------|----------------|
A|-----------------------------------|-----------------------------------|----------------|
E|-----------------------------------|-----------------------------------|----------------|


E|-----------------------|-----------16--------------|-----------------------|----------------------------------|
B|-------15--15------16--|-16------------16------16--|-17----17--16--15--14--|-14------14---15-14-----15-14-----|
G|-------16--14------16--|-16----16----------16------|-17----17--16--15--14--|-14--14-------------14--------14--|
D|---------------17------|---------------------------|-----------------------|----------------------------------|
A|-----------------------|---------------------------|-----------------------|----------------------------------|
E|-----------------------|---------------------------|-----------------------|----------------------------------|


E|-----------------------|-----------16----|------------------------------|-------14----|
B|-15----15--15----------|-----------------|-17---17--17--17--16--15--14--|-14----------|
G|-16----16--14----------|-----------------|-17---17--17--17--16--15--14--|-14----------|
D|---------------14--16--|-16----16--------|-17---17--17--17--16--15--14--|-14----------|
A|-----------------------|-----------------|------------------------------|-------------|
E|-----------------------|-----------------|------------------------------|-------------|


E|-10------10------10--10----------|-------------10--|-10------10------10--10----------|
B|-12------12------12--10------12--|-12----12----10--|-12------12------12--10------12--|
G|-------------------------12--11--|-11----11--------|-------------------------12--11--|
D|---------------------------------|-----------------|---------------------------------|
A|---------------------------------|-----------------|---------------------------------|
E|---------------------------------|-----------------|---------------------------------|


E|--------|------10---10--10------------|----12-----12------12--12----------|----10-----10------10--10----------|
B|-12-----|------12---12--10------12-14-|-14----14------14--14--12------12--|-12----12------12--12--10----------|
G|-11-----|-------------------12--------|---------------------------14------|---------------------------8---13--|
D|--------|-----------------------12-14-|-14--------------------------------|-----------------------------------|
A|--------|-----------------------------|-----------------------------------|-----------------------------------|
E|--------|-----------------------------|-----------------------------------|-----------------------------------|


E|---------0------|-7---------------|--------------5---|-7---------------|--------------5---|
B|----------------|-------7-----5---|-5------5---------|-------7-----5---|-5------5---------|
G|-13--13---------|-7---------------|-----------5------|-7---------------|-----------5------|
D|----------------|-------7-----5---|-5------5---------|-------7-----5---|-5------5---------|
A|----------------|-----------------|------------------|-----------------|------------------|
E|----------------|-----------------|------------------|-----------------|------------------|


E|-7----------------------|---------------7----7---|-5---5----5-------5-------5---|
B|---------------7--------|-5----------------------|--------------5-------5-------|
G|-7-----7----------------|-----------7--------7---|-5--------5-------------------|
D|-----------7--------7---|-5-----5----------------|------------------------------|
A|------------------------|------------------------|------------------------------|
E|------------------------|------------------------|------------------------------|


E|-----10------10------10------10--|-----------------------|-----------16--------------|
B|---------------------------------|-------15--15------16--|-16------------16------16--|
G|-11------11------11------11------|-------16--14------16--|-16----16----------16------|
D|---------------------------------|---------------17------|---------------------------|
A|---------------------------------|-----------------------|---------------------------|
E|---------------------------------|-----------------------|---------------------------|


E|-----------------------|----------------------------------|-----------------------|
B|-17----17--16--15--14--|-14------14---15-14-----15-14-----|-15----15--15----------|
G|-17----17--16--15--14--|-14--14-------------14--------14--|-16----16--14----------|
D|-----------------------|----------------------------------|---------------14--16--|
A|-----------------------|----------------------------------|-----------------------|
E|-----------------------|----------------------------------|-----------------------|


E|-----------16----|------------------------------|-------14----|-10------10------10--10----------|
B|-----------------|-17---17--17--17--16--15--14--|-14----------|-12------12------12--10------12--|
G|-----------------|-17---17--17--17--16--15--14--|-14----------|-------------------------12--11--|
D|-16----16--------|-17---17--17--17--16--15--14--|-14----------|---------------------------------|
A|-----------------|------------------------------|-------------|---------------------------------|
E|-----------------|------------------------------|-------------|---------------------------------|


E|-------------10--|-10------10------10--10----------|--------|------10---10--10------------|
B|-12----12----10--|-12------12------12--10------12--|-12-----|------12---12--10------12-14-|
G|-11----11--------|-------------------------12--11--|-11-----|-------------------12--------|
D|-----------------|---------------------------------|--------|-----------------------12-14-|
A|-----------------|---------------------------------|--------|-----------------------------|
E|-----------------|---------------------------------|--------|-----------------------------|


E|----12-----12------12--12----------|----10-----10------10--10----------|--------|
B|-14----14------14--14--12------12--|-12----12------12--12--10----------|--------|
G|---------------------------14------|---------------------------8---13--|-13-----|
D|-14--------------------------------|-----------------------------------|--------|
A|-----------------------------------|-----------------------------------|--------|
E|-----------------------------------|-----------------------------------|--------|


E|--------|--------|--------|--------|--------|--------|--------|--------|--------|
B|--------|--------|--------|--------|--------|--------|--------|--------|--------|
G|--------|--------|--------|--------|--------|--------|--------|--------|--------|
D|--------|--------|--------|--------|--------|--------|--------|--------|--------|
A|--------|--------|--------|--------|--------|--------|--------|--------|--------|
E|--------|--------|--------|--------|--------|--------|--------|--------|--------|


E|--------|--------|--------|
B|--------|--------|--------|
G|--------|--------|--------|
D|--------|--------|--------|
A|--------|--------|--------|
E|--------|--------|--------|





Track 3: Electric Bass

G|---------------------|---------------------|---------------------|---------------------|
D|---------------------|---------------------|---------------------|---------------------|
A|-----------5----5----|-----------5----5----|-----------5----5----|-----------5----5----|
E|-3-----3-------------|-3-----3-------------|-3-----3-------------|-3-----3-------------|


G|---------------------------|---------------------------|---------------------------|
D|---------------------------|------4--------4---4-------|------5--------------------|
A|------5----------------2---|-2---------2-----------2---|-3---------3---2---1---0---|
E|-3---------3---0---3-------|---------------------------|---------------------------|


G|---------------------------|---------------------------|---------------------------|
D|---------------------------|---------------------------|------4--------4---4-------|
A|-0---------0---------------|------5----------------2---|-2---------2-----------2---|
E|------0--------0---1---2---|-3---------3---0---3-------|---------------------------|


G|---------------------------|---------------------------|-----------------------|
D|------5--------------------|---------------------------|---------------0---2---|
A|-3---------3---2---1---0---|-0---------0---------------|-----------2-----------|
E|---------------------------|------0--------0---1---2---|-3-----3---------------|


G|--------|-----------------------|-------------|---------------------|---------------------|
D|-2------|---------------0---2---|-2-----2-----|---------------------|---------------------|
A|--------|-----------2-----------|-------------|-----------5----5----|-----------7----7----|
E|--------|-3-----3---------------|-------------|-3-----3-------------|-5-----5-------------|


G|---------------------|--------|---------------------------|---------------------------|
D|---------------------|--------|---------------------------|------4--------4---4-------|
A|-----------5----5----|-7------|------5----------------2---|-2---------2-----------2---|
E|-3-----3-------------|--------|-3---------3---0---3-------|---------------------------|


G|---------------------------|---------------------------|---------------------------|
D|------5--------------------|---------------------------|---------------------------|
A|-3---------3---2---1---0---|-0---------0---------------|------5----------------2---|
E|---------------------------|------0--------0---1---2---|-3---------3---0---3-------|


G|---------------------------|---------------------------|---------------------------|
D|------4--------4---4-------|------5--------------------|---------------------------|
A|-2---------2-----------2---|-3---------3---2---1---0---|-0---------0---------------|
E|---------------------------|---------------------------|------0--------0---1---2---|


G|-----------------------|--------|-----------------------|-------------|---------------------|
D|---------------0---2---|-2------|---------------0---2---|-2-----2-----|---------------------|
A|-----------2-----------|--------|-----------2-----------|-------------|-----------5----5----|
E|-3-----3---------------|--------|-3-----3---------------|-------------|-3-----3-------------|


G|---------------------|---------------------|--------|-----------------|-----------------------|
D|---------------------|---------------------|--------|-5---------------|-----------2---3---4---|
A|-----------7----7----|-----------5----5----|-7------|-------5-----3---|-3-----3---------------|
E|-5-----5-------------|-3-----3-------------|--------|-----------------|-----------------------|


G|------------------------|------------------------------|------------------------|
D|-5--------5-------------|---------5--------2---3---4---|-5-----5----------------|
A|------5-------5-----3---|-3---3--------3---------------|-----------5----5---5---|
E|------------------------|------------------------------|------------------------|


G|------------------------|--------------------|--------------------|---------------------------|
D|-----------5--------5---|-3---------------0--|-0-----0---0---0----|---------------------------|
A|-3-----3--------5-------|--------------------|--------------------|------5----------------2---|
E|------------------------|------1----1--------|--------------------|-3---------3---0---3-------|


G|---------------------------|---------------------------|---------------------------|
D|------4--------4---4-------|------5--------------------|---------------------------|
A|-2---------2-----------2---|-3---------3---2---1---0---|-0---------0---------------|
E|---------------------------|---------------------------|------0--------0---1---2---|


G|---------------------------|---------------------------|---------------------------|
D|---------------------------|------4--------4---4-------|------5--------------------|
A|------5----------------2---|-2---------2-----------2---|-3---------3---2---1---0---|
E|-3---------3---0---3-------|---------------------------|---------------------------|


G|---------------------------|-----------------------|--------|-----------------------|
D|---------------------------|---------------0---2---|-2------|---------------0---2---|
A|-0---------0---------------|-----------2-----------|--------|-----------2-----------|
E|------0--------0---1---2---|-3-----3---------------|--------|-3-----3---------------|


G|-------------|---------------------|---------------------|---------------------|
D|-2-----2-----|---------------------|---------------------|---------------------|
A|-------------|-----------5----5----|-----------7----7----|-----------5----5----|
E|-------------|-3-----3-------------|-5-----5-------------|-3-----3-------------|


G|--------|---------------------|---------------------|---------------------|---------------------|
D|--------|---------------------|---------------------|---------------------|-----------9----9----|
A|-7------|-----------5----5----|-----------5----5----|-----------5----5----|-7-----7-------------|
E|--------|-3-----3-------------|-3-----3-------------|-3-----3-------------|---------------------|


G|---------------------|---------------------|---------------------|---------------------|
D|---------------------|---------------------|---------------------|-----------9----9----|
A|-----------5----5----|-----------5----5----|-----------5----5----|-7-----7-------------|
E|-3-----3-------------|-3-----3-------------|-3-----3-------------|---------------------|


G|---------------------|---------------------|---------------------|---------------------|
D|---------------------|---------------------|---------------------|-----------9----9----|
A|-----------5----5----|-----------5----5----|-----------5----5----|-7-----7-------------|
E|-3-----3-------------|-3-----3-------------|-3-----3-------------|---------------------|