Site menu:

    

Browse: 0-9 A B C D E F G H I J K L N O P Q R S T U V W X Y Z

otis redding - ive been loving you too long:



Title: I've been loving you too long
Artist: 
Album: Otis blue
Author: Otis Redding & Jerry Butler


Track 1: Guit. 1

E|-----------------------|---------------------------------|---------------------------------|
B|-------------------2---|---------------------2-----------|---------------------------------|
G|---------------2-------|-2---------------2-------2-------|-------------1-------------------|
D|-----------2-----------|-----2-------2---------------2---|---------2-------2---------------|
A|-------0---------------|---------0-----------------------|-----2---------------2-------2---|
E|-----------------------|---------------------------------|-0-----------------------0-------|


E|---------------------------------|---------------------------------|---------------------------------|
B|-----------------------------2---|---------------------2-----------|---------------------------------|
G|-----1-------------------2-------|-2---------------2-------2-------|---------------------------------|
D|-2-------2-----------2-----------|-----2-------2---------------2---|---------------------------------|
A|-------------2---0---------------|---------0-----------------------|-------------------------2---4---|
E|---------------------------------|---------------------------------|-0---0---2---4---5---6-----------|


E|---------------------------------|---------------------------------|---------------------------------|
B|-----------------------------2---|---------------------2-----------|-------------6-------------------|
G|-------------------------2-------|-2---------------2-------2-------|---------6-------6---------------|
D|---------4---6-------2-----------|-----2-------2---------------2---|-----6---------------6-------6---|
A|-5---7-----------0---------------|---------0-----------------------|-4-----------------------4-------|
E|---------------------------------|---------------------------------|---------------------------------|


E|---------------------------------|---------------------------------|---------------------------------|
B|-----6-----------------------7---|---------------------7-----------|---------------------------------|
G|-6-------6---------------7-------|-7---------------7-------7-------|-------------2-------------------|
D|-------------6-------7-----------|-----7-------7---------------7---|---------3-------3---------------|
A|-----------------5---------------|---------5-----------------------|-----3---------------3-------3---|
E|---------------------------------|---------------------------------|-1-----------------------1-------|


E|---------------------------------|---------------------------------|------------------------------|
B|-----------------------------2---|---------------------2-----------|------------------------------|
G|-----2-------------------2-------|-2---------------2-------2-------|-------------1----------------|
D|-3-------3-----------2-----------|-----2-------2---------------2---|---------2-------2------------|
A|-------------3---0---------------|---------0-----------------------|-----2---------------2--------|
E|---------------------------------|---------------------------------|-0-----------------------0----|


E|------------------------------|---------------------------------|-0---0-------0---0-------0---0---|
B|--------------------------2---|---------------------2-----------|-0---0-------0---0-------0---0---|
G|----------------------2-------|-2---------------2-------2-------|-1---1-------1---1-------1---1---|
D|------------------2-----------|-----2-------2---------------2---|-2-----------2-----------2-------|
A|--------------0---------------|---------0-----------------------|-2-----------2-----------2-------|
E|-0---0----0-------------------|---------------------------------|-0-----------0-----------0-------|


E|---------------------------|---------------------------------|---------------------------------|
B|-----------------------2---|---------------------2-----------|---------------------------------|
G|-------------------2-------|-2---------------2-------2-------|-------------1-------------------|
D|---------------2-----------|-----2-------2---------------2---|---------2-------2---------------|
A|-----------0---------------|---------0-----------------------|-----2---------------2-------2---|
E|---------------------------|---------------------------------|-0-----------------------0-------|


E|---------------------------------|---------------------------------|---------------------------------|
B|-----------------------------2---|---------------------2-----------|---------------------------------|
G|-----1-------------------2-------|-2---------------2-------2-------|---------------------------------|
D|-2-------2-----------2-----------|-----2-------2---------------2---|---------------------------------|
A|-------------2---0---------------|---------0-----------------------|-------------------------2---4---|
E|---------------------------------|---------------------------------|-0---0---2---4---5---6-----------|


E|---------------------------------|---------------------------------|---------------------------------|
B|-----------------------------2---|---------------------2-----------|-------------6-------------------|
G|-------------------------2-------|-2---------------2-------2-------|---------6-------6---------------|
D|---------4---6-------2-----------|-----2-------2---------------2---|-----6---------------6-------6---|
A|-5---7-----------0---------------|---------0-----------------------|-4-----------------------4-------|
E|---------------------------------|---------------------------------|---------------------------------|


E|---------------------------------|---------------------------------|---------------------------------|
B|-----6-----------------------7---|---------------------7-----------|---------------------------------|
G|-6-------6---------------7-------|-7---------------7-------7-------|-------------2-------------------|
D|-------------6-------7-----------|-----7-------7---------------7---|---------3-------3---------------|
A|-----------------5---------------|---------5-----------------------|-----3---------------3-------3---|
E|---------------------------------|---------------------------------|-1-----------------------1-------|


E|---------------------------------|---------------------------------|------------------------------|
B|-----------------------------2---|---------------------2-----------|------------------------------|
G|-----2-------------------2-------|-2---------------2-------2-------|-------------1----------------|
D|-3-------3-----------2-----------|-----2-------2---------------2---|---------2-------2------------|
A|-------------3---0---------------|---------0-----------------------|-----2---------------2--------|
E|---------------------------------|---------------------------------|-0-----------------------0----|


E|------------------------------|---------------------------------|---------------------------------------|
B|--------------------------2---|---------------------2-----------|---------------------------------------|
G|----------------------2-------|-2---------------2-------2-------|---------------------------------------|
D|------------------2-----------|-----2-------2---------------2---|---------------------------------------|
A|--------------0---------------|---------0-----------------------|---------------------------------------|
E|-0---0----0-------------------|---------------------------------|-1---1---1-1---1---1---1-1---1---1---1-|


E|-----------------------------------|---------------------------------|---------------------------------|
B|-----------------------------------|---------------------------------|---------------------------------|
G|-------------------------------7---|---------------------7-----------|-------------2-------------------|
D|---------------------------8-------|-8---------------8-------8-------|---------3-------3---------------|
A|-----------------------8-----------|-----8-------8---------------8---|-----3---------------3-------3---|
E|-1---1-1---3---5---6---------------|---------6-----------------------|-1-----------------------1-------|


E|---------------------------------|---------------------------------|---------------------------------|
B|---------------------------------|---------------------------------|---------------------------------|
G|-----2-----------------------7---|---------------------7-----------|-------------3-------------------|
D|-3-------3---------------8-------|-8---------------8-------8-------|---------4-------4---------------|
A|-------------3-------8-----------|-----8-------8---------------8---|-----4---------------4-------4---|
E|-----------------6---------------|---------6-----------------------|-2-----------------------2-------|


E|---------------------------------|---------------------------------|---------------------------------|
B|---------------------------------|---------------------------------|---------------------------------|
G|-----3-----------------------7---|---------------------7-----------|-------------3-------------------|
D|-4-------4---------------8-------|-8---------------8-------8-------|---------4-------4---------------|
A|-------------4-------8-----------|-----8-------8---------------8---|-----4---------------4-------4---|
E|-----------------6---------------|---------6-----------------------|-2-----------------------2-------|


E|---------------------------------|---------------------------------|---------------------------------|
B|---------------------------------|---------------------------------|---------------------------------|
G|-----3-----------------------7---|---------------------7-----------|-------------3-------------------|
D|-4-------4---------------8-------|-8---------------8-------8-------|---------4-------4---------------|
A|-------------4-------8-----------|-----8-------8---------------8---|-----4---------------4-------4---|
E|-----------------6---------------|---------6-----------------------|-2-----------------------2-------|


E|---------------------------------|---------------------------------|---------------------------------|
B|---------------------------------|---------------------------------|---------------------------------|
G|-----3-----------------------7---|---------------------7-----------|-------------3-------------------|
D|-4-------4---------------8-------|-8---------------8-------8-------|---------4-------4---------------|
A|-------------4-------8-----------|-----8-------8---------------8---|-----4---------------4-------4---|
E|-----------------6---------------|---------6-----------------------|-2-----------------------2-------|


E|---------------------------------|---------------------------------|---------------------------------|
B|---------------------------------|---------------------------------|---------------------------------|
G|-----3-----------------------7---|---------------------7-----------|-------------3-------------------|
D|-4-------4---------------8-------|-8---------------8-------8-------|---------4-------4---------------|
A|-------------4-------8-----------|-----8-------8---------------8---|-----4---------------4-------4---|
E|-----------------6---------------|---------6-----------------------|-2-----------------------2-------|


E|---------------------------------|---------------------------------|
B|---------------------------------|---------------------------------|
G|-----3-----------------------7---|---------------------7-----------|
D|-4-------4---------------8-------|-8---------------8-------8-------|
A|-------------4-------8-----------|-----8-------8---------------8---|
E|-----------------6---------------|---------6-----------------------|





Track 2: Guit. 1

E|-------------|--------|--------|--------|--------|--------|--------|--------|--------|
B|-------------|--------|--------|--------|--------|--------|--------|--------|--------|
G|-------------|--------|--------|--------|--------|--------|--------|--------|--------|
D|-------------|--------|--------|--------|--------|--------|--------|--------|--------|
A|-------------|--------|--------|--------|--------|--------|--------|--------|--------|
E|-------------|--------|--------|--------|--------|--------|--------|--------|--------|


E|--------|--------|--------|--------|--------|--------|--------|--------|--------|
B|--------|--------|--------|--------|--------|--------|--------|--------|--------|
G|--------|--------|--------|--------|--------|--------|--------|--------|--------|
D|--------|--------|--------|--------|--------|--------|--------|--------|--------|
A|--------|--------|--------|--------|--------|--------|--------|--------|--------|
E|--------|--------|--------|--------|--------|--------|--------|--------|--------|


E|--------|--------|--------|--------|--------|--------|--------|--------|--------|
B|--------|--------|--------|--------|--------|--------|--------|--------|--------|
G|--------|--------|--------|--------|--------|--------|--------|--------|--------|
D|--------|--------|--------|--------|--------|--------|--------|--------|--------|
A|--------|--------|--------|--------|--------|--------|--------|--------|--------|
E|--------|--------|--------|--------|--------|--------|--------|--------|--------|


E|--------|--------|--------|--------|--------|--------|--------|--------|--------|
B|--------|--------|--------|--------|--------|--------|--------|--------|--------|
G|--------|--------|--------|--------|--------|--------|--------|--------|--------|
D|--------|--------|--------|--------|--------|--------|--------|--------|--------|
A|--------|--------|--------|--------|--------|--------|--------|--------|--------|
E|--------|--------|--------|--------|--------|--------|--------|--------|--------|


E|--------|--------|--------|--------|--------|--------|--------|--------|--------|
B|--------|--------|--------|--------|--------|--------|--------|--------|--------|
G|--------|--------|--------|--------|--------|--------|--------|--------|--------|
D|--------|--------|--------|--------|--------|--------|--------|--------|--------|
A|--------|--------|--------|--------|--------|--------|--------|--------|--------|
E|--------|--------|--------|--------|--------|--------|--------|--------|--------|


E|--------|--------|--------|--------|--------|--------|--------|--------|--------|
B|--------|--------|--------|--------|--------|--------|--------|--------|--------|
G|--------|--------|--------|--------|--------|--------|--------|--------|--------|
D|--------|--------|--------|--------|--------|--------|--------|--------|--------|
A|--------|--------|--------|--------|--------|--------|--------|--------|--------|
E|--------|--------|--------|--------|--------|--------|--------|--------|--------|


E|--------|--------|
B|--------|--------|
G|--------|--------|
D|--------|--------|
A|--------|--------|
E|--------|--------|





Track 3: Guit. 2

E|-------------|--------|------------------12--|---------------------------|--------|
B|-------------|--------|----------------------|-----12-10----12-----------|--------|
G|-------------|--------|------------11-13-----|-13--------11----13--------|--------|
D|-------------|--------|----------------------|---------------------------|--------|
A|-------------|--------|----------------------|---------------------------|--------|
E|-------------|--------|----------------------|---------------------------|--------|


E|--------|--------|--------|--------|--------|--------|--------|-------------|--------|
B|--------|--------|--------|--------|--------|--------|--------|-------------|--------|
G|--------|--------|--------|--------|--------|--------|--------|-------------|--------|
D|--------|--------|--------|--------|--------|--------|--------|-------------|--------|
A|--------|--------|--------|--------|--------|--------|--------|-------------|--------|
E|--------|--------|--------|--------|--------|--------|--------|-------------|--------|


E|------------------|-------------------------|--------|--------|-------------|--------|
B|------------12----|---------12--------------|--------|--------|-------------|--------|
G|------------12-13-|---------12-13-----------|--------|--------|-------------|--------|
D|------------------|-------------------------|--------|--------|-------------|--------|
A|------------------|-------------------------|--------|--------|-------------|--------|
E|------------------|-------------------------|--------|--------|-------------|--------|


E|------------------12--|---------------------------|--------|--------|--------|--------|
B|----------------------|-----12-10----12-----------|--------|--------|--------|--------|
G|------------11-13-----|-13--------11----13--------|--------|--------|--------|--------|
D|----------------------|---------------------------|--------|--------|--------|--------|
A|----------------------|---------------------------|--------|--------|--------|--------|
E|----------------------|---------------------------|--------|--------|--------|--------|


E|--------|--------|--------|--------|-------------|--------|------------------|-------------------------|
B|--------|--------|--------|--------|-------------|--------|------------12----|---------12--------------|
G|--------|--------|--------|--------|-------------|--------|------------12-13-|---------12-13-----------|
D|--------|--------|--------|--------|-------------|--------|------------------|-------------------------|
A|--------|--------|--------|--------|-------------|--------|------------------|-------------------------|
E|--------|--------|--------|--------|-------------|--------|------------------|-------------------------|


E|--------|--------|--------|--------|--------|--------|--------|--------|--------|
B|--------|--------|--------|--------|--------|--------|--------|--------|--------|
G|--------|--------|--------|--------|--------|--------|--------|--------|--------|
D|--------|--------|--------|--------|--------|--------|--------|--------|--------|
A|--------|--------|--------|--------|--------|--------|--------|--------|--------|
E|--------|--------|--------|--------|--------|--------|--------|--------|--------|


E|--------|--------|--------|--------|--------|--------|--------|--------|--------|
B|--------|--------|--------|--------|--------|--------|--------|--------|--------|
G|--------|--------|--------|--------|--------|--------|--------|--------|--------|
D|--------|--------|--------|--------|--------|--------|--------|--------|--------|
A|--------|--------|--------|--------|--------|--------|--------|--------|--------|
E|--------|--------|--------|--------|--------|--------|--------|--------|--------|


E|--------|--------|--------|--------|
B|--------|--------|--------|--------|
G|--------|--------|--------|--------|
D|--------|--------|--------|--------|
A|--------|--------|--------|--------|
E|--------|--------|--------|--------|





Track 4: Saxo

E|--------|--------|--------|-------------|--------|---------------------------------|
B|--------|--------|--------|-------------|--------|---------------------------------|
G|--------|--------|--------|-------------|--------|---------------------------------|
D|--------|--------|--------|-------------|--------|---------------------------------|
A|--------|--------|--------|-------------|--------|-------------------------2---4---|
E|--------|--------|--------|-------------|--------|-0---0---2---4---5---6-----------|


E|-----------------------|-------------|--------|--------|--------|--------|--------|
B|-----------------------|-------------|--------|--------|--------|--------|--------|
G|-----------------------|-------------|--------|--------|--------|--------|--------|
D|---------4---6---7-----|-------------|--------|--------|--------|--------|--------|
A|-5---7-----------------|-------------|--------|--------|--------|--------|--------|
E|-----------------------|-------------|--------|--------|--------|--------|--------|


E|--------|--------|-------------|--------|-----12----------12----------12--|-----------------|
B|--------|--------|-------------|--------|---------------------------------|-----------------|
G|--------|--------|-------------|--------|-----9-----------9-----------9---|-----------------|
D|--------|--------|-------------|--------|---------------------------------|-----------------|
A|--------|--------|-------------|--------|---------------------------------|-----------------|
E|--------|--------|-------------|--------|---------------------------------|-----------------|


E|--------|--------|-------------|--------|---------------------------------|-----------------------|
B|--------|--------|-------------|--------|---------------------------------|-----------------------|
G|--------|--------|-------------|--------|---------------------------------|-----------------------|
D|--------|--------|-------------|--------|---------------------------------|---------4---6---7-----|
A|--------|--------|-------------|--------|-------------------------2---4---|-5---7-----------------|
E|--------|--------|-------------|--------|-0---0---2---4---5---6-----------|-----------------------|


E|-------------|--------|--------|--------|--------|--------|--------|--------|-------------|
B|-------------|--------|--------|--------|--------|--------|--------|--------|-------------|
G|-------------|--------|--------|--------|--------|--------|--------|--------|-------------|
D|-------------|--------|--------|--------|--------|--------|--------|--------|-------------|
A|-------------|--------|--------|--------|--------|--------|--------|--------|-------------|
E|-------------|--------|--------|--------|--------|--------|--------|--------|-------------|


E|--------|--------|-------------|-------------|-------------|-------------|-------------|
B|--------|--------|-------------|-------------|-13-----13---|-------------|-------------|
G|--------|--------|-------15----|------15-----|-------------|-------15----|------15-----|
D|--------|--------|-------------|-------------|-------------|-------------|-------------|
A|--------|--------|-------------|-------------|-------------|-------------|-------------|
E|--------|--------|-------------|-------------|-------------|-------------|-------------|


E|-------------|-------------|-------------|-------------|-------------|-------------|
B|-------------|-------------|-------------|-14-----14---|-------18----|------18-----|
G|-15-----15---|-------15----|------15-----|-------------|-------------|-------------|
D|-------------|-------------|-------------|-------------|-------------|-------------|
A|-------------|-------------|-------------|-------------|-------------|-------------|
E|-------------|-------------|-------------|-------------|-------------|-------------|


E|-------------|-------18----|------18-----|-19-----19---|-------22----|------22-----|
B|-19-----19---|-------------|-------------|-------------|-------------|-------------|
G|-------------|-------------|-------------|-------------|-------------|-------------|
D|-------------|-------------|-------------|-------------|-------------|-------------|
A|-------------|-------------|-------------|-------------|-------------|-------------|
E|-------------|-------------|-------------|-------------|-------------|-------------|


E|-19-----19---|-------22----|------22-----|
B|-------------|-------------|-------------|
G|-------------|-------------|-------------|
D|-------------|-------------|-------------|
A|-------------|-------------|-------------|
E|-------------|-------------|-------------|





Track 5: Trombone

E|--------|--------|--------|-------------|--------|---------------------------|-----------------------|
B|--------|--------|--------|-------------|--------|---------------------------|-----------------------|
G|--------|--------|--------|-------------|--------|---------------------------|-----------------------|
D|--------|--------|--------|-------------|--------|---------------------------|-----------------------|
A|--------|--------|--------|-------------|--------|---------------------------|-----------------------|
E|--------|--------|--------|-------------|--------|-----------0-----------0---|---------0-------------|


E|--------|--------|--------|--------|--------|--------|--------|--------|--------|
B|--------|--------|--------|--------|--------|--------|--------|--------|--------|
G|--------|--------|--------|--------|--------|--------|--------|--------|--------|
D|--------|--------|--------|--------|--------|--------|--------|--------|--------|
A|--------|--------|--------|--------|--------|--------|--------|--------|--------|
E|--------|--------|--------|--------|--------|--------|--------|--------|--------|


E|--------|--------|--------|--------|--------|-------------|--------|---------------------------|
B|--------|--------|--------|--------|--------|-------------|--------|---------------------------|
G|--------|--------|--------|--------|--------|-------------|--------|---------------------------|
D|--------|--------|--------|--------|--------|-------------|--------|---------------------------|
A|--------|--------|--------|--------|--------|-------------|--------|---------------------------|
E|--------|--------|--------|--------|--------|-------------|--------|-----------0-----------0---|


E|-----------------------|--------|--------|--------|--------|--------|--------|--------|
B|-----------------------|--------|--------|--------|--------|--------|--------|--------|
G|-----------------------|--------|--------|--------|--------|--------|--------|--------|
D|-----------------------|--------|--------|--------|--------|--------|--------|--------|
A|-----------------------|--------|--------|--------|--------|--------|--------|--------|
E|---------0-------------|--------|--------|--------|--------|--------|--------|--------|


E|--------|--------|--------|--------|--------|--------|--------|--------|--------|
B|--------|--------|--------|--------|--------|--------|--------|--------|--------|
G|--------|--------|--------|--------|--------|--------|--------|--------|--------|
D|--------|--------|--------|--------|--------|--------|--------|--------|--------|
A|--------|--------|--------|--------|--------|--------|--------|--------|--------|
E|--------|--------|--------|--------|--------|--------|--------|--------|--------|


E|--------|--------|--------|--------|--------|--------|--------|--------|--------|
B|--------|--------|--------|--------|--------|--------|--------|--------|--------|
G|--------|--------|--------|--------|--------|--------|--------|--------|--------|
D|--------|--------|--------|--------|--------|--------|--------|--------|--------|
A|--------|--------|--------|--------|--------|--------|--------|--------|--------|
E|--------|--------|--------|--------|--------|--------|--------|--------|--------|


E|--------|--------|--------|--------|--------|--------|
B|--------|--------|--------|--------|--------|--------|
G|--------|--------|--------|--------|--------|--------|
D|--------|--------|--------|--------|--------|--------|
A|--------|--------|--------|--------|--------|--------|
E|--------|--------|--------|--------|--------|--------|





Track 6: Electric bass

G|-------------|-------------|-------------|-------------|-------------|---------------------------------|
D|-------------|-------------|-------------|-------------|-------------|---------------------------------|
A|-------0-----|------0------|-------------|-------0-----|------0------|---------------------------------|
E|-------------|-------------|-0------0----|-------------|-------------|-0---0---0---0---0---0---0---0---|


G|-----------------------|--------|-------------|--------------------|-------------|
D|-2---2---2---2---------|--------|-------------|--------------------|-------------|
A|-----------------------|--------|--------4----|-----4----4---5-----|------5------|
E|-----------------------|--------|-------------|--------------------|-------------|


G|-------------|-------------|-------------|-------------|-------------|-------------|
D|-------------|-------------|-------------|-------------|-------------|-------------|
A|-------------|-------0-----|------0------|-------------|-------0-----|------0------|
E|-1------1----|-------------|-------------|-0------0----|-------------|-------------|


G|---------------------------------|-----------------|-------------|-------------|
D|---------------------------------|-----------------|-------------|-------------|
A|---------------------------------|-----------0-----|------0------|-------------|
E|-----0-----------0-----------0---|-----------------|-------------|-0------0----|


G|-------------|-------------|---------------------------------|-----------------------|
D|-------------|-------------|---------------------------------|-2---2---2---2---------|
A|-------0-----|------0------|---------------------------------|-----------------------|
E|-------------|-------------|-0---0---0---0---0---0---0---0---|-----------------------|


G|--------|-------------|--------------------|-------------|-------------|-------------|
D|--------|-------------|--------------------|-------------|-------------|-------------|
A|--------|--------4----|-----4----4---5-----|------5------|-------------|-------0-----|
E|--------|-------------|--------------------|-------------|-1------1----|-------------|


G|-------------|-------------|-------------|-------------|-------------|-------------|
D|-------------|-------------|-------------|-------------|-------------|-------------|
A|------0------|-------------|-------0-----|------0------|-------------|-------1-----|
E|-------------|-0------0----|-------------|-------------|-1------1----|-------------|


G|-------------|-------------|-------------|-------------|-------------|-----------------|
D|-------------|-------------|-------------|-------------|-------------|-----------------|
A|------1------|-------------|-------1-----|------1------|-------------|-----------1-----|
E|-------------|-1------1----|-------------|-------------|-2------2----|-----2-----------|


G|-------------|-------------|-----------------------|---------------------|-------------|
D|-------------|-------------|-----------------------|---------------------|-------------|
A|------1------|-------------|-----------------1-----|------1-----1----1---|-------------|
E|-------------|-2------2----|-----2---4---5---------|---------------------|-2------2----|


G|-----------------------|-------------|-------------|-------------|-------------|
D|-----------------------|-------------|-------------|-------------|-------------|
A|-----------------1-----|------1------|-------------|-------1-----|------1------|
E|-----2---4---5---------|-------------|-2------2----|-------------|-------------|


G|-------------|-------------|-------------|
D|-------------|-------------|-------------|
A|-------------|-------1-----|------1------|
E|-2------2----|-------------|-------------|