Site menu:

    

Browse: 0-9 A B C D E F G H I J K L N O P Q R S T U V W X Y Z

oliver adams - mortal kombat punk arrangment:



Title: Mortal Kombat
Artist: 
Album: 
Author: Oliver Adams


Track 1: Synth

E|-17-----17---|-17---17--17--------|--------|--------|--------|--------|--------|
B|-18-----18---|-18---18--18--------|--------|--------|--------|--------|--------|
G|-19-----19---|-19---19--19--------|--------|--------|--------|--------|--------|
D|-19-----19---|-19---19--19--------|--------|--------|--------|--------|--------|
A|-17-----17---|-17---17--17--------|--------|--------|--------|--------|--------|
E|-------------|--------------------|--------|--------|--------|--------|--------|


E|--------|--------|--------|--------|--------|--------|--------|--------|--------|
B|--------|--------|--------|--------|--------|--------|--------|--------|--------|
G|--------|--------|--------|--------|--------|--------|--------|--------|--------|
D|--------|--------|--------|--------|--------|--------|--------|--------|--------|
A|--------|--------|--------|--------|--------|--------|--------|--------|--------|
E|--------|--------|--------|--------|--------|--------|--------|--------|--------|


E|--------|--------|--------|--------|--------|--------|--------|--------|--------|
B|--------|--------|--------|--------|--------|--------|--------|--------|--------|
G|--------|--------|--------|--------|--------|--------|--------|--------|--------|
D|--------|--------|--------|--------|--------|--------|--------|--------|--------|
A|--------|--------|--------|--------|--------|--------|--------|--------|--------|
E|--------|--------|--------|--------|--------|--------|--------|--------|--------|


E|--------|--------|--------|--------|--------|--------|--------|--------|--------|
B|--------|--------|--------|--------|--------|--------|--------|--------|--------|
G|--------|--------|--------|--------|--------|--------|--------|--------|--------|
D|--------|--------|--------|--------|--------|--------|--------|--------|--------|
A|--------|--------|--------|--------|--------|--------|--------|--------|--------|
E|--------|--------|--------|--------|--------|--------|--------|--------|--------|


E|--------|--------|--------|--------|--------|--------|--------|--------|--------|
B|--------|--------|--------|--------|--------|--------|--------|--------|--------|
G|--------|--------|--------|--------|--------|--------|--------|--------|--------|
D|--------|--------|--------|--------|--------|--------|--------|--------|--------|
A|--------|--------|--------|--------|--------|--------|--------|--------|--------|
E|--------|--------|--------|--------|--------|--------|--------|--------|--------|


E|--------|--------|--------|--------|--------|--------|--------|--------|--------|
B|--------|--------|--------|--------|--------|--------|--------|--------|--------|
G|--------|--------|--------|--------|--------|--------|--------|--------|--------|
D|--------|--------|--------|--------|--------|--------|--------|--------|--------|
A|--------|--------|--------|--------|--------|--------|--------|--------|--------|
E|--------|--------|--------|--------|--------|--------|--------|--------|--------|


E|--------|--------|--------|--------|--------|--------|--------|--------|--------|
B|--------|--------|--------|--------|--------|--------|--------|--------|--------|
G|--------|--------|--------|--------|--------|--------|--------|--------|--------|
D|--------|--------|--------|--------|--------|--------|--------|--------|--------|
A|--------|--------|--------|--------|--------|--------|--------|--------|--------|
E|--------|--------|--------|--------|--------|--------|--------|--------|--------|


E|--------|--------|--------|--------|--------|--------|--------|--------|--------|
B|--------|--------|--------|--------|--------|--------|--------|--------|--------|
G|--------|--------|--------|--------|--------|--------|--------|--------|--------|
D|--------|--------|--------|--------|--------|--------|--------|--------|--------|
A|--------|--------|--------|--------|--------|--------|--------|--------|--------|
E|--------|--------|--------|--------|--------|--------|--------|--------|--------|


E|--------|--------|--------|--------|--------|--------|--------|--------|--------|
B|--------|--------|--------|--------|--------|--------|--------|--------|--------|
G|--------|--------|--------|--------|--------|--------|--------|--------|--------|
D|--------|--------|--------|--------|--------|--------|--------|--------|--------|
A|--------|--------|--------|--------|--------|--------|--------|--------|--------|
E|--------|--------|--------|--------|--------|--------|--------|--------|--------|


E|--------|--------|--------|--------|--------|--------|--------|--------|--------|
B|--------|--------|--------|--------|--------|--------|--------|--------|--------|
G|--------|--------|--------|--------|--------|--------|--------|--------|--------|
D|--------|--------|--------|--------|--------|--------|--------|--------|--------|
A|--------|--------|--------|--------|--------|--------|--------|--------|--------|
E|--------|--------|--------|--------|--------|--------|--------|--------|--------|


E|--------|--------|--------|--------|--------|--------|--------|--------|--------|
B|--------|--------|--------|--------|--------|--------|--------|--------|--------|
G|--------|--------|--------|--------|--------|--------|--------|--------|--------|
D|--------|--------|--------|--------|--------|--------|--------|--------|--------|
A|--------|--------|--------|--------|--------|--------|--------|--------|--------|
E|--------|--------|--------|--------|--------|--------|--------|--------|--------|


E|--------|--------|--------|--------|--------|--------|--------|--------|--------|
B|--------|--------|--------|--------|--------|--------|--------|--------|--------|
G|--------|--------|--------|--------|--------|--------|--------|--------|--------|
D|--------|--------|--------|--------|--------|--------|--------|--------|--------|
A|--------|--------|--------|--------|--------|--------|--------|--------|--------|
E|--------|--------|--------|--------|--------|--------|--------|--------|--------|


E|--------|--------|--------|--------|--------|--------|--------|--------|--------|
B|--------|--------|--------|--------|--------|--------|--------|--------|--------|
G|--------|--------|--------|--------|--------|--------|--------|--------|--------|
D|--------|--------|--------|--------|--------|--------|--------|--------|--------|
A|--------|--------|--------|--------|--------|--------|--------|--------|--------|
E|--------|--------|--------|--------|--------|--------|--------|--------|--------|


E|--------|--------|--------|--------|--------|--------|--------|--------|--------|
B|--------|--------|--------|--------|--------|--------|--------|--------|--------|
G|--------|--------|--------|--------|--------|--------|--------|--------|--------|
D|--------|--------|--------|--------|--------|--------|--------|--------|--------|
A|--------|--------|--------|--------|--------|--------|--------|--------|--------|
E|--------|--------|--------|--------|--------|--------|--------|--------|--------|


E|--------|--------|--------|--------|--------|--------|--------|--------|--------|
B|--------|--------|--------|--------|--------|--------|--------|--------|--------|
G|--------|--------|--------|--------|--------|--------|--------|--------|--------|
D|--------|--------|--------|--------|--------|--------|--------|--------|--------|
A|--------|--------|--------|--------|--------|--------|--------|--------|--------|
E|--------|--------|--------|--------|--------|--------|--------|--------|--------|


E|--------|--------|--------|--------|--------|--------|--------|--------|--------|
B|--------|--------|--------|--------|--------|--------|--------|--------|--------|
G|--------|--------|--------|--------|--------|--------|--------|--------|--------|
D|--------|--------|--------|--------|--------|--------|--------|--------|--------|
A|--------|--------|--------|--------|--------|--------|--------|--------|--------|
E|--------|--------|--------|--------|--------|--------|--------|--------|--------|


E|--------|--------|--------|--------|--------|--------|--------|--------|--------|
B|--------|--------|--------|--------|--------|--------|--------|--------|--------|
G|--------|--------|--------|--------|--------|--------|--------|--------|--------|
D|--------|--------|--------|--------|--------|--------|--------|--------|--------|
A|--------|--------|--------|--------|--------|--------|--------|--------|--------|
E|--------|--------|--------|--------|--------|--------|--------|--------|--------|


E|--------|--------|--------|--------|--------|--------|--------|--------|--------|
B|--------|--------|--------|--------|--------|--------|--------|--------|--------|
G|--------|--------|--------|--------|--------|--------|--------|--------|--------|
D|--------|--------|--------|--------|--------|--------|--------|--------|--------|
A|--------|--------|--------|--------|--------|--------|--------|--------|--------|
E|--------|--------|--------|--------|--------|--------|--------|--------|--------|


E|--------|--------|--------|--------|--------|--------|--------|--------|--------|
B|--------|--------|--------|--------|--------|--------|--------|--------|--------|
G|--------|--------|--------|--------|--------|--------|--------|--------|--------|
D|--------|--------|--------|--------|--------|--------|--------|--------|--------|
A|--------|--------|--------|--------|--------|--------|--------|--------|--------|
E|--------|--------|--------|--------|--------|--------|--------|--------|--------|


E|--------|--------|--------|--------|--------|--------|--------|--------|--------|
B|--------|--------|--------|--------|--------|--------|--------|--------|--------|
G|--------|--------|--------|--------|--------|--------|--------|--------|--------|
D|--------|--------|--------|--------|--------|--------|--------|--------|--------|
A|--------|--------|--------|--------|--------|--------|--------|--------|--------|
E|--------|--------|--------|--------|--------|--------|--------|--------|--------|


E|--------|--------|--------|--------|--------|--------|--------|--------|--------|
B|--------|--------|--------|--------|--------|--------|--------|--------|--------|
G|--------|--------|--------|--------|--------|--------|--------|--------|--------|
D|--------|--------|--------|--------|--------|--------|--------|--------|--------|
A|--------|--------|--------|--------|--------|--------|--------|--------|--------|
E|--------|--------|--------|--------|--------|--------|--------|--------|--------|


E|--------|--------|--------|--------|--------|--------|--------|--------|--------|
B|--------|--------|--------|--------|--------|--------|--------|--------|--------|
G|--------|--------|--------|--------|--------|--------|--------|--------|--------|
D|--------|--------|--------|--------|--------|--------|--------|--------|--------|
A|--------|--------|--------|--------|--------|--------|--------|--------|--------|
E|--------|--------|--------|--------|--------|--------|--------|--------|--------|


E|--------|--------|--------|--------|--------|
B|--------|--------|--------|--------|--------|
G|--------|--------|--------|--------|--------|
D|--------|--------|--------|--------|--------|
A|--------|--------|--------|--------|--------|
E|--------|--------|--------|--------|--------|





Track 2: Lead

E|-------------|-------------|--------|--------|--------|--------|--------|--------|
B|-------------|-------------|--------|--------|--------|--------|--------|--------|
G|-------------|-------------|--------|--------|--------|--------|--------|--------|
D|-------------|-------------|--------|--------|--------|--------|--------|--------|
A|-------------|-------------|--------|--------|--------|--------|--------|--------|
E|-------0-----|-0-----------|--------|--------|--------|--------|--------|--------|


E|------------------------|------------------------|------------------------|------------------------|
B|------------------------|------------------------|------------------------|------------------------|
G|------------------------|-------------------5----|------------------------|------------------------|
D|-7----7---7----7---7----|-7---7----7---5----5----|-7----7---7----7---7----|-7---7----7---5----2----|
A|-7----7---7----7---7----|-7---7----7---5----3----|-7----7---7----7---7----|-7---7----7---5----2----|
E|-5----5---5----5---5----|-5---5----5---3---------|-5----5---5----5---5----|-5---5----5---3----0----|


E|------------------------|------------------------|------------------------|---------------------------|
B|------------------------|------------------------|------------------------|---------------------------|
G|------------------------|-------------------5----|------------------------|---------------------------|
D|-7----7---7----7---7----|-7---7----7---5----5----|-7----7---7----7---7----|-7---7----7---7----7---7---|
A|-7----7---7----7---7----|-7---7----7---5----3----|-7----7---7----7---7----|-7---7----7---7----7---7---|
E|-5----5---5----5---5----|-5---5----5---3---------|-5----5---5----5---5----|-5---5----5---5----5---5---|


E|------------------------|------------------------|------------------------|------------------------|
B|------------------------|------------------------|------------------------|------------------------|
G|------------------------|-------------------5----|------------------------|------------------------|
D|-7----7---7----7---7----|-7---7----7---5----5----|-7----7---7----7---7----|-7---7----7---5----2----|
A|-7----7---7----7---7----|-7---7----7---5----3----|-7----7---7----7---7----|-7---7----7---5----2----|
E|-5----5---5----5---5----|-5---5----5---3---------|-5----5---5----5---5----|-5---5----5---3----0----|


E|------------------------|------------------------|------------------------|------------------------|
B|------------------------|------------------------|------------------------|------------------------|
G|------------------------|-------------------5----|------------------------|------------------------|
D|-7----7---7----7---7----|-7---7----7---5----5----|-7----7---7----7---7----|-7---7----7---7----7----|
A|-7----7---7----7---7----|-7---7----7---5----3----|-7----7---7----7---7----|-7---7----7---7----7----|
E|-5----5---5----5---5----|-5---5----5---3---------|-5----5---5----5---5----|-5---5----5---5----5----|


E|------------------------|------------------------|------------------------|------------------------|
B|------------------------|------------------------|------------------------|------------------------|
G|------------------------|-------------------5----|------------------------|------------------------|
D|-7----7---7----7---7----|-7---7----7---5----5----|-7----7---7----7---7----|-7---7----7---5----2----|
A|-7----7---7----7---7----|-7---7----7---5----3----|-7----7---7----7---7----|-7---7----7---5----2----|
E|-5----5---5----5---5----|-5---5----5---3---------|-5----5---5----5---5----|-5---5----5---3----0----|


E|------------------------|------------------------|------------------------|------------------------|
B|------------------------|------------------------|------------------------|------------------------|
G|------------------------|-------------------5----|------------------------|------------------------|
D|-7----7---7----7---7----|-7---7----7---5----5----|-7----7---7----7---7----|-7---7----7---7----7----|
A|-7----7---7----7---7----|-7---7----7---5----3----|-7----7---7----7---7----|-7---7----7---7----7----|
E|-5----5---5----5---5----|-5---5----5---3---------|-5----5---5----5---5----|-5---5----5---5----5----|


E|-----12--------------------------|------------------------------|-----12--------------------------|
B|-10----------10--13------10--11--|-----10--13------10--11-------|-10----------10--13------10--11--|
G|---------------------------------|-------------------------12---|---------------------------------|
D|---------------------------------|------------------------------|---------------------------------|
A|---------------------------------|------------------------------|---------------------------------|
E|---------------------------------|------------------------------|---------------------------------|


E|------------------------------|-----12--------------------------|------------------------------|
B|-----10--13------10--11-------|-10----------10--13------10--11--|-----10--13------10--11-------|
G|-------------------------12---|---------------------------------|-------------------------12---|
D|------------------------------|---------------------------------|------------------------------|
A|------------------------------|---------------------------------|------------------------------|
E|------------------------------|---------------------------------|------------------------------|


E|-----12--------------------------|---------------------------|-----12--------------------------|
B|-10----------10--13------10------|-----10--10--10--10--------|-10----------10--13------10--11--|
G|-----------------------------12--|-12------------------------|---------------------------------|
D|---------------------------------|---------------------------|---------------------------------|
A|---------------------------------|---------------------------|---------------------------------|
E|---------------------------------|---------------------------|---------------------------------|


E|------------------------------|-----12--------------------------|------------------------------|
B|-----10--13------10--11-------|-10----------10--13------10--11--|-----10--13------10--11-------|
G|-------------------------12---|---------------------------------|-------------------------12---|
D|------------------------------|---------------------------------|------------------------------|
A|------------------------------|---------------------------------|------------------------------|
E|------------------------------|---------------------------------|------------------------------|


E|-----12--------------------------|------------------------------|-----12--------------------------|
B|-10----------10--13------10--11--|-----10--13------10--11-------|-10----------10--13------10------|
G|---------------------------------|-------------------------12---|-----------------------------12--|
D|---------------------------------|------------------------------|---------------------------------|
A|---------------------------------|------------------------------|---------------------------------|
E|---------------------------------|------------------------------|---------------------------------|


E|---------------------------|-----12--------------------------|------------------------------|
B|-----10--10--10--10--------|-10----------10--13------10--11--|-----10--13------10--11-------|
G|-12------------------------|---------------------------------|-------------------------12---|
D|---------------------------|---------------------------------|------------------------------|
A|---------------------------|---------------------------------|------------------------------|
E|---------------------------|---------------------------------|------------------------------|


E|-----12--------------------------|------------------------------|-----12--------------------------|
B|-10----------10--13------10--11--|-----10--13------10--11-------|-10----------10--13------10--11--|
G|---------------------------------|-------------------------12---|---------------------------------|
D|---------------------------------|------------------------------|---------------------------------|
A|---------------------------------|------------------------------|---------------------------------|
E|---------------------------------|------------------------------|---------------------------------|


E|------------------------------|-----12--------------------------|---------------------------|
B|-----10--13------10--11-------|-10----------10--13------10------|-----10--10--10--10--------|
G|-------------------------12---|-----------------------------12--|-12------------------------|
D|------------------------------|---------------------------------|---------------------------|
A|------------------------------|---------------------------------|---------------------------|
E|------------------------------|---------------------------------|---------------------------|


E|-----12--------------------------|------------------------------|-----12--------------------------|
B|-10----------10--13------10--11--|-----10--13------10--11-------|-10----------10--13------10--11--|
G|---------------------------------|-------------------------12---|---------------------------------|
D|---------------------------------|------------------------------|---------------------------------|
A|---------------------------------|------------------------------|---------------------------------|
E|---------------------------------|------------------------------|---------------------------------|


E|------------------------------|-----12--------------------------|------------------------------|
B|-----10--13------10--11-------|-10----------10--13------10--11--|-----10--13------10--11-------|
G|-------------------------12---|---------------------------------|-------------------------12---|
D|------------------------------|---------------------------------|------------------------------|
A|------------------------------|---------------------------------|------------------------------|
E|------------------------------|---------------------------------|------------------------------|


E|-----12--------------------------|---------------------------|-----------------10------12--10--|
B|-10----------10--13------10------|-----10--10--10--10--------|-10--10--13--10------10----------|
G|-----------------------------12--|-12------------------------|---------------------------------|
D|---------------------------------|---------------------------|---------------------------------|
A|---------------------------------|---------------------------|---------------------------------|
E|---------------------------------|---------------------------|---------------------------------|


E|---------12------15------13--12--|-------------------------10------|---------------------------------|
B|-13--13------13------13----------|---------12------13----------13--|---------13------10------11--10--|
G|---------------------------------|-12--12------12------12----------|-10--10------10------10----------|
D|---------------------------------|---------------------------------|---------------------------------|
A|---------------------------------|---------------------------------|---------------------------------|
E|---------------------------------|---------------------------------|---------------------------------|


E|------------------------|------------------------|------------------------|------------------------|
B|------------------------|------------------------|------------------------|------------------------|
G|-14---14--14---14--14---|-14--14---14--12---17---|-14---14--14---14--14---|-14--14---14--12---9----|
D|------------------------|------------------------|------------------------|------------------------|
A|-12---12--12---12--12---|-12--12---12--10---15---|-12---12--12---12--12---|-12--12---12--10---7----|
E|------------------------|------------------------|------------------------|------------------------|


E|------------------------|------------------------|------------------------|---------------------------|
B|------------------------|------------------------|------------------------|---------------------------|
G|-14---14--14---14--14---|-14--14---14--12---17---|-14---14--14---14--14---|-14--14---14--14---14--14--|
D|------------------------|------------------------|------------------------|---------------------------|
A|-12---12--12---12--12---|-12--12---12--10---15---|-12---12--12---12--12---|-12--12---12--12---12--12--|
E|------------------------|------------------------|------------------------|---------------------------|


E|------------------------|------------------------|------------------------|------------------------|
B|------------------------|------------------------|------------------------|------------------------|
G|-14---14--14---14--14---|-14--14---14--12---17---|-14---14--14---14--14---|-14--14---14--12---9----|
D|------------------------|------------------------|------------------------|------------------------|
A|-12---12--12---12--12---|-12--12---12--10---15---|-12---12--12---12--12---|-12--12---12--10---7----|
E|------------------------|------------------------|------------------------|------------------------|


E|------------------------|------------------------|------------------------|---------------------------|
B|------------------------|------------------------|------------------------|---------------------------|
G|-14---14--14---14--14---|-14--14---14--12---17---|-14---14--14---14--14---|-14--14---14--14---14--14--|
D|------------------------|------------------------|------------------------|---------------------------|
A|-12---12--12---12--12---|-12--12---12--10---15---|-12---12--12---12--12---|-12--12---12--12---12--12--|
E|------------------------|------------------------|------------------------|---------------------------|


E|-----12--------------------------|------------------------------|-----12--------------------------|
B|-10----------10--13------10--11--|-----10--13------10--11-------|-10----------10--13------10--11--|
G|---------------------------------|-------------------------12---|---------------------------------|
D|---------------------------------|------------------------------|---------------------------------|
A|---------------------------------|------------------------------|---------------------------------|
E|---------------------------------|------------------------------|---------------------------------|


E|------------------------------|-----12--------------------------|------------------------------|
B|-----10--13------10--11-------|-10----------10--13------10--11--|-----10--13------10--11-------|
G|-------------------------12---|---------------------------------|-------------------------12---|
D|------------------------------|---------------------------------|------------------------------|
A|------------------------------|---------------------------------|------------------------------|
E|------------------------------|---------------------------------|------------------------------|


E|-----12--------------------------|---------------------------|-----12--------------------------|
B|-10----------10--13------10------|-----10--10--10--10--------|-10----------10--13------10--11--|
G|-----------------------------12--|-12------------------------|---------------------------------|
D|---------------------------------|---------------------------|---------------------------------|
A|---------------------------------|---------------------------|---------------------------------|
E|---------------------------------|---------------------------|---------------------------------|


E|------------------------------|-----12--------------------------|------------------------------|
B|-----10--13------10--11-------|-10----------10--13------10--11--|-----10--13------10--11-------|
G|-------------------------12---|---------------------------------|-------------------------12---|
D|------------------------------|---------------------------------|------------------------------|
A|------------------------------|---------------------------------|------------------------------|
E|------------------------------|---------------------------------|------------------------------|


E|-----12--------------------------|------------------------------|-----12--------------------------|
B|-10----------10--13------10--11--|-----10--13------10--11-------|-10----------10--13------10------|
G|---------------------------------|-------------------------12---|-----------------------------12--|
D|---------------------------------|------------------------------|---------------------------------|
A|---------------------------------|------------------------------|---------------------------------|
E|---------------------------------|------------------------------|---------------------------------|


E|---------------------------|-----12--------------------------|------------------------------|
B|-----10--10--10--10--------|-10----------10--13------10--11--|-----10--13------10--11-------|
G|-12------------------------|---------------------------------|-------------------------12---|
D|---------------------------|---------------------------------|------------------------------|
A|---------------------------|---------------------------------|------------------------------|
E|---------------------------|---------------------------------|------------------------------|


E|-----12--------------------------|------------------------------|-----12--------------------------|
B|-10----------10--13------10--11--|-----10--13------10--11-------|-10----------10--13------10--11--|
G|---------------------------------|-------------------------12---|---------------------------------|
D|---------------------------------|------------------------------|---------------------------------|
A|---------------------------------|------------------------------|---------------------------------|
E|---------------------------------|------------------------------|---------------------------------|


E|------------------------------|-----12--------------------------|---------------------------|
B|-----10--13------10--11-------|-10----------10--13------10------|-----10--10--10--10--------|
G|-------------------------12---|-----------------------------12--|-12------------------------|
D|------------------------------|---------------------------------|---------------------------|
A|------------------------------|---------------------------------|---------------------------|
E|------------------------------|---------------------------------|---------------------------|


E|-----12--------------------------|------------------------------|-----12--------------------------|
B|-10----------10--13------10--11--|-----10--13------10--11-------|-10----------10--13------10--11--|
G|---------------------------------|-------------------------12---|---------------------------------|
D|---------------------------------|------------------------------|---------------------------------|
A|---------------------------------|------------------------------|---------------------------------|
E|---------------------------------|------------------------------|---------------------------------|


E|------------------------------|-----12--------------------------|------------------------------|
B|-----10--13------10--11-------|-10----------10--13------10--11--|-----10--13------10--11-------|
G|-------------------------12---|---------------------------------|-------------------------12---|
D|------------------------------|---------------------------------|------------------------------|
A|------------------------------|---------------------------------|------------------------------|
E|------------------------------|---------------------------------|------------------------------|


E|-----12--------------------------|---------------------------|-----------------10------12--10--|
B|-10----------10--13------10------|-----10--10--10--10--------|-10--10--13--10------10----------|
G|-----------------------------12--|-12------------------------|---------------------------------|
D|---------------------------------|---------------------------|---------------------------------|
A|---------------------------------|---------------------------|---------------------------------|
E|---------------------------------|---------------------------|---------------------------------|


E|---------12------15------13--12--|-------------------------10------|---------------------------------|
B|-13--13------13------13----------|---------12------13----------13--|---------13------10------11--10--|
G|---------------------------------|-12--12------12------12----------|-10--10------10------10----------|
D|---------------------------------|---------------------------------|---------------------------------|
A|---------------------------------|---------------------------------|---------------------------------|
E|---------------------------------|---------------------------------|---------------------------------|


E|------------------------|------------------------|------------------------|------------------------|
B|------------------------|------------------------|------------------------|------------------------|
G|-14---14--14---14--14---|-14--14---14--12---17---|-14---14--14---14--14---|-14--14---14--12---9----|
D|------------------------|------------------------|------------------------|------------------------|
A|-12---12--12---12--12---|-12--12---12--10---15---|-12---12--12---12--12---|-12--12---12--10---7----|
E|------------------------|------------------------|------------------------|------------------------|


E|------------------------|------------------------|------------------------|---------------------------|
B|------------------------|------------------------|------------------------|---------------------------|
G|-14---14--14---14--14---|-14--14---14--12---17---|-14---14--14---14--14---|-14--14---14--14---14--14--|
D|------------------------|------------------------|------------------------|---------------------------|
A|-12---12--12---12--12---|-12--12---12--10---15---|-12---12--12---12--12---|-12--12---12--12---12--12--|
E|------------------------|------------------------|------------------------|---------------------------|


E|------------------------|------------------------|------------------------|------------------------|
B|------------------------|------------------------|------------------------|------------------------|
G|-14---14--14---14--14---|-14--14---14--12---17---|-14---14--14---14--14---|-14--14---14--12---9----|
D|------------------------|------------------------|------------------------|------------------------|
A|-12---12--12---12--12---|-12--12---12--10---15---|-12---12--12---12--12---|-12--12---12--10---7----|
E|------------------------|------------------------|------------------------|------------------------|


E|------------------------|------------------------|------------------------|---------------------------|
B|------------------------|------------------------|------------------------|---------------------------|
G|-14---14--14---14--14---|-14--14---14--12---17---|-14---14--14---14--14---|-14--14---14--14---14--14--|
D|------------------------|------------------------|------------------------|---------------------------|
A|-12---12--12---12--12---|-12--12---12--10---15---|-12---12--12---12--12---|-12--12---12--12---12--12--|
E|------------------------|------------------------|------------------------|---------------------------|


E|---------------------------------|---------------------------------|---------------------------------|
B|---------------------------------|---------------------------------|---------------------------------|
G|---------------------------------|---------------------------------|---------------------------------|
D|-7---7-------7---7-------7---7---|-----7---7-------7---7---7---7---|-7---7-------7---7-------7---7---|
A|-7---7-------7---7-------7---7---|-----7---7-------7---7---7---7---|-7---7-------7---7-------7---7---|
E|-5---5-------5---5-------5---5---|-----5---5-------5---5---5---5---|-5---5-------5---5-------5---5---|


E|---------------------------------|---------------------------------|---------------------------------|
B|---------------------------------|---------------------------------|---------------------------------|
G|---------------------------------|---------------------------------|---------------------------------|
D|-----7---7-------8---8---8---8---|-7---7-------7---7-------7---7---|-----7---7-------7---7---7---7---|
A|-----7---7-------8---8---8---8---|-7---7-------7---7-------7---7---|-----7---7-------7---7---7---7---|
E|-----5---5-------6---6---6---6---|-5---5-------5---5-------5---5---|-----5---5-------5---5---5---5---|


E|---------------------------------|---------------------------------|---------------------------------|
B|---------------------------------|---------------------------------|---------------------------------|
G|---------------------------------|---------------------------------|---------------------------------|
D|-7---7-------7---7-------7---7---|-----7---7-------8---8---8---8---|-7---7-------7---7-------7---7---|
A|-7---7-------7---7-------7---7---|-----7---7-------8---8---8---8---|-7---7-------7---7-------7---7---|
E|-5---5-------5---5-------5---5---|-----5---5-------6---6---6---6---|-5---5-------5---5-------5---5---|


E|---------------------------------|---------------------------------|---------------------------------|
B|---------------------------------|---------------------------------|---------------------------------|
G|---------------------------------|---------------------------------|---------------------------------|
D|-----7---7-------7---7---7---7---|-7---7-------7---7-------7---7---|-----7---7-------8---8---8---8---|
A|-----7---7-------7---7---7---7---|-7---7-------7---7-------7---7---|-----7---7-------8---8---8---8---|
E|-----5---5-------5---5---5---5---|-5---5-------5---5-------5---5---|-----5---5-------6---6---6---6---|


E|---------------------------------|---------------------------------|---------------------------------|
B|---------------------------------|---------------------------------|---------------------------------|
G|---------------------------------|---------------------------------|---------------------------------|
D|-7---7-------7---7-------7---7---|-----7---7-------7---7---7---7---|-7---7-------7---7-------7---7---|
A|-7---7-------7---7-------7---7---|-----7---7-------7---7---7---7---|-7---7-------7---7-------7---7---|
E|-5---5-------5---5-------5---5---|-----5---5-------5---5---5---5---|-5---5-------5---5-------5---5---|


E|---------------------------------|-----------------10------12--10--|---------12------15------13--12--|
B|---------------------------------|-10--10--13--10------10----------|-13--13------13------13----------|
G|---------------------------------|---------------------------------|---------------------------------|
D|-----7---7-------8---8---8---8---|---------------------------------|---------------------------------|
A|-----7---7-------8---8---8---8---|---------------------------------|---------------------------------|
E|-----5---5-------6---6---6---6---|---------------------------------|---------------------------------|


E|-------------------------10------|---------------------------------|-----------------10------12--10--|
B|---------12------13----------13--|---------13------10------11--10--|-10--10--13--10------10----------|
G|-12--12------12------12----------|-10--10------10------10----------|---------------------------------|
D|---------------------------------|---------------------------------|---------------------------------|
A|---------------------------------|---------------------------------|---------------------------------|
E|---------------------------------|---------------------------------|---------------------------------|


E|---------12------15------13--12--|-------------------------10------|---------------------------------|
B|-13--13------13------13----------|---------12------13----------13--|---------13------10------11--10--|
G|---------------------------------|-12--12------12------12----------|-10--10------10------10----------|
D|---------------------------------|---------------------------------|---------------------------------|
A|---------------------------------|---------------------------------|---------------------------------|
E|---------------------------------|---------------------------------|---------------------------------|


E|--------|--------|--------|--------|--------|--------|--------|--------|------------------------|
B|--------|--------|--------|--------|--------|--------|--------|--------|------------------------|
G|--------|--------|--------|--------|--------|--------|--------|--------|------------------------|
D|--------|--------|--------|--------|--------|--------|--------|--------|-7----7---7----7---7----|
A|--------|--------|--------|--------|--------|--------|--------|--------|-7----7---7----7---7----|
E|--------|--------|--------|--------|--------|--------|--------|--------|-5----5---5----5---5----|


E|------------------------|------------------------|------------------------|------------------------|
B|------------------------|------------------------|------------------------|------------------------|
G|-------------------5----|------------------------|------------------------|------------------------|
D|-7---7----7---5----5----|-7----7---7----7---7----|-7---7----7---5----2----|-7----7---7----7---7----|
A|-7---7----7---5----3----|-7----7---7----7---7----|-7---7----7---5----2----|-7----7---7----7---7----|
E|-5---5----5---3---------|-5----5---5----5---5----|-5---5----5---3----0----|-5----5---5----5---5----|


E|------------------------|------------------------|------------------------|------------------------|
B|------------------------|------------------------|------------------------|------------------------|
G|-------------------5----|------------------------|------------------------|------------------------|
D|-7---7----7---5----5----|-7----7---7----7---7----|-7---7----7---7----7----|-7----7---7----7---7----|
A|-7---7----7---5----3----|-7----7---7----7---7----|-7---7----7---7----7----|-7----7---7----7---7----|
E|-5---5----5---3---------|-5----5---5----5---5----|-5---5----5---5----5----|-5----5---5----5---5----|


E|------------------------|------------------------|------------------------|------------------------|
B|------------------------|------------------------|------------------------|------------------------|
G|-------------------5----|------------------------|------------------------|------------------------|
D|-7---7----7---5----5----|-7----7---7----7---7----|-7---7----7---5----2----|-7----7---7----7---7----|
A|-7---7----7---5----3----|-7----7---7----7---7----|-7---7----7---5----2----|-7----7---7----7---7----|
E|-5---5----5---3---------|-5----5---5----5---5----|-5---5----5---3----0----|-5----5---5----5---5----|


E|------------------------|------------------------|------------------------|---------------------------------|
B|------------------------|------------------------|------------------------|---------------------------------|
G|-------------------5----|------------------------|------------------------|---------------------------------|
D|-7---7----7---5----5----|-7----7---7----7---7----|-7---7----7---7----7----|-7---7-------7---7-------7---7---|
A|-7---7----7---5----3----|-7----7---7----7---7----|-7---7----7---7----7----|-7---7-------7---7-------7---7---|
E|-5---5----5---3---------|-5----5---5----5---5----|-5---5----5---5----5----|-5---5-------5---5-------5---5---|


E|---------------------------------|---------------------------------|---------------------------------|
B|---------------------------------|---------------------------------|---------------------------------|
G|---------------------------------|---------------------------------|---------------------------------|
D|-----7---7-------7---7---7---7---|-7---7-------7---7-------7---7---|-----7---7-------8---8---8---8---|
A|-----7---7-------7---7---7---7---|-7---7-------7---7-------7---7---|-----7---7-------8---8---8---8---|
E|-----5---5-------5---5---5---5---|-5---5-------5---5-------5---5---|-----5---5-------6---6---6---6---|


E|---------------------------------|---------------------------------|---------------------------------|
B|---------------------------------|---------------------------------|---------------------------------|
G|---------------------------------|---------------------------------|---------------------------------|
D|-7---7-------7---7-------7---7---|-----7---7-------7---7---7---7---|-7---7-------7---7-------7---7---|
A|-7---7-------7---7-------7---7---|-----7---7-------7---7---7---7---|-7---7-------7---7-------7---7---|
E|-5---5-------5---5-------5---5---|-----5---5-------5---5---5---5---|-5---5-------5---5-------5---5---|


E|---------------------------------|------------------------|------------------------|
B|---------------------------------|------------------------|------------------------|
G|---------------------------------|------------------------|-------------------5----|
D|-----7---7-------8---8---8---8---|-7----7---7----7---7----|-7---7----7---5----5----|
A|-----7---7-------8---8---8---8---|-7----7---7----7---7----|-7---7----7---5----3----|
E|-----5---5-------6---6---6---6---|-5----5---5----5---5----|-5---5----5---3---------|


E|------------------------|------------------------|------------------------|------------------------|
B|------------------------|------------------------|------------------------|------------------------|
G|------------------------|------------------------|------------------------|-------------------5----|
D|-7----7---7----7---7----|-7---7----7---5----2----|-7----7---7----7---7----|-7---7----7---5----5----|
A|-7----7---7----7---7----|-7---7----7---5----2----|-7----7---7----7---7----|-7---7----7---5----3----|
E|-5----5---5----5---5----|-5---5----5---3----0----|-5----5---5----5---5----|-5---5----5---3---------|


E|------------------------|------------------------|-------------|
B|------------------------|------------------------|-------------|
G|------------------------|------------------------|-------------|
D|-7----7---7----7---7----|-7---7----7---5----2----|-7-----------|
A|-7----7---7----7---7----|-7---7----7---5----2----|-7-----------|
E|-5----5---5----5---5----|-5---5----5---3----0----|-5-----------|





Track 3: Piano

E|--------|-------10--------------|-10------10------10--------10---|--------|--------|
B|--------|---------10------------|-----10------10-------10--------|-10-----|--------|
G|--------|-----------9-109-------|--------------------------------|--------|--------|
D|--------|-----------------12----|-12-----------------------------|-12-----|--------|
A|--------|-----------------------|--------------------------------|--------|--------|
E|--------|-----------------------|--------------------------------|--------|--------|


E|--------|--------|--------|--------|--------|--------|--------|--------|--------|
B|--------|--------|--------|--------|--------|--------|--------|--------|--------|
G|--------|--------|--------|--------|--------|--------|--------|--------|--------|
D|--------|--------|--------|--------|--------|--------|--------|--------|--------|
A|--------|--------|--------|--------|--------|--------|--------|--------|--------|
E|--------|--------|--------|--------|--------|--------|--------|--------|--------|


E|--------|--------|--------|--------|--------|--------|--------|--------|--------|
B|--------|--------|--------|--------|--------|--------|--------|--------|--------|
G|--------|--------|--------|--------|--------|--------|--------|--------|--------|
D|--------|--------|--------|--------|--------|--------|--------|--------|--------|
A|--------|--------|--------|--------|--------|--------|--------|--------|--------|
E|--------|--------|--------|--------|--------|--------|--------|--------|--------|


E|--------|--------|--------|--------|--------|--------|--------|--------|--------|
B|--------|--------|--------|--------|--------|--------|--------|--------|--------|
G|--------|--------|--------|--------|--------|--------|--------|--------|--------|
D|--------|--------|--------|--------|--------|--------|--------|--------|--------|
A|--------|--------|--------|--------|--------|--------|--------|--------|--------|
E|--------|--------|--------|--------|--------|--------|--------|--------|--------|


E|--------|--------|--------|--------|--------|--------|--------|--------|--------|
B|--------|--------|--------|--------|--------|--------|--------|--------|--------|
G|--------|--------|--------|--------|--------|--------|--------|--------|--------|
D|--------|--------|--------|--------|--------|--------|--------|--------|--------|
A|--------|--------|--------|--------|--------|--------|--------|--------|--------|
E|--------|--------|--------|--------|--------|--------|--------|--------|--------|


E|--------|--------|--------|--------|--------|--------|--------|--------|--------|
B|--------|--------|--------|--------|--------|--------|--------|--------|--------|
G|--------|--------|--------|--------|--------|--------|--------|--------|--------|
D|--------|--------|--------|--------|--------|--------|--------|--------|--------|
A|--------|--------|--------|--------|--------|--------|--------|--------|--------|
E|--------|--------|--------|--------|--------|--------|--------|--------|--------|


E|--------|--------|--------|--------|--------|--------|--------|--------|--------|
B|--------|--------|--------|--------|--------|--------|--------|--------|--------|
G|--------|--------|--------|--------|--------|--------|--------|--------|--------|
D|--------|--------|--------|--------|--------|--------|--------|--------|--------|
A|--------|--------|--------|--------|--------|--------|--------|--------|--------|
E|--------|--------|--------|--------|--------|--------|--------|--------|--------|


E|--------|--------|--------|--------|--------|--------|--------|--------|--------|
B|--------|--------|--------|--------|--------|--------|--------|--------|--------|
G|--------|--------|--------|--------|--------|--------|--------|--------|--------|
D|--------|--------|--------|--------|--------|--------|--------|--------|--------|
A|--------|--------|--------|--------|--------|--------|--------|--------|--------|
E|--------|--------|--------|--------|--------|--------|--------|--------|--------|


E|--------|--------|--------|--------|--------|--------|--------|--------|--------|
B|--------|--------|--------|--------|--------|--------|--------|--------|--------|
G|--------|--------|--------|--------|--------|--------|--------|--------|--------|
D|--------|--------|--------|--------|--------|--------|--------|--------|--------|
A|--------|--------|--------|--------|--------|--------|--------|--------|--------|
E|--------|--------|--------|--------|--------|--------|--------|--------|--------|


E|--------|--------|--------|--------|--------|--------|--------|--------|--------|
B|--------|--------|--------|--------|--------|--------|--------|--------|--------|
G|--------|--------|--------|--------|--------|--------|--------|--------|--------|
D|--------|--------|--------|--------|--------|--------|--------|--------|--------|
A|--------|--------|--------|--------|--------|--------|--------|--------|--------|
E|--------|--------|--------|--------|--------|--------|--------|--------|--------|


E|--------|--------|--------|--------|--------|--------|--------|--------|--------|
B|--------|--------|--------|--------|--------|--------|--------|--------|--------|
G|--------|--------|--------|--------|--------|--------|--------|--------|--------|
D|--------|--------|--------|--------|--------|--------|--------|--------|--------|
A|--------|--------|--------|--------|--------|--------|--------|--------|--------|
E|--------|--------|--------|--------|--------|--------|--------|--------|--------|


E|--------|--------|--------|--------|--------|--------|--------|--------|--------|
B|--------|--------|--------|--------|--------|--------|--------|--------|--------|
G|--------|--------|--------|--------|--------|--------|--------|--------|--------|
D|--------|--------|--------|--------|--------|--------|--------|--------|--------|
A|--------|--------|--------|--------|--------|--------|--------|--------|--------|
E|--------|--------|--------|--------|--------|--------|--------|--------|--------|


E|--------|--------|--------|--------|--------|--------|--------|--------|--------|
B|--------|--------|--------|--------|--------|--------|--------|--------|--------|
G|--------|--------|--------|--------|--------|--------|--------|--------|--------|
D|--------|--------|--------|--------|--------|--------|--------|--------|--------|
A|--------|--------|--------|--------|--------|--------|--------|--------|--------|
E|--------|--------|--------|--------|--------|--------|--------|--------|--------|


E|--------|--------|--------|--------|--------|--------|--------|--------|--------|
B|--------|--------|--------|--------|--------|--------|--------|--------|--------|
G|--------|--------|--------|--------|--------|--------|--------|--------|--------|
D|--------|--------|--------|--------|--------|--------|--------|--------|--------|
A|--------|--------|--------|--------|--------|--------|--------|--------|--------|
E|--------|--------|--------|--------|--------|--------|--------|--------|--------|


E|--------|--------|--------|--------|--------|--------|--------|--------|--------|
B|--------|--------|--------|--------|--------|--------|--------|--------|--------|
G|--------|--------|--------|--------|--------|--------|--------|--------|--------|
D|--------|--------|--------|--------|--------|--------|--------|--------|--------|
A|--------|--------|--------|--------|--------|--------|--------|--------|--------|
E|--------|--------|--------|--------|--------|--------|--------|--------|--------|


E|--------|--------|--------|--------|--------|--------|--------|--------|--------|
B|--------|--------|--------|--------|--------|--------|--------|--------|--------|
G|--------|--------|--------|--------|--------|--------|--------|--------|--------|
D|--------|--------|--------|--------|--------|--------|--------|--------|--------|
A|--------|--------|--------|--------|--------|--------|--------|--------|--------|
E|--------|--------|--------|--------|--------|--------|--------|--------|--------|


E|--------|--------|--------|--------|--------|--------|--------|--------|--------|
B|--------|--------|--------|--------|--------|--------|--------|--------|--------|
G|--------|--------|--------|--------|--------|--------|--------|--------|--------|
D|--------|--------|--------|--------|--------|--------|--------|--------|--------|
A|--------|--------|--------|--------|--------|--------|--------|--------|--------|
E|--------|--------|--------|--------|--------|--------|--------|--------|--------|


E|--------|--------|--------|--------|--------|--------|--------|--------|--------|
B|--------|--------|--------|--------|--------|--------|--------|--------|--------|
G|--------|--------|--------|--------|--------|--------|--------|--------|--------|
D|--------|--------|--------|--------|--------|--------|--------|--------|--------|
A|--------|--------|--------|--------|--------|--------|--------|--------|--------|
E|--------|--------|--------|--------|--------|--------|--------|--------|--------|


E|--------|--------|-----------------10------12--10--|---------12------15------13--12--|
B|--------|--------|-10--10--13--10------10----------|-13--13------13------13----------|
G|--------|--------|---------------------------------|---------------------------------|
D|--------|--------|---------------------------------|---------------------------------|
A|--------|--------|---------------------------------|---------------------------------|
E|--------|--------|---------------------------------|---------------------------------|


E|-------------------------10------|---------------------------------|-----------------10------12--10--|
B|---------12------13----------13--|---------13------10------11--10--|-10--10--13--10------10----------|
G|-12--12------12------12----------|-10--10------10------10----------|---------------------------------|
D|---------------------------------|---------------------------------|---------------------------------|
A|---------------------------------|---------------------------------|---------------------------------|
E|---------------------------------|---------------------------------|---------------------------------|


E|---------12------15------13--12--|-------------------------10------|---------------------------------|
B|-13--13------13------13----------|---------12------13----------13--|---------13------10------11--10--|
G|---------------------------------|-12--12------12------12----------|-10--10------10------10----------|
D|---------------------------------|---------------------------------|---------------------------------|
A|---------------------------------|---------------------------------|---------------------------------|
E|---------------------------------|---------------------------------|---------------------------------|


E|--------|--------|--------|--------|--------|--------|--------|--------|--------|
B|--------|--------|--------|--------|--------|--------|--------|--------|--------|
G|--------|--------|--------|--------|--------|--------|--------|--------|--------|
D|--------|--------|--------|--------|--------|--------|--------|--------|--------|
A|--------|--------|--------|--------|--------|--------|--------|--------|--------|
E|--------|--------|--------|--------|--------|--------|--------|--------|--------|


E|--------|--------|--------|--------|--------|--------|--------|--------|--------|
B|--------|--------|--------|--------|--------|--------|--------|--------|--------|
G|--------|--------|--------|--------|--------|--------|--------|--------|--------|
D|--------|--------|--------|--------|--------|--------|--------|--------|--------|
A|--------|--------|--------|--------|--------|--------|--------|--------|--------|
E|--------|--------|--------|--------|--------|--------|--------|--------|--------|


E|--------|--------|--------|--------|--------|--------|--------|--------|--------|
B|--------|--------|--------|--------|--------|--------|--------|--------|--------|
G|--------|--------|--------|--------|--------|--------|--------|--------|--------|
D|--------|--------|--------|--------|--------|--------|--------|--------|--------|
A|--------|--------|--------|--------|--------|--------|--------|--------|--------|
E|--------|--------|--------|--------|--------|--------|--------|--------|--------|


E|--------|--------|--------|--------|-8---------------|-5----5-----5--------|
B|--------|--------|--------|-10-----|-10--------------|-5----5-----5--------|
G|--------|--------|-7------|-7------|-7---------------|---------------------|
D|--------|-7------|-7------|-7------|-7-----5----2----|-7----7-----7--------|
A|--------|--------|--------|--------|-------5----2----|-7----7-----7--------|
E|--------|--------|--------|--------|-------3----0----|-5----5-----5--------|





Track 4: Synth

E|--------|-------------|--------|--------|--------|--------|--------|--------|--------|
B|--------|-------------|--------|--------|--------|--------|--------|--------|--------|
G|--------|-------------|--------|--------|--------|--------|--------|--------|--------|
D|--------|-------------|--------|--------|--------|--------|--------|--------|--------|
A|--------|-------------|--------|--------|--------|--------|--------|--------|--------|
E|--------|--------0----|-0------|-0------|-0------|--------|--------|--------|--------|


E|--------|--------|--------|--------|--------|--------|--------|--------|--------|
B|--------|--------|--------|--------|--------|--------|--------|--------|--------|
G|--------|--------|--------|--------|--------|--------|--------|--------|--------|
D|--------|--------|--------|--------|--------|--------|--------|--------|--------|
A|--------|--------|--------|--------|--------|--------|--------|--------|--------|
E|--------|--------|--------|--------|--------|--------|--------|--------|--------|


E|--------|--------|--------|--------|--------|--------|--------|--------|--------|
B|--------|--------|--------|--------|--------|--------|--------|--------|--------|
G|--------|--------|--------|--------|--------|--------|--------|--------|--------|
D|--------|--------|--------|--------|--------|--------|--------|--------|--------|
A|--------|--------|--------|--------|--------|--------|--------|--------|--------|
E|--------|--------|--------|--------|--------|--------|--------|--------|--------|


E|--------|--------|--------|--------|--------|--------|--------|--------|--------|
B|--------|--------|--------|--------|--------|--------|--------|--------|--------|
G|--------|--------|--------|--------|--------|--------|--------|--------|--------|
D|--------|--------|--------|--------|--------|--------|--------|--------|--------|
A|--------|--------|--------|--------|--------|--------|--------|--------|--------|
E|--------|--------|--------|--------|--------|--------|--------|--------|--------|


E|--------|--------|--------|--------|--------|--------|--------|--------|--------|
B|--------|--------|--------|--------|--------|--------|--------|--------|--------|
G|--------|--------|--------|--------|--------|--------|--------|--------|--------|
D|--------|--------|--------|--------|--------|--------|--------|--------|--------|
A|--------|--------|--------|--------|--------|--------|--------|--------|--------|
E|--------|--------|--------|--------|--------|--------|--------|--------|--------|


E|--------|--------|--------|--------|--------|--------|--------|--------|--------|
B|--------|--------|--------|--------|--------|--------|--------|--------|--------|
G|--------|--------|--------|--------|--------|--------|--------|--------|--------|
D|--------|--------|--------|--------|--------|--------|--------|--------|--------|
A|--------|--------|--------|--------|--------|--------|--------|--------|--------|
E|--------|--------|--------|--------|--------|--------|--------|--------|--------|


E|--------|--------|--------|--------|--------|--------|--------|--------|--------|
B|--------|--------|--------|--------|--------|--------|--------|--------|--------|
G|--------|--------|--------|--------|--------|--------|--------|--------|--------|
D|--------|--------|--------|--------|--------|--------|--------|--------|--------|
A|--------|--------|--------|--------|--------|--------|--------|--------|--------|
E|--------|--------|--------|--------|--------|--------|--------|--------|--------|


E|--------|--------|--------|--------|--------|--------|--------|--------|--------|
B|--------|--------|--------|--------|--------|--------|--------|--------|--------|
G|--------|--------|--------|--------|--------|--------|--------|--------|--------|
D|--------|--------|--------|--------|--------|--------|--------|--------|--------|
A|--------|--------|--------|--------|--------|--------|--------|--------|--------|
E|--------|--------|--------|--------|--------|--------|--------|--------|--------|


E|--------|--------|--------|--------|--------|--------|--------|--------|--------|
B|--------|--------|--------|--------|--------|--------|--------|--------|--------|
G|--------|--------|--------|--------|--------|--------|--------|--------|--------|
D|--------|--------|--------|--------|--------|--------|--------|--------|--------|
A|--------|--------|--------|--------|--------|--------|--------|--------|--------|
E|--------|--------|--------|--------|--------|--------|--------|--------|--------|


E|--------|--------|--------|--------|--------|--------|--------|--------|--------|
B|--------|--------|--------|--------|--------|--------|--------|--------|--------|
G|--------|--------|--------|--------|--------|--------|--------|--------|--------|
D|--------|--------|--------|--------|--------|--------|--------|--------|--------|
A|--------|--------|--------|--------|--------|--------|--------|--------|--------|
E|--------|--------|--------|--------|--------|--------|--------|--------|--------|


E|--------|--------|--------|--------|--------|--------|--------|--------|--------|
B|--------|--------|--------|--------|--------|--------|--------|--------|--------|
G|--------|--------|--------|--------|--------|--------|--------|--------|--------|
D|--------|--------|--------|--------|--------|--------|--------|--------|--------|
A|--------|--------|--------|--------|--------|--------|--------|--------|--------|
E|--------|--------|--------|--------|--------|--------|--------|--------|--------|


E|--------|--------|--------|--------|--------|--------|--------|--------|--------|
B|--------|--------|--------|--------|--------|--------|--------|--------|--------|
G|--------|--------|--------|--------|--------|--------|--------|--------|--------|
D|--------|--------|--------|--------|--------|--------|--------|--------|--------|
A|--------|--------|--------|--------|--------|--------|--------|--------|--------|
E|--------|--------|--------|--------|--------|--------|--------|--------|--------|


E|--------|--------|--------|--------|--------|--------|--------|--------|--------|
B|--------|--------|--------|--------|--------|--------|--------|--------|--------|
G|--------|--------|--------|--------|--------|--------|--------|--------|--------|
D|--------|--------|--------|--------|--------|--------|--------|--------|--------|
A|--------|--------|--------|--------|--------|--------|--------|--------|--------|
E|--------|--------|--------|--------|--------|--------|--------|--------|--------|


E|--------|--------|--------|--------|--------|--------|--------|--------|--------|
B|--------|--------|--------|--------|--------|--------|--------|--------|--------|
G|--------|--------|--------|--------|--------|--------|--------|--------|--------|
D|--------|--------|--------|--------|--------|--------|--------|--------|--------|
A|--------|--------|--------|--------|--------|--------|--------|--------|--------|
E|--------|--------|--------|--------|--------|--------|--------|--------|--------|


E|--------|--------|--------|--------|--------|--------|--------|--------|--------|
B|--------|--------|--------|--------|--------|--------|--------|--------|--------|
G|--------|--------|--------|--------|--------|--------|--------|--------|--------|
D|--------|--------|--------|--------|--------|--------|--------|--------|--------|
A|--------|--------|--------|--------|--------|--------|--------|--------|--------|
E|--------|--------|--------|--------|--------|--------|--------|--------|--------|


E|--------|--------|--------|--------|--------|--------|--------|--------|--------|
B|--------|--------|--------|--------|--------|--------|--------|--------|--------|
G|--------|--------|--------|--------|--------|--------|--------|--------|--------|
D|--------|--------|--------|--------|--------|--------|--------|--------|--------|
A|--------|--------|--------|--------|--------|--------|--------|--------|--------|
E|--------|--------|--------|--------|--------|--------|--------|--------|--------|


E|--------|--------|--------|--------|--------|--------|--------|--------|--------|
B|--------|--------|--------|--------|--------|--------|--------|--------|--------|
G|--------|--------|--------|--------|--------|--------|--------|--------|--------|
D|--------|--------|--------|--------|--------|--------|--------|--------|--------|
A|--------|--------|--------|--------|--------|--------|--------|--------|--------|
E|--------|--------|--------|--------|--------|--------|--------|--------|--------|


E|--------|--------|--------|--------|--------|--------|--------|--------|--------|
B|--------|--------|--------|--------|--------|--------|--------|--------|--------|
G|--------|--------|--------|--------|--------|--------|--------|--------|--------|
D|--------|--------|--------|--------|--------|--------|--------|--------|--------|
A|--------|--------|--------|--------|--------|--------|--------|--------|--------|
E|--------|--------|--------|--------|--------|--------|--------|--------|--------|


E|--------|--------|--------|--------|--------|--------|--------|--------|--------|
B|--------|--------|--------|--------|--------|--------|--------|--------|--------|
G|--------|--------|--------|--------|--------|--------|--------|--------|--------|
D|--------|--------|--------|--------|--------|--------|--------|--------|--------|
A|--------|--------|--------|--------|--------|--------|--------|--------|--------|
E|--------|--------|--------|--------|--------|--------|--------|--------|--------|


E|--------|--------|--------|--------|--------|--------|--------|--------|--------|
B|--------|--------|--------|--------|--------|--------|--------|--------|--------|
G|--------|--------|--------|--------|--------|--------|--------|--------|--------|
D|--------|--------|--------|--------|--------|--------|--------|--------|--------|
A|--------|--------|--------|--------|--------|--------|--------|--------|--------|
E|--------|--------|--------|--------|--------|--------|--------|--------|--------|


E|--------|--------|--------|--------|--------|--------|--------|--------|--------|
B|--------|--------|--------|--------|--------|--------|--------|--------|--------|
G|--------|--------|--------|--------|--------|--------|--------|--------|--------|
D|--------|--------|--------|--------|--------|--------|--------|--------|--------|
A|--------|--------|--------|--------|--------|--------|--------|--------|--------|
E|--------|--------|--------|--------|--------|--------|--------|--------|--------|


E|--------|--------|--------|--------|--------|--------|--------|--------|--------|
B|--------|--------|--------|--------|--------|--------|--------|--------|--------|
G|--------|--------|--------|--------|--------|--------|--------|--------|--------|
D|--------|--------|--------|--------|--------|--------|--------|--------|--------|
A|--------|--------|--------|--------|--------|--------|--------|--------|--------|
E|--------|--------|--------|--------|--------|--------|--------|--------|--------|


E|--------|--------|--------|
B|--------|--------|--------|
G|--------|--------|--------|
D|--------|--------|--------|
A|--------|--------|--------|
E|--------|--------|--------|





Track 5: Rythem

E|--------|--------|--------|--------|--------|--------|--------|--------|--------|
B|--------|--------|--------|--------|--------|--------|--------|--------|--------|
G|--------|--------|--------|--------|--------|--------|--------|--------|--------|
D|--------|--------|--------|--------|--------|--------|--------|--------|--------|
A|--------|--------|--------|--------|--------|--------|--------|--------|--------|
E|--------|--------|--------|--------|--------|--------|--------|--------|--------|


E|--------|--------|--------|--------|--------|--------|--------|--------|--------|
B|--------|--------|--------|--------|--------|--------|--------|--------|--------|
G|--------|--------|--------|--------|--------|--------|--------|--------|--------|
D|--------|--------|--------|--------|--------|--------|--------|--------|--------|
A|--------|--------|--------|--------|--------|--------|--------|--------|--------|
E|--------|--------|--------|--------|--------|--------|--------|--------|--------|


E|--------|--------|--------|--------|--------|--------|--------|--------|--------|
B|--------|--------|--------|--------|--------|--------|--------|--------|--------|
G|--------|--------|--------|--------|--------|--------|--------|--------|--------|
D|--------|--------|--------|--------|--------|--------|--------|--------|--------|
A|--------|--------|--------|--------|--------|--------|--------|--------|--------|
E|--------|--------|--------|--------|--------|--------|--------|--------|--------|


E|--------|--------|--------|--------|--------|------------------------|------------------------|
B|--------|--------|--------|--------|--------|------------------------|------------------------|
G|--------|--------|--------|--------|--------|------------------------|------------------------|
D|--------|--------|--------|--------|--------|-7----7---7----7---7----|-7---7----7---8----5----|
A|--------|--------|--------|--------|--------|-7----7---7----7---7----|-7---7----7---8----5----|
E|--------|--------|--------|--------|--------|-5----5---5----5---5----|-5---5----5---6----3----|


E|------------------------|------------------------|------------------------|------------------------|
B|------------------------|------------------------|------------------------|------------------------|
G|------------------------|------------------------|------------------------|------------------------|
D|-7----7---7----7---7----|-7---7----7---8----5----|-7----7---7----7---7----|-7---7----7---8----5----|
A|-7----7---7----7---7----|-7---7----7---8----5----|-7----7---7----7---7----|-7---7----7---8----5----|
E|-5----5---5----5---5----|-5---5----5---6----3----|-5----5---5----5---5----|-5---5----5---6----3----|


E|---------------------------|---------------------------|------------------------|
B|---------------------------|---------------------------|------------------------|
G|---------------------------|---------------------------|------------------------|
D|-7----7---7----7---7---5---|-5---7---7---7---7---------|-7----7---7----7---7----|
A|-7----7---7----7---7---5---|-5---7---7---7---7---------|-7----7---7----7---7----|
E|-5----5---5----5---5---3---|-3---5---5---5---5---------|-5----5---5----5---5----|


E|------------------------|------------------------|------------------------|------------------------|
B|------------------------|------------------------|------------------------|------------------------|
G|------------------------|------------------------|------------------------|------------------------|
D|-7---7----7---8----5----|-7----7---7----7---7----|-7---7----7---8----5----|-7----7---7----7---7----|
A|-7---7----7---8----5----|-7----7---7----7---7----|-7---7----7---8----5----|-7----7---7----7---7----|
E|-5---5----5---6----3----|-5----5---5----5---5----|-5---5----5---6----3----|-5----5---5----5---5----|


E|------------------------|---------------------------|---------------------------|
B|------------------------|---------------------------|---------------------------|
G|------------------------|---------------------------|---------------------------|
D|-7---7----7---8----5----|-7----7---7----7---7---5---|-5---7---7---7---7---------|
A|-7---7----7---8----5----|-7----7---7----7---7---5---|-5---7---7---7---7---------|
E|-5---5----5---6----3----|-5----5---5----5---5---3---|-3---5---5---5---5---------|


E|------------------------|------------------------|------------------------|------------------------|
B|------------------------|------------------------|------------------------|------------------------|
G|------------------------|------------------------|------------------------|------------------------|
D|-7----7---7----7---7----|-7---7----7---8----5----|-7----7---7----7---7----|-7---7----7---8----5----|
A|-7----7---7----7---7----|-7---7----7---8----5----|-7----7---7----7---7----|-7---7----7---8----5----|
E|-5----5---5----5---5----|-5---5----5---6----3----|-5----5---5----5---5----|-5---5----5---6----3----|


E|------------------------|------------------------|---------------------------|---------------------------|
B|------------------------|------------------------|---------------------------|---------------------------|
G|------------------------|------------------------|---------------------------|---------------------------|
D|-7----7---7----7---7----|-7---7----7---8----5----|-7----7---7----7---7---5---|-5---7---7---7---7---------|
A|-7----7---7----7---7----|-7---7----7---8----5----|-7----7---7----7---7---5---|-5---7---7---7---7---------|
E|-5----5---5----5---5----|-5---5----5---6----3----|-5----5---5----5---5---3---|-3---5---5---5---5---------|


E|------------------------|------------------------|------------------------|------------------------|
B|------------------------|------------------------|------------------------|------------------------|
G|------------------------|------------------------|------------------------|------------------------|
D|-7----7---7----7---7----|-7---7----7---8----5----|-7----7---7----7---7----|-7---7----7---8----5----|
A|-7----7---7----7---7----|-7---7----7---8----5----|-7----7---7----7---7----|-7---7----7---8----5----|
E|-5----5---5----5---5----|-5---5----5---6----3----|-5----5---5----5---5----|-5---5----5---6----3----|


E|------------------------|------------------------|---------------------------|---------------------------|
B|------------------------|------------------------|---------------------------|---------------------------|
G|------------------------|------------------------|---------------------------|---------------------------|
D|-7----7---7----7---7----|-7---7----7---8----5----|-7----7---7----7---7---5---|-5---7---7---7---7---------|
A|-7----7---7----7---7----|-7---7----7---8----5----|-7----7---7----7---7---5---|-5---7---7---7---7---------|
E|-5----5---5----5---5----|-5---5----5---6----3----|-5----5---5----5---5---3---|-3---5---5---5---5---------|


E|--------|--------|--------|--------|--------|--------|--------|--------|--------|
B|--------|--------|--------|--------|--------|--------|--------|--------|--------|
G|--------|--------|--------|--------|--------|--------|--------|--------|--------|
D|--------|--------|--------|--------|--------|--------|--------|--------|--------|
A|--------|--------|--------|--------|--------|--------|--------|--------|--------|
E|--------|--------|--------|--------|--------|--------|--------|--------|--------|


E|--------|--------|--------|--------|--------|--------|--------|--------|--------|
B|--------|--------|--------|--------|--------|--------|--------|--------|--------|
G|--------|--------|--------|--------|--------|--------|--------|--------|--------|
D|--------|--------|--------|--------|--------|--------|--------|--------|--------|
A|--------|--------|--------|--------|--------|--------|--------|--------|--------|
E|--------|--------|--------|--------|--------|--------|--------|--------|--------|


E|--------|--------|------------------------|------------------------|------------------------|
B|--------|--------|------------------------|------------------------|------------------------|
G|--------|--------|------------------------|------------------------|------------------------|
D|--------|--------|-7----7---7----7---7----|-7---7----7---8----5----|-7----7---7----7---7----|
A|--------|--------|-7----7---7----7---7----|-7---7----7---8----5----|-7----7---7----7---7----|
E|--------|--------|-5----5---5----5---5----|-5---5----5---6----3----|-5----5---5----5---5----|


E|------------------------|------------------------|------------------------|---------------------------|
B|------------------------|------------------------|------------------------|---------------------------|
G|------------------------|------------------------|------------------------|---------------------------|
D|-7---7----7---8----5----|-7----7---7----7---7----|-7---7----7---8----5----|-7----7---7----7---7---5---|
A|-7---7----7---8----5----|-7----7---7----7---7----|-7---7----7---8----5----|-7----7---7----7---7---5---|
E|-5---5----5---6----3----|-5----5---5----5---5----|-5---5----5---6----3----|-5----5---5----5---5---3---|


E|---------------------------|------------------------|------------------------|------------------------|
B|---------------------------|------------------------|------------------------|------------------------|
G|---------------------------|------------------------|------------------------|------------------------|
D|-5---7---7---7---7---------|-7----7---7----7---7----|-7---7----7---8----5----|-7----7---7----7---7----|
A|-5---7---7---7---7---------|-7----7---7----7---7----|-7---7----7---8----5----|-7----7---7----7---7----|
E|-3---5---5---5---5---------|-5----5---5----5---5----|-5---5----5---6----3----|-5----5---5----5---5----|


E|------------------------|------------------------|------------------------|---------------------------|
B|------------------------|------------------------|------------------------|---------------------------|
G|------------------------|------------------------|------------------------|---------------------------|
D|-7---7----7---8----5----|-7----7---7----7---7----|-7---7----7---8----5----|-7----7---7----7---7---5---|
A|-7---7----7---8----5----|-7----7---7----7---7----|-7---7----7---8----5----|-7----7---7----7---7---5---|
E|-5---5----5---6----3----|-5----5---5----5---5----|-5---5----5---6----3----|-5----5---5----5---5---3---|


E|---------------------------|------------------------|------------------------|------------------------|
B|---------------------------|------------------------|------------------------|------------------------|
G|---------------------------|------------------------|------------------------|------------------------|
D|-5---7---7---7---7---------|-7----7---7----7---7----|-7---7----7---8----5----|-7----7---7----7---7----|
A|-5---7---7---7---7---------|-7----7---7----7---7----|-7---7----7---8----5----|-7----7---7----7---7----|
E|-3---5---5---5---5---------|-5----5---5----5---5----|-5---5----5---6----3----|-5----5---5----5---5----|


E|------------------------|------------------------|------------------------|---------------------------|
B|------------------------|------------------------|------------------------|---------------------------|
G|------------------------|------------------------|------------------------|---------------------------|
D|-7---7----7---8----5----|-7----7---7----7---7----|-7---7----7---8----5----|-7----7---7----7---7---5---|
A|-7---7----7---8----5----|-7----7---7----7---7----|-7---7----7---8----5----|-7----7---7----7---7---5---|
E|-5---5----5---6----3----|-5----5---5----5---5----|-5---5----5---6----3----|-5----5---5----5---5---3---|


E|---------------------------|------------------------|------------------------|------------------------|
B|---------------------------|------------------------|------------------------|------------------------|
G|---------------------------|------------------------|------------------------|------------------------|
D|-5---7---7---7---7---------|-7----7---7----7---7----|-7---7----7---8----5----|-7----7---7----7---7----|
A|-5---7---7---7---7---------|-7----7---7----7---7----|-7---7----7---8----5----|-7----7---7----7---7----|
E|-3---5---5---5---5---------|-5----5---5----5---5----|-5---5----5---6----3----|-5----5---5----5---5----|


E|------------------------|------------------------|------------------------|---------------------------|
B|------------------------|------------------------|------------------------|---------------------------|
G|------------------------|------------------------|------------------------|---------------------------|
D|-7---7----7---8----5----|-7----7---7----7---7----|-7---7----7---8----5----|-7----7---7----7---7---5---|
A|-7---7----7---8----5----|-7----7---7----7---7----|-7---7----7---8----5----|-7----7---7----7---7---5---|
E|-5---5----5---6----3----|-5----5---5----5---5----|-5---5----5---6----3----|-5----5---5----5---5---3---|


E|---------------------------|--------|--------|--------|--------|--------|--------|
B|---------------------------|--------|--------|--------|--------|--------|--------|
G|---------------------------|--------|--------|--------|--------|--------|--------|
D|-5---7---7---7---7---------|--------|--------|--------|--------|--------|--------|
A|-5---7---7---7---7---------|--------|--------|--------|--------|--------|--------|
E|-3---5---5---5---5---------|--------|--------|--------|--------|--------|--------|


E|--------|--------|--------|--------|--------|--------|--------|--------|--------|
B|--------|--------|--------|--------|--------|--------|--------|--------|--------|
G|--------|--------|--------|--------|--------|--------|--------|--------|--------|
D|--------|--------|--------|--------|--------|--------|--------|--------|--------|
A|--------|--------|--------|--------|--------|--------|--------|--------|--------|
E|--------|--------|--------|--------|--------|--------|--------|--------|--------|


E|--------|--------|--------|--------|--------|--------|--------|--------|--------|
B|--------|--------|--------|--------|--------|--------|--------|--------|--------|
G|--------|--------|--------|--------|--------|--------|--------|--------|--------|
D|--------|--------|--------|--------|--------|--------|--------|--------|--------|
A|--------|--------|--------|--------|--------|--------|--------|--------|--------|
E|--------|--------|--------|--------|--------|--------|--------|--------|--------|


E|--------|--------|--------|--------|--------|--------|--------|--------|--------|
B|--------|--------|--------|--------|--------|--------|--------|--------|--------|
G|--------|--------|--------|--------|--------|--------|--------|--------|--------|
D|--------|--------|--------|--------|--------|--------|--------|--------|--------|
A|--------|--------|--------|--------|--------|--------|--------|--------|--------|
E|--------|--------|--------|--------|--------|--------|--------|--------|--------|


E|--------|--------|--------|--------|--------|--------|--------|--------|--------|
B|--------|--------|--------|--------|--------|--------|--------|--------|--------|
G|--------|--------|--------|--------|--------|--------|--------|--------|--------|
D|--------|--------|--------|--------|--------|--------|--------|--------|--------|
A|--------|--------|--------|--------|--------|--------|--------|--------|--------|
E|--------|--------|--------|--------|--------|--------|--------|--------|--------|


E|--------|--------|--------|--------|--------|--------|--------|--------|--------|
B|--------|--------|--------|--------|--------|--------|--------|--------|--------|
G|--------|--------|--------|--------|--------|--------|--------|--------|--------|
D|--------|--------|--------|--------|--------|--------|--------|--------|--------|
A|--------|--------|--------|--------|--------|--------|--------|--------|--------|
E|--------|--------|--------|--------|--------|--------|--------|--------|--------|


E|--------|--------|--------|--------|--------|--------|--------|--------|--------|
B|--------|--------|--------|--------|--------|--------|--------|--------|--------|
G|--------|--------|--------|--------|--------|--------|--------|--------|--------|
D|--------|--------|--------|--------|--------|--------|--------|--------|--------|
A|--------|--------|--------|--------|--------|--------|--------|--------|--------|
E|--------|--------|--------|--------|--------|--------|--------|--------|--------|


E|--------|--------|--------|--------|--------|--------|--------|--------|--------|
B|--------|--------|--------|--------|--------|--------|--------|--------|--------|
G|--------|--------|--------|--------|--------|--------|--------|--------|--------|
D|--------|--------|--------|--------|--------|--------|--------|--------|--------|
A|--------|--------|--------|--------|--------|--------|--------|--------|--------|
E|--------|--------|--------|--------|--------|--------|--------|--------|--------|


E|--------|--------|--------|--------|--------|--------|--------|--------|--------|
B|--------|--------|--------|--------|--------|--------|--------|--------|--------|
G|--------|--------|--------|--------|--------|--------|--------|--------|--------|
D|--------|--------|--------|--------|--------|--------|--------|--------|--------|
A|--------|--------|--------|--------|--------|--------|--------|--------|--------|
E|--------|--------|--------|--------|--------|--------|--------|--------|--------|


E|--------|--------|--------|--------|--------|--------|--------|
B|--------|--------|--------|--------|--------|--------|--------|
G|--------|--------|--------|--------|--------|--------|--------|
D|--------|--------|--------|--------|--------|--------|--------|
A|--------|--------|--------|--------|--------|--------|--------|
E|--------|--------|--------|--------|--------|--------|--------|





Track 6: Synth

G|--------|--------|--------|-------------|--------|--------|--------|--------|--------|
D|--------|--------|--------|-------------|--------|--------|--------|--------|--------|
A|--------|--------|--------|-19---19-----|--------|--------|--------|--------|--------|
E|--------|--------|--------|-------------|--------|--------|--------|--------|--------|


G|--------|--------|--------|--------|--------|--------|--------|--------|--------|
D|--------|--------|--------|--------|--------|--------|--------|--------|--------|
A|--------|--------|--------|--------|--------|--------|--------|--------|--------|
E|--------|--------|--------|--------|--------|--------|--------|--------|--------|


G|--------|--------|--------|--------|--------|--------|--------|--------|--------|
D|--------|--------|--------|--------|--------|--------|--------|--------|--------|
A|--------|--------|--------|--------|--------|--------|--------|--------|--------|
E|--------|--------|--------|--------|--------|--------|--------|--------|--------|


G|--------|--------|--------|--------|--------|--------|--------|--------|--------|
D|--------|--------|--------|--------|--------|--------|--------|--------|--------|
A|--------|--------|--------|--------|--------|--------|--------|--------|--------|
E|--------|--------|--------|--------|--------|--------|--------|--------|--------|


G|--------|--------|--------|--------|--------|--------|--------|--------|--------|
D|--------|--------|--------|--------|--------|--------|--------|--------|--------|
A|--------|--------|--------|--------|--------|--------|--------|--------|--------|
E|--------|--------|--------|--------|--------|--------|--------|--------|--------|


G|--------|--------|--------|--------|--------|--------|--------|--------|--------|
D|--------|--------|--------|--------|--------|--------|--------|--------|--------|
A|--------|--------|--------|--------|--------|--------|--------|--------|--------|
E|--------|--------|--------|--------|--------|--------|--------|--------|--------|


G|--------|--------|--------|--------|--------|--------|--------|--------|--------|
D|--------|--------|--------|--------|--------|--------|--------|--------|--------|
A|--------|--------|--------|--------|--------|--------|--------|--------|--------|
E|--------|--------|--------|--------|--------|--------|--------|--------|--------|


G|--------|--------|--------|--------|--------|--------|--------|--------|--------|
D|--------|--------|--------|--------|--------|--------|--------|--------|--------|
A|--------|--------|--------|--------|--------|--------|--------|--------|--------|
E|--------|--------|--------|--------|--------|--------|--------|--------|--------|


G|--------|--------|--------|--------|--------|--------|--------|--------|--------|
D|--------|--------|--------|--------|--------|--------|--------|--------|--------|
A|--------|--------|--------|--------|--------|--------|--------|--------|--------|
E|--------|--------|--------|--------|--------|--------|--------|--------|--------|


G|--------|--------|--------|--------|--------|--------|--------|--------|--------|
D|--------|--------|--------|--------|--------|--------|--------|--------|--------|
A|--------|--------|--------|--------|--------|--------|--------|--------|--------|
E|--------|--------|--------|--------|--------|--------|--------|--------|--------|


G|--------|--------|--------|--------|--------|--------|--------|--------|--------|
D|--------|--------|--------|--------|--------|--------|--------|--------|--------|
A|--------|--------|--------|--------|--------|--------|--------|--------|--------|
E|--------|--------|--------|--------|--------|--------|--------|--------|--------|


G|--------|--------|--------|--------|--------|--------|--------|--------|--------|
D|--------|--------|--------|--------|--------|--------|--------|--------|--------|
A|--------|--------|--------|--------|--------|--------|--------|--------|--------|
E|--------|--------|--------|--------|--------|--------|--------|--------|--------|


G|--------|--------|--------|--------|--------|--------|--------|--------|--------|
D|--------|--------|--------|--------|--------|--------|--------|--------|--------|
A|--------|--------|--------|--------|--------|--------|--------|--------|--------|
E|--------|--------|--------|--------|--------|--------|--------|--------|--------|


G|--------|--------|--------|--------|--------|--------|--------|--------|--------|
D|--------|--------|--------|--------|--------|--------|--------|--------|--------|
A|--------|--------|--------|--------|--------|--------|--------|--------|--------|
E|--------|--------|--------|--------|--------|--------|--------|--------|--------|


G|--------|--------|--------|--------|--------|--------|--------|--------|--------|
D|--------|--------|--------|--------|--------|--------|--------|--------|--------|
A|--------|--------|--------|--------|--------|--------|--------|--------|--------|
E|--------|--------|--------|--------|--------|--------|--------|--------|--------|


G|--------|--------|--------|--------|--------|--------|--------|--------|--------|
D|--------|--------|--------|--------|--------|--------|--------|--------|--------|
A|--------|--------|--------|--------|--------|--------|--------|--------|--------|
E|--------|--------|--------|--------|--------|--------|--------|--------|--------|


G|--------|--------|--------|--------|--------|--------|--------|--------|--------|
D|--------|--------|--------|--------|--------|--------|--------|--------|--------|
A|--------|--------|--------|--------|--------|--------|--------|--------|--------|
E|--------|--------|--------|--------|--------|--------|--------|--------|--------|


G|--------|--------|--------|--------|--------|--------|--------|--------|--------|
D|--------|--------|--------|--------|--------|--------|--------|--------|--------|
A|--------|--------|--------|--------|--------|--------|--------|--------|--------|
E|--------|--------|--------|--------|--------|--------|--------|--------|--------|


G|--------|--------|--------|--------|--------|--------|--------|--------|--------|
D|--------|--------|--------|-10-----|--------|--------|--------|--------|--------|
A|--------|--------|-12-----|--------|-10-----|-8------|--------|--------|--------|
E|--------|--------|--------|--------|--------|--------|--------|--------|--------|


G|--------|--------|--------|--------|--------|--------|--------|--------|--------|
D|--------|--------|--------|--------|--------|--------|--------|--------|--------|
A|--------|--------|--------|--------|--------|--------|--------|--------|--------|
E|--------|--------|--------|--------|--------|--------|--------|--------|--------|


G|--------|--------|--------|--------|--------|--------|--------|--------|--------|
D|--------|--------|--------|--------|--------|--------|--------|--------|--------|
A|--------|--------|--------|--------|--------|--------|--------|--------|--------|
E|--------|--------|--------|--------|--------|--------|--------|--------|--------|


G|--------|--------|--------|--------|--------|--------|--------|--------|--------|
D|--------|--------|--------|--------|--------|--------|--------|--------|--------|
A|--------|--------|--------|--------|--------|--------|--------|--------|--------|
E|--------|--------|--------|--------|--------|--------|--------|--------|--------|


G|--------|--------|--------|
D|--------|--------|--------|
A|--------|--------|--------|
E|--------|--------|--------|





Track 7: Gong

G|--------|--------|--------|--------|--------|--------|--------|-26-----|--------|
D|--------|--------|--------|--------|--------|--------|--------|-26-----|--------|
A|--------|--------|--------|--------|--------|--------|--------|-24-----|--------|
E|--------|--------|--------|--------|--------|--------|--------|--------|--------|


G|--------|--------|--------|--------|--------|--------|--------|--------|--------|
D|--------|--------|--------|--------|--------|--------|--------|--------|--------|
A|--------|--------|--------|--------|--------|--------|--------|--------|--------|
E|--------|--------|--------|--------|--------|--------|--------|--------|--------|


G|--------|--------|--------|--------|--------|--------|--------|--------|--------|
D|--------|--------|--------|--------|--------|--------|--------|--------|--------|
A|--------|--------|--------|--------|--------|--------|--------|--------|--------|
E|--------|--------|--------|--------|--------|--------|--------|--------|--------|


G|--------|--------|--------|--------|--------|--------|--------|--------|--------|
D|--------|--------|--------|--------|--------|--------|--------|--------|--------|
A|--------|--------|--------|--------|--------|--------|--------|--------|--------|
E|--------|--------|--------|--------|--------|--------|--------|--------|--------|


G|--------|--------|--------|--------|--------|--------|--------|--------|--------|
D|--------|--------|--------|--------|--------|--------|--------|--------|--------|
A|--------|--------|--------|--------|--------|--------|--------|--------|--------|
E|--------|--------|--------|--------|--------|--------|--------|--------|--------|


G|--------|--------|--------|--------|--------|--------|--------|--------|--------|
D|--------|--------|--------|--------|--------|--------|--------|--------|--------|
A|--------|--------|--------|--------|--------|--------|--------|--------|--------|
E|--------|--------|--------|--------|--------|--------|--------|--------|--------|


G|--------|--------|--------|--------|--------|--------|--------|--------|--------|
D|--------|--------|--------|--------|--------|--------|--------|--------|--------|
A|--------|--------|--------|--------|--------|--------|--------|--------|--------|
E|--------|--------|--------|--------|--------|--------|--------|--------|--------|


G|--------|--------|--------|--------|--------|--------|--------|--------|--------|
D|--------|--------|--------|--------|--------|--------|--------|--------|--------|
A|--------|--------|--------|--------|--------|--------|--------|--------|--------|
E|--------|--------|--------|--------|--------|--------|--------|--------|--------|


G|--------|--------|--------|--------|--------|--------|--------|--------|--------|
D|--------|--------|--------|--------|--------|--------|--------|--------|--------|
A|--------|--------|--------|--------|--------|--------|--------|--------|--------|
E|--------|--------|--------|--------|--------|--------|--------|--------|--------|


G|--------|--------|--------|--------|--------|--------|--------|--------|--------|
D|--------|--------|--------|--------|--------|--------|--------|--------|--------|
A|--------|--------|--------|--------|--------|--------|--------|--------|--------|
E|--------|--------|--------|--------|--------|--------|--------|--------|--------|


G|--------|--------|--------|--------|--------|--------|--------|--------|--------|
D|--------|--------|--------|--------|--------|--------|--------|--------|--------|
A|--------|--------|--------|--------|--------|--------|--------|--------|--------|
E|--------|--------|--------|--------|--------|--------|--------|--------|--------|


G|--------|--------|--------|--------|--------|--------|--------|--------|--------|
D|--------|--------|--------|--------|--------|--------|--------|--------|--------|
A|--------|--------|--------|--------|--------|--------|--------|--------|--------|
E|--------|--------|--------|--------|--------|--------|--------|--------|--------|


G|--------|--------|--------|--------|--------|--------|--------|--------|--------|
D|--------|--------|--------|--------|--------|--------|--------|--------|--------|
A|--------|--------|--------|--------|--------|--------|--------|--------|--------|
E|--------|--------|--------|--------|--------|--------|--------|--------|--------|


G|--------|--------|--------|--------|--------|--------|--------|--------|--------|
D|--------|--------|--------|--------|--------|--------|--------|--------|--------|
A|--------|--------|--------|--------|--------|--------|--------|--------|--------|
E|--------|--------|--------|--------|--------|--------|--------|--------|--------|


G|--------|--------|--------|--------|--------|--------|--------|--------|--------|
D|--------|--------|--------|--------|--------|--------|--------|--------|--------|
A|--------|--------|--------|--------|--------|--------|--------|--------|--------|
E|--------|--------|--------|--------|--------|--------|--------|--------|--------|


G|--------|--------|--------|--------|--------|--------|--------|--------|--------|
D|--------|--------|--------|--------|--------|--------|--------|--------|--------|
A|--------|--------|--------|--------|--------|--------|--------|--------|--------|
E|--------|--------|--------|--------|--------|--------|--------|--------|--------|


G|--------|--------|--------|--------|--------|--------|--------|--------|--------|
D|--------|--------|--------|--------|--------|--------|--------|--------|--------|
A|--------|--------|--------|--------|--------|--------|--------|--------|--------|
E|--------|--------|--------|--------|--------|--------|--------|--------|--------|


G|--------|--------|--------|--------|--------|--------|--------|--------|--------|
D|--------|--------|--------|--------|--------|--------|--------|--------|--------|
A|--------|--------|--------|--------|--------|--------|--------|--------|--------|
E|--------|--------|--------|--------|--------|--------|--------|--------|--------|


G|--------|--------|--------|--------|--------|--------|--------|--------|--------|
D|--------|--------|--------|--------|--------|--------|--------|--------|--------|
A|--------|--------|--------|--------|--------|--------|--------|--------|--------|
E|--------|--------|--------|--------|--------|--------|--------|--------|--------|


G|--------|--------|--------|--------|--------|--------|--------|--------|--------|
D|--------|--------|--------|--------|--------|--------|--------|--------|--------|
A|--------|--------|--------|--------|--------|--------|--------|--------|--------|
E|--------|--------|--------|--------|--------|--------|--------|--------|--------|


G|--------|--------|--------|--------|--------|--------|--------|--------|--------|
D|--------|--------|--------|--------|--------|--------|--------|--------|--------|
A|--------|--------|--------|--------|--------|--------|--------|--------|--------|
E|--------|--------|--------|--------|--------|--------|--------|--------|--------|


G|--------|--------|--------|--------|--------|--------|--------|--------|--------|
D|--------|--------|--------|--------|--------|--------|--------|--------|--------|
A|--------|--------|--------|--------|--------|--------|--------|--------|--------|
E|--------|--------|--------|--------|--------|--------|--------|--------|--------|


G|--------|--------|--------|
D|--------|--------|--------|
A|--------|--------|--------|
E|--------|--------|--------|





Track 8: Bass

G|--------|--------|--------|--------|--------|--------|--------|--------|-------------|
D|--------|--------|--------|--------|--------|--------|--------|--------|-------------|
A|--------|--------|--------|--------|--------|--------|--------|--------|-------------|
E|--------|--------|--------|--------|--------|--------|--------|--------|-5-----------|


G|--------|-------------|--------|-------------|--------|-------------|--------|------------------------|
D|--------|-------------|--------|-------------|--------|-------------|--------|----------7--------7----|
A|--------|-------------|--------|-------------|--------|-------------|--------|------------------------|
E|--------|-5-----------|--------|-5-----------|--------|-5-----------|--------|-5----5--------5--------|


G|------------------------|------------------------|------------------------|------------------------|
D|------------------------|----------7--------7----|------------------------|----------7--------7----|
A|-------------------3----|------------------------|------------------------|------------------------|
E|-5---5----5---3---------|-5----5--------5--------|-5---5----5---3----0----|-5----5--------5--------|


G|------------------------|---------------------------|------------------------------|
D|------------------------|----------7----7---7---7---|-7---7---7---7----------------|
A|-------------------3----|---------------------------|------------------------------|
E|-5---5----5---3---------|-5----5--------------------|-----------------5----5---5---|


G|------------------------|------------------------|------------------------|------------------------|
D|----------7--------7----|------------------------|----------7--------7----|------------------------|
A|------------------------|-------------------3----|------------------------|------------------------|
E|-5----5--------5--------|-5---5----5---3---------|-5----5--------5--------|-5---5----5---3----0----|


G|------------------------|------------------------|---------------------------|------------------------------|
D|----------7--------7----|------------------------|----------7----7---7---7---|-7---7---7---7----------------|
A|------------------------|-------------------3----|---------------------------|------------------------------|
E|-5----5--------5--------|-5---5----5---3---------|-5----5--------------------|-----------------5----5---5---|


G|------------------------|------------------------|------------------------|------------------------|
D|----------7--------7----|------------------------|----------7--------7----|------------------------|
A|------------------------|------------------------|------------------------|------------------------|
E|-5----5--------5--------|-5---5----5---6----3----|-5----5--------5--------|-5---5----5---6----3----|


G|------------------------|------------------------|---------------------------|---------------------------|
D|----------7--------7----|------------------------|----------7----------------|---------7---7---7---------|
A|------------------------|------------------------|---------------------------|---------------------------|
E|-5----5--------5--------|-5---5----5---6----3----|-5----5--------5---5---3---|-3---5---------------------|


G|------------------------|------------------------|------------------------|------------------------|
D|----------7--------7----|------------------------|----------7--------7----|------------------------|
A|------------------------|------------------------|------------------------|------------------------|
E|-5----5--------5--------|-5---5----5---6----3----|-5----5--------5--------|-5---5----5---6----3----|


G|------------------------|------------------------|---------------------------|---------------------------|
D|----------7--------7----|------------------------|----------7----------------|---------7---7---7---------|
A|------------------------|------------------------|---------------------------|---------------------------|
E|-5----5--------5--------|-5---5----5---6----3----|-5----5--------5---5---3---|-3---5---------------------|


G|------------------------|------------------------|------------------------|------------------------|
D|----------7--------7----|------------------------|----------7--------7----|------------------------|
A|------------------------|------------------------|------------------------|------------------------|
E|-5----5--------5--------|-5---5----5---6----3----|-5----5--------5--------|-5---5----5---6----3----|


G|------------------------|------------------------|---------------------------|---------------------------|
D|----------7--------7----|------------------------|----------7----------------|---------7---7---7---------|
A|------------------------|------------------------|---------------------------|---------------------------|
E|-5----5--------5--------|-5---5----5---6----3----|-5----5--------5---5---3---|-3---5---------------------|


G|------------------------|------------------------|------------------------|------------------------|
D|----------7--------7----|------------------------|----------7--------7----|------------------------|
A|------------------------|------------------------|------------------------|------------------------|
E|-5----5--------5--------|-5---5----5---6----3----|-5----5--------5--------|-5---5----5---6----3----|


G|------------------------|------------------------|---------------------------|---------------------------|
D|----------7--------7----|------------------------|----------7----------------|---------7---7---7---------|
A|------------------------|------------------------|---------------------------|---------------------------|
E|-5----5--------5--------|-5---5----5---6----3----|-5----5--------5---5---3---|-3---5---------------------|


G|------------------------------|------------------------------|------------------------------|
D|----------------------2-------|------2-------5-------3-------|----------------------12--10--|
A|------3-------5-----------5---|-3--------3-------3-----------|------2-------3---10----------|
E|-5--------5-------5-----------|--------------------------0---|-3--------3-------------------|


G|------------------------------|------------------------|------------------------|
D|------------------------------|----------7--------7----|------------------------|
A|------3-----------------------|------------------------|-------------------3----|
E|-1--------1---1---1---1---1---|-5----5--------5--------|-5---5----5---3---------|


G|------------------------|------------------------|------------------------|------------------------|
D|----------7--------7----|------------------------|----------7--------7----|------------------------|
A|------------------------|------------------------|------------------------|-------------------3----|
E|-5----5--------5--------|-5---5----5---3----0----|-5----5--------5--------|-5---5----5---3---------|


G|---------------------------|------------------------------|------------------------|
D|----------7----7---7---7---|-7---7---7---7----------------|----------7--------7----|
A|---------------------------|------------------------------|------------------------|
E|-5----5--------------------|-----------------5----5---5---|-5----5--------5--------|


G|------------------------|------------------------|------------------------|------------------------|
D|------------------------|----------7--------7----|------------------------|----------7--------7----|
A|-------------------3----|------------------------|------------------------|------------------------|
E|-5---5----5---3---------|-5----5--------5--------|-5---5----5---3----0----|-5----5--------5--------|


G|------------------------|---------------------------|------------------------------|
D|------------------------|----------7----7---7---7---|-7---7---7---7----------------|
A|-------------------3----|---------------------------|------------------------------|
E|-5---5----5---3---------|-5----5--------------------|-----------------5----5---5---|


G|------------------------|------------------------|------------------------|------------------------|
D|----------7--------7----|------------------------|----------7--------7----|------------------------|
A|------------------------|------------------------|------------------------|------------------------|
E|-5----5--------5--------|-5---5----5---6----3----|-5----5--------5--------|-5---5----5---6----3----|


G|------------------------|------------------------|---------------------------|---------------------------|
D|----------7--------7----|------------------------|----------7----------------|---------7---7---7---------|
A|------------------------|------------------------|---------------------------|---------------------------|
E|-5----5--------5--------|-5---5----5---6----3----|-5----5--------5---5---3---|-3---5---------------------|


G|------------------------|------------------------|------------------------|------------------------|
D|----------7--------7----|------------------------|----------7--------7----|------------------------|
A|------------------------|------------------------|------------------------|------------------------|
E|-5----5--------5--------|-5---5----5---6----3----|-5----5--------5--------|-5---5----5---6----3----|


G|------------------------|------------------------|---------------------------|---------------------------|
D|----------7--------7----|------------------------|----------7----------------|---------7---7---7---------|
A|------------------------|------------------------|---------------------------|---------------------------|
E|-5----5--------5--------|-5---5----5---6----3----|-5----5--------5---5---3---|-3---5---------------------|


G|------------------------|------------------------|------------------------|------------------------|
D|----------7--------7----|------------------------|----------7--------7----|------------------------|
A|------------------------|------------------------|------------------------|------------------------|
E|-5----5--------5--------|-5---5----5---6----3----|-5----5--------5--------|-5---5----5---6----3----|


G|------------------------|------------------------|---------------------------|---------------------------|
D|----------7--------7----|------------------------|----------7----------------|---------7---7---7---------|
A|------------------------|------------------------|---------------------------|---------------------------|
E|-5----5--------5--------|-5---5----5---6----3----|-5----5--------5---5---3---|-3---5---------------------|


G|------------------------|------------------------|------------------------|------------------------|
D|----------7--------7----|------------------------|----------7--------7----|------------------------|
A|------------------------|------------------------|------------------------|------------------------|
E|-5----5--------5--------|-5---5----5---6----3----|-5----5--------5--------|-5---5----5---6----3----|


G|------------------------|------------------------|---------------------------|---------------------------|
D|----------7--------7----|------------------------|----------7----------------|---------7---7---7---------|
A|------------------------|------------------------|---------------------------|---------------------------|
E|-5----5--------5--------|-5---5----5---6----3----|-5----5--------5---5---3---|-3---5---------------------|


G|------------------------------|------------------------------|------------------------------|
D|----------------------2-------|------2-------5-------3-------|----------------------12--10--|
A|------3-------5-----------5---|-3--------3-------3-----------|------2-------3---10----------|
E|-5--------5-------5-----------|--------------------------0---|-3--------3-------------------|


G|------------------------------|------------------------|------------------------|
D|------------------------------|----------7--------7----|------------------------|
A|------3-----------------------|------------------------|-------------------3----|
E|-1--------1---1---1---1---1---|-5----5--------5--------|-5---5----5---3---------|


G|------------------------|------------------------|------------------------|------------------------|
D|----------7--------7----|------------------------|----------7--------7----|------------------------|
A|------------------------|------------------------|------------------------|-------------------3----|
E|-5----5--------5--------|-5---5----5---3----0----|-5----5--------5--------|-5---5----5---3---------|


G|---------------------------|------------------------------|------------------------|
D|----------7----7---7---7---|-7---7---7---7----------------|----------7--------7----|
A|---------------------------|------------------------------|------------------------|
E|-5----5--------------------|-----------------5----5---5---|-5----5--------5--------|


G|------------------------|------------------------|------------------------|------------------------|
D|------------------------|----------7--------7----|------------------------|----------7--------7----|
A|-------------------3----|------------------------|------------------------|------------------------|
E|-5---5----5---3---------|-5----5--------5--------|-5---5----5---3----0----|-5----5--------5--------|


G|------------------------|---------------------------|------------------------------|
D|------------------------|----------7----7---7---7---|-7---7---7---7----------------|
A|-------------------3----|---------------------------|------------------------------|
E|-5---5----5---3---------|-5----5--------------------|-----------------5----5---5---|


G|---------------------------------|---------------------------------|---------------------------------|
D|---------------------------------|---------------------------------|---------------------------------|
A|---------------------------------|-----------------12--12--12--12--|---------------------------------|
E|-5---5-------5---5-------5---5---|-----5---5-----------------------|-5---5-------5---5-------5---5---|


G|---------------------------------|---------------------------------|---------------------------------|
D|---------------------------------|---------------------------------|---------------------------------|
A|-----------------13--13--13--13--|---------------------------------|-----------------12--12--12--12--|
E|-----5---5-----------------------|-5---5-------5---5-------5---5---|-----5---5-----------------------|


G|---------------------------------|---------------------------------|---------------------------------|
D|---------------------------------|---------------------------------|---------------------------------|
A|---------------------------------|-----------------13--13--13--13--|---------------------------------|
E|-5---5-------5---5-------5---5---|-----5---5-----------------------|-5---5-------5---5-------5---5---|


G|---------------------------------|---------------------------------|---------------------------------|
D|---------------------------------|---------------------------------|---------------------------------|
A|-----------------12--12--12--12--|---------------------------------|-----------------13--13--13--13--|
E|-----5---5-----------------------|-5---5-------5---5-------5---5---|-----5---5-----------------------|


G|---------------------------------|---------------------------------|---------------------------------|
D|---------------------------------|---------------------------------|---------------------------------|
A|---------------------------------|-----------------12--12--12--12--|---------------------------------|
E|-5---5-------5---5-------5---5---|-----5---5-----------------------|-5---5-------5---5-------5---5---|


G|---------------------------------|------------------------------|------------------------------|
D|---------------------------------|----------------------2-------|------2-------5-------3-------|
A|-----------------13--13--13--13--|------3-------5-----------5---|-3--------3-------3-----------|
E|-----5---5-----------------------|-5--------5-------5-----------|--------------------------0---|


G|------------------------------|------------------------------|------------------------------|
D|----------------------12--10--|------------------------------|----------------------2-------|
A|------2-------3---10----------|------3-----------------------|------3-------5-----------5---|
E|-3--------3-------------------|-1--------1---1---1---1---1---|-5--------5-------5-----------|


G|------------------------------|------------------------------|------------------------------|
D|------2-------5-------3-------|----------------------12--10--|------------------------------|
A|-3--------3-------3-----------|------2-------3---10----------|------3-----------------------|
E|--------------------------0---|-3--------3-------------------|-1--------1---1---1---1---1---|


G|--------|--------|--------|--------|--------|--------|--------|--------|------------------------|
D|--------|--------|--------|--------|--------|--------|--------|--------|----------7--------7----|
A|--------|--------|--------|--------|--------|--------|--------|--------|------------------------|
E|--------|--------|--------|--------|--------|--------|--------|--------|-5----5--------5--------|


G|------------------------|------------------------|------------------------|------------------------|
D|------------------------|----------7--------7----|------------------------|----------7--------7----|
A|-------------------3----|------------------------|------------------------|------------------------|
E|-5---5----5---3---------|-5----5--------5--------|-5---5----5---3----0----|-5----5--------5--------|


G|------------------------|---------------------------|------------------------------|
D|------------------------|----------7----7---7---7---|-7---7---7---7----------------|
A|-------------------3----|---------------------------|------------------------------|
E|-5---5----5---3---------|-5----5--------------------|-----------------5----5---5---|


G|------------------------|------------------------|------------------------|------------------------|
D|----------7--------7----|------------------------|----------7--------7----|------------------------|
A|------------------------|-------------------3----|------------------------|------------------------|
E|-5----5--------5--------|-5---5----5---3---------|-5----5--------5--------|-5---5----5---3----0----|


G|------------------------|------------------------|---------------------------|------------------------------|
D|----------7--------7----|------------------------|----------7----7---7---7---|-7---7---7---7----------------|
A|------------------------|-------------------3----|---------------------------|------------------------------|
E|-5----5--------5--------|-5---5----5---3---------|-5----5--------------------|-----------------5----5---5---|


G|---------------------------------|---------------------------------|---------------------------------|
D|---------------------------------|---------------------------------|---------------------------------|
A|---------------------------------|-----------------12--12--12--12--|---------------------------------|
E|-5---5-------5---5-------5---5---|-----5---5-----------------------|-5---5-------5---5-------5---5---|


G|---------------------------------|---------------------------------|---------------------------------|
D|---------------------------------|---------------------------------|---------------------------------|
A|-----------------13--13--13--13--|---------------------------------|-----------------12--12--12--12--|
E|-----5---5-----------------------|-5---5-------5---5-------5---5---|-----5---5-----------------------|


G|---------------------------------|---------------------------------|------------------------|
D|---------------------------------|---------------------------------|----------7--------7----|
A|---------------------------------|-----------------13--13--13--13--|------------------------|
E|-5---5-------5---5-------5---5---|-----5---5-----------------------|-5----5--------5--------|


G|------------------------|------------------------|------------------------|------------------------|
D|------------------------|----------7--------7----|------------------------|----------7--------7----|
A|-------------------3----|------------------------|------------------------|------------------------|
E|-5---5----5---3---------|-5----5--------5--------|-5---5----5---3----0----|-5----5--------5--------|


G|------------------------|------------------------|------------------------|-------------|
D|------------------------|----------7--------7----|------------------------|-------------|
A|-------------------3----|------------------------|------------------------|-------------|
E|-5---5----5---3---------|-5----5--------5--------|-5---5----5---3----0----|-5-----------|