Site menu:

    

Browse: 0-9 A B C D E F G H I J K L N O P Q R S T U V W X Y Z

nephew - movieklip:



Title: Movieklip
Artist: 
Album: USA DSB
Author: Nephew


Track 1: Keyboard

E|----------------|--------|---------------------|--------|---------------------|--------|
B|----------------|--------|---------------------|--------|---------------------|--------|
G|----------------|--------|---------------------|--------|---------------------|--------|
D|----------------|--------|---------------------|--------|-----------------2---|-2------|
A|----------------|--------|-3-----2-------------|--------|-3-----2-----5-------|--------|
E|--------3---5---|-5------|-------------3---5---|-5------|---------------------|--------|


E|---------------------|--------|---------------------|----------------|----------------|
B|---------------------|--------|---------------------|----------------|----------------|
G|---------------------|--------|-----------------2---|-2----------2---|-2----------2---|
D|-5-----4---------2---|-2------|-5-----4-----5-------|--------5-------|--------5-------|
A|-------------5-------|--------|---------------------|----------------|----------------|
E|---------------------|--------|---------------------|----------------|----------------|


E|--------|----------------|----------------|----------------|--------|--------|--------|
B|--------|----------------|----------------|----------------|--------|--------|--------|
G|-2------|-2------2---4---|-4------2---4---|-4--------------|--------|--------|--------|
D|--------|----------------|----------------|----------------|--------|--------|--------|
A|--------|----------------|----------------|----------------|--------|--------|--------|
E|--------|----------------|----------------|--------3---5---|--------|--------|--------|


E|--------|--------|--------|--------|--------|--------|--------|--------|--------|
B|--------|--------|--------|--------|--------|--------|--------|--------|--------|
G|--------|--------|--------|--------|--------|--------|--------|--------|--------|
D|--------|--------|--------|--------|--------|--------|--------|--------|--------|
A|--------|--------|--------|--------|--------|--------|--------|--------|--------|
E|--------|--------|--------|--------|--------|--------|--------|--------|--------|


E|--------|----------------|--------|---------------------|--------|---------------------|
B|--------|----------------|--------|---------------------|--------|---------------------|
G|--------|----------------|--------|---------------------|--------|---------------------|
D|--------|----------------|--------|---------------------|--------|-----------------2---|
A|--------|----------------|--------|-3-----2-------------|--------|-3-----2-----5-------|
E|--------|--------3---5---|-5------|-------------3---5---|-5------|---------------------|


E|--------|---------------------|--------|---------------------|--------|--------|
B|--------|---------------------|--------|---------------------|--------|--------|
G|--------|---------------------|--------|---------------------|--------|--------|
D|-2------|-5-----4---------2---|-2------|-5-----4-------------|--------|--------|
A|--------|-------------5-------|--------|---------------------|--------|--------|
E|--------|---------------------|--------|-------------3---5---|-5------|--------|


E|--------|--------|--------|--------|--------|--------|--------|--------|--------|
B|--------|--------|--------|--------|--------|--------|--------|--------|--------|
G|--------|--------|--------|--------|--------|--------|--------|--------|--------|
D|--------|--------|--------|--------|--------|--------|--------|--------|--------|
A|--------|--------|--------|--------|--------|--------|--------|--------|--------|
E|--------|--------|--------|--------|--------|--------|--------|--------|--------|


E|--------|--------|--------|--------|--------|--------|--------|--------|--------|
B|--------|--------|--------|--------|--------|--------|--------|--------|--------|
G|--------|--------|--------|--------|--------|--------|--------|--------|--------|
D|--------|--------|--------|--------|--------|--------|--------|--------|--------|
A|--------|--------|--------|--------|--------|--------|--------|--------|--------|
E|--------|--------|--------|--------|--------|--------|--------|--------|--------|


E|--------|--------|--------|--------|--------|--------|--------|--------|--------|
B|--------|--------|--------|--------|--------|--------|--------|--------|--------|
G|--------|--------|--------|--------|--------|--------|--------|--------|--------|
D|--------|--------|--------|--------|--------|--------|--------|--------|--------|
A|--------|--------|--------|--------|--------|--------|--------|--------|--------|
E|--------|--------|--------|--------|--------|--------|--------|--------|--------|


E|--------|--------|--------|--------|--------|--------|--------|--------|----------------|
B|--------|--------|--------|--------|--------|--------|--------|--------|----------------|
G|--------|--------|--------|--------|--------|--------|--------|--------|----------------|
D|--------|--------|--------|--------|--------|--------|--------|--------|----------------|
A|--------|--------|--------|--------|--------|--------|--------|--------|----------------|
E|--------|--------|--------|--------|--------|--------|--------|--------|--------3---5---|


E|--------|---------------------|--------|---------------------|--------|---------------------|
B|--------|---------------------|--------|---------------------|--------|---------------------|
G|--------|---------------------|--------|---------------------|--------|---------------------|
D|--------|---------------------|--------|-----------------2---|-2------|-5-----4---------2---|
A|--------|-3-----2-------------|--------|-3-----2-----5-------|--------|-------------5-------|
E|-5------|-------------3---5---|-5------|---------------------|--------|---------------------|


E|--------|---------------------|--------|--------|--------|--------|--------|--------|
B|--------|---------------------|--------|--------|--------|--------|--------|--------|
G|--------|---------------------|--------|--------|--------|--------|--------|--------|
D|-2------|-5-----4-------------|--------|--------|--------|--------|--------|--------|
A|--------|---------------------|--------|--------|--------|--------|--------|--------|
E|--------|-------------3---5---|-5------|-5------|-5------|-5------|--------|--------|


E|--------|--------|--------|--------|--------|--------|--------|--------|--------|
B|--------|--------|--------|--------|--------|--------|--------|--------|--------|
G|--------|--------|--------|--------|--------|--------|--------|--------|--------|
D|--------|--------|--------|--------|--------|--------|--------|--------|--------|
A|--------|--------|--------|--------|--------|--------|--------|--------|--------|
E|--------|--------|--------|--------|--------|--------|--------|--------|--------|


E|--------|--------|--------|--------|--------|--------|--------|--------|--------|
B|--------|--------|--------|--------|--------|--------|--------|--------|--------|
G|--------|--------|--------|--------|--------|--------|--------|--------|--------|
D|--------|--------|--------|--------|--------|--------|--------|--------|--------|
A|--------|--------|--------|--------|--------|--------|--------|--------|--------|
E|--------|--------|--------|--------|--------|--------|--------|--------|--------|


E|--------|--------|--------|--------|--------|--------|--------|--------|--------|
B|--------|--------|--------|--------|--------|--------|--------|--------|--------|
G|--------|--------|--------|--------|--------|--------|--------|--------|--------|
D|--------|--------|--------|--------|--------|--------|--------|--------|--------|
A|--------|--------|--------|--------|--------|--------|--------|--------|--------|
E|--------|--------|--------|--------|--------|--------|--------|--------|--------|


E|--------|--------|--------|--------|--------|--------|--------|--------|--------|
B|--------|--------|--------|--------|--------|--------|--------|--------|--------|
G|--------|--------|--------|--------|--------|--------|--------|--------|--------|
D|--------|--------|--------|--------|--------|--------|--------|--------|--------|
A|--------|--------|--------|--------|--------|--------|--------|--------|--------|
E|--------|--------|--------|--------|--------|--------|--------|--------|--------|


E|--------|--------|--------|--------|--------|--------|--------|---------------------|
B|--------|--------|--------|--------|--------|--------|--------|---------------------|
G|--------|--------|--------|--------|--------|--------|--------|---------------------|
D|--------|--------|--------|--------|--------|--------|--------|-3-----2-------------|
A|--------|--------|--------|--------|--------|--------|-5------|-------------5---3---|
E|--------|--------|--------|--------|--------|--------|--------|---------------------|


E|--------|---------------------|--------|---------------------|--------|---------------------|
B|--------|---------------------|--------|---------------------|--------|---------------------|
G|--------|---------------------|--------|---------------------|--------|---------------------|
D|--------|---------------------|--------|-3-----2-------------|--------|---------------------|
A|-3------|-5-----3-----2-------|--------|-------------5---3---|-3------|-5-----3-----2-------|
E|--------|-----------------5---|-5------|---------------------|--------|-----------------5---|


E|--------|---------------------|--------|---------------------|--------|---------------------|
B|--------|---------------------|--------|---------------------|--------|---------------------|
G|--------|---------------------|--------|---------------------|--------|---------------------|
D|--------|-3-----2-------------|--------|---------------------|--------|---------------------|
A|--------|-------------5---3---|-3------|-5-----3-----2-------|--------|-5-----3-----2-------|
E|-5------|---------------------|--------|-----------------5---|-5------|-----------------5---|


E|--------|---------------------|--------|--------|
B|--------|---------------------|--------|--------|
G|--------|---------------------|--------|--------|
D|--------|---------------------|--------|--------|
A|--------|-5-----3-----2-------|--------|--------|
E|-5------|-----------------5---|-5------|-5------|





Track 2: Keyboard 2

E|--------|--------|--------|--------|--------|--------|--------|--------|--------|
B|--------|--------|--------|--------|--------|--------|--------|--------|--------|
G|--------|--------|--------|--------|--------|--------|--------|--------|--------|
D|--------|--------|--------|--------|--------|--------|--------|--------|--------|
A|--------|--------|--------|--------|--------|--------|--------|--------|--------|
E|--------|--------|--------|--------|--------|--------|--------|--------|--------|


E|--------|--------|--------|--------|--------|--------|--------|--------|--------|
B|--------|--------|--------|--------|--------|--------|--------|--------|--------|
G|--------|--------|--------|--------|--------|--------|--------|--------|--------|
D|--------|--------|--------|--------|--------|--------|--------|--------|--------|
A|--------|--------|--------|--------|--------|--------|--------|--------|--------|
E|--------|--------|--------|--------|--------|--------|--------|--------|--------|


E|--------|--------|--------|--------|--------|--------|--------|--------|--------|
B|--------|--------|--------|--------|--------|--------|--------|--------|--------|
G|--------|--------|--------|--------|--------|--------|--------|--------|--------|
D|--------|--------|--------|--------|--------|--------|--------|--------|--------|
A|--------|--------|--------|--------|--------|--------|--------|--------|--------|
E|--------|--------|--------|--------|--------|--------|--------|--------|--------|


E|--------|--------|--------|--------|--------|--------|--------|--------|--------|
B|--------|--------|--------|--------|--------|--------|--------|--------|--------|
G|--------|--------|--------|--------|--------|--------|--------|--------|--------|
D|--------|--------|--------|--------|--------|--------|--------|--------|--------|
A|--------|--------|--------|--------|--------|--------|--------|--------|--------|
E|--------|--------|--------|--------|--------|--------|--------|--------|--------|


E|--------|--------|--------|--------|--------|--------|--------|--------|--------|
B|--------|--------|--------|--------|--------|--------|--------|--------|--------|
G|--------|--------|--------|--------|--------|--------|--------|--------|--------|
D|--------|--------|--------|--------|--------|--------|--------|--------|--------|
A|--------|--------|--------|--------|--------|--------|--------|--------|--------|
E|--------|--------|--------|--------|--------|--------|--------|--------|--------|


E|--------|--------|--------|--------|--------|--------|--------|--------|--------|
B|--------|--------|--------|--------|--------|--------|--------|--------|--------|
G|--------|--------|--------|--------|--------|--------|--------|--------|--------|
D|--------|--------|--------|--------|--------|--------|--------|--------|--------|
A|--------|--------|--------|--------|--------|--------|-5------|-5------|-5------|
E|--------|--------|--------|--------|--------|--------|--------|--------|--------|


E|--------|--------|--------|--------|--------|--------|--------|--------|--------|
B|--------|--------|--------|--------|--------|--------|--------|--------|--------|
G|--------|--------|--------|--------|--------|--------|--------|--------|--------|
D|--------|-3------|-3------|-5------|-5------|--------|--------|--------|--------|
A|-5------|--------|--------|--------|--------|--------|--------|--------|--------|
E|--------|--------|--------|--------|--------|--------|--------|--------|--------|


E|--------|--------|--------|--------|--------|--------|--------|--------|--------|
B|--------|--------|--------|--------|--------|--------|--------|--------|--------|
G|--------|--------|--------|--------|--------|--------|--------|--------|--------|
D|--------|--------|--------|--------|--------|--------|--------|--------|--------|
A|--------|--------|--------|--------|--------|--------|--------|--------|--------|
E|--------|--------|--------|--------|--------|--------|--------|--------|--------|


E|--------|--------|--------|--------|--------|--------|--------|--------|--------|
B|--------|--------|--------|--------|--------|--------|--------|--------|--------|
G|--------|--------|--------|--------|--------|--------|--------|--------|--------|
D|--------|--------|--------|--------|--------|--------|--------|--------|--------|
A|--------|--------|--------|--------|--------|--------|--------|--------|--------|
E|--------|--------|--------|--------|--------|--------|--------|--------|--------|


E|--------|--------|--------|--------|--------|--------|--------|--------|--------|
B|--------|--------|--------|--------|--------|--------|--------|--------|--------|
G|--------|--------|--------|--------|--------|--------|--------|--------|--------|
D|--------|--------|--------|--------|--------|--------|-2------|-2------|-2------|
A|--------|--------|--------|--------|--------|--------|--------|--------|--------|
E|--------|--------|--------|--------|--------|--------|--------|--------|--------|


E|--------|-------------|-------------|--------|--------|--------|--------|--------|
B|--------|-------------|-------------|--------|--------|--------|--------|--------|
G|--------|-------------|-------------|--------|--------|--------|--------|--------|
D|-2------|-3------2----|-------------|--------|--------|--------|--------|--------|
A|--------|-------------|-5-----------|--------|--------|--------|--------|--------|
E|--------|-------------|--------3----|-5------|-5------|-3------|-0------|--------|


E|--------|--------|--------|--------|--------|--------|--------|--------|--------|
B|--------|--------|--------|--------|--------|--------|--------|--------|--------|
G|--------|--------|--------|--------|--------|--------|--------|--------|--------|
D|--------|--------|--------|--------|--------|--------|--------|--------|--------|
A|--------|--------|--------|--------|--------|--------|--------|--------|--------|
E|--------|--------|--------|--------|--------|--------|--------|--------|--------|


E|--------|--------|--------|--------|--------|--------|--------|--------|--------|
B|--------|--------|--------|--------|--------|--------|--------|--------|--------|
G|--------|--------|--------|--------|--------|--------|--------|--------|--------|
D|--------|--------|--------|--------|--------|--------|--------|--------|--------|
A|--------|--------|--------|--------|--------|--------|--------|--------|--------|
E|--------|--------|--------|--------|--------|--------|--------|--------|--------|


E|--------|--------|--------|--------|--------|--------|--------|--------|--------|
B|--------|--------|--------|--------|--------|--------|--------|--------|--------|
G|--------|--------|--------|--------|--------|--------|--------|--------|--------|
D|--------|--------|--------|--------|--------|--------|--------|--------|--------|
A|--------|--------|--------|--------|--------|--------|--------|--------|--------|
E|--------|--------|--------|--------|--------|--------|--------|--------|--------|


E|--------|--------|--------|--------|--------|--------|--------|--------|--------|
B|--------|--------|--------|--------|--------|--------|--------|--------|--------|
G|--------|--------|--------|--------|--------|--------|--------|--------|--------|
D|--------|--------|--------|--------|--------|--------|--------|--------|--------|
A|--------|--------|--------|--------|--------|--------|--------|--------|--------|
E|--------|--------|--------|--------|--------|--------|--------|--------|--------|


E|--------|--------|--------|--------|--------|--------|--------|--------|--------|
B|--------|--------|--------|--------|--------|--------|--------|--------|--------|
G|--------|--------|--------|--------|--------|--------|--------|--------|--------|
D|--------|--------|--------|--------|--------|--------|--------|--------|--------|
A|--------|--------|--------|--------|--------|--------|--------|--------|--------|
E|--------|--------|--------|--------|--------|--------|--------|--------|--------|


E|--------|--------|--------|--------|--------|--------|
B|--------|--------|--------|--------|--------|--------|
G|--------|--------|--------|--------|--------|--------|
D|--------|--------|--------|--------|--------|--------|
A|--------|--------|--------|--------|--------|--------|
E|--------|--------|--------|--------|--------|--------|





Track 3: Guit. I

E|--------|--------|--------|--------|--------|--------|--------|--------|--------|
B|--------|--------|--------|--------|--------|--------|--------|--------|--------|
G|--------|--------|--------|--------|--------|--------|--------|--------|--------|
D|--------|--------|--------|--------|--------|--------|--------|--------|--------|
A|--------|--------|--------|--------|--------|--------|--------|--------|--------|
E|--------|--------|--------|--------|--------|--------|--------|--------|--------|


E|--------|--------|--------|--------|--------|--------|--------|--------|--------|
B|--------|--------|--------|--------|--------|--------|--------|--------|--------|
G|--------|--------|--------|--------|--------|--------|--------|--------|--------|
D|--------|--------|--------|--------|--------|--------|--------|--------|--------|
A|--------|--------|--------|--------|--------|--------|--------|--------|--------|
E|--------|--------|--------|--------|--------|--------|--------|--------|--------|


E|--------|--------|--------|--------|--------|--------|--------|--------|--------|
B|--------|--------|--------|--------|--------|--------|--------|--------|--------|
G|--------|--------|--------|--------|--------|--------|--------|--------|--------|
D|--------|--------|--------|--------|--------|--------|--------|--------|--------|
A|--------|--------|--------|--------|--------|--------|--------|--------|--------|
E|--------|--------|--------|--------|--------|--------|--------|--------|--------|


E|--------|--------|--------|--------|--------|--------|--------|--------|--------|
B|--------|--------|--------|--------|--------|--------|--------|--------|--------|
G|--------|--------|--------|--------|--------|--------|--------|--------|--------|
D|--------|--------|--------|--------|--------|--------|--------|--------|--------|
A|--------|--------|--------|--------|--------|--------|--------|--------|--------|
E|--------|--------|--------|--------|--------|--------|--------|--------|--------|


E|--------|--------|--------|--------|--------|--------|--------|--------|--------|
B|--------|--------|--------|--------|--------|--------|--------|--------|--------|
G|--------|--------|--------|--------|--------|--------|--------|--------|--------|
D|--------|--------|--------|--------|--------|--------|--------|--------|--------|
A|--------|--------|--------|--------|--------|--------|--------|--------|--------|
E|--------|--------|--------|--------|--------|--------|--------|--------|--------|


E|--------|--------|--------|--------|--------|--------|--------|--------|--------|
B|--------|--------|--------|--------|--------|--------|--------|--------|--------|
G|--------|--------|--------|--------|--------|--------|--------|--------|--------|
D|--------|--------|--------|--------|--------|--------|--------|--------|--------|
A|--------|--------|--------|--------|--------|--------|--------|--------|--------|
E|--------|--------|--------|--------|--------|--------|--------|--------|--------|


E|--------|--------|--------|--------|--------|--------|--------|--------|--------|
B|--------|--------|--------|--------|--------|--------|--------|--------|--------|
G|--------|--------|--------|--------|--------|--------|--------|--------|--------|
D|--------|--------|--------|--------|--------|--------|--------|--------|--------|
A|--------|--------|--------|--------|--------|--------|--------|--------|--------|
E|--------|--------|--------|--------|--------|--------|--------|--------|--------|


E|--------|--------|--------|--------|--------|--------|--------|--------|--------|
B|--------|--------|--------|--------|--------|--------|--------|--------|--------|
G|--------|--------|--------|--------|--------|--------|--------|--------|--------|
D|--------|--------|--------|--------|--------|--------|--------|--------|--------|
A|--------|--------|--------|--------|--------|--------|--------|--------|--------|
E|--------|--------|--------|--------|--------|--------|--------|--------|--------|


E|--------|--------|--------|--------|--------|--------|--------|--------|--------|
B|--------|--------|--------|--------|--------|--------|--------|--------|--------|
G|--------|--------|--------|--------|--------|--------|--------|--------|--------|
D|--------|--------|--------|--------|--------|--------|--------|--------|--------|
A|--------|--------|--------|--------|--------|--------|--------|--------|--------|
E|--------|--------|--------|--------|--------|--------|--------|--------|--------|


E|--------|--------|--------|--------|--------|--------|--------|--------|--------|
B|--------|--------|--------|--------|--------|--------|--------|--------|--------|
G|--------|--------|--------|--------|--------|--------|--------|--------|--------|
D|--------|--------|--------|--------|--------|--------|--------|--------|--------|
A|--------|--------|--------|--------|--------|--------|--------|--------|--------|
E|--------|--------|--------|--------|--------|--------|--------|--------|--------|


E|--------|--------|--------|--------|--------|--------|--------|--------|--------|
B|--------|--------|--------|--------|--------|--------|--------|-3------|-3------|
G|--------|--------|--------|--------|--------|--------|--------|-2------|-2------|
D|--------|--------|--------|--------|--------|--------|--------|-0------|-0------|
A|--------|--------|--------|--------|--------|--------|--------|--------|--------|
E|--------|--------|--------|--------|--------|--------|--------|--------|--------|


E|-1------|-1------|--------|--------|--------|--------|--------|--------|--------|
B|-3------|-3------|-1------|-1------|-3------|-3------|--------|--------|--------|
G|-2------|-2------|-2------|-2------|-4------|-4------|--------|--------|--------|
D|-0------|-0------|-3------|-3------|-5------|-5------|--------|--------|--------|
A|--------|--------|-3------|-3------|-5------|-5------|--------|--------|--------|
E|--------|--------|-1------|-1------|-3------|-3------|--------|--------|--------|


E|--------|--------|--------|--------|--------|--------|--------|--------|--------|
B|--------|--------|--------|--------|--------|--------|--------|--------|--------|
G|--------|--------|--------|--------|--------|--------|--------|--------|--------|
D|--------|--------|--------|--------|--------|--------|--------|--------|--------|
A|--------|--------|--------|--------|--------|--------|--------|--------|--------|
E|--------|--------|--------|--------|--------|--------|--------|--------|--------|


E|--------|--------|--------|--------|--------|--------|--------|--------|--------|
B|--------|--------|--------|--------|--------|--------|--------|--------|--------|
G|--------|--------|--------|--------|--------|--------|--------|--------|--------|
D|--------|--------|--------|--------|--------|--------|--------|--------|--------|
A|--------|--------|--------|--------|--------|--------|--------|--------|--------|
E|--------|--------|--------|--------|--------|--------|--------|--------|--------|


E|--------|--------|--------|--------|--------|--------|--------|--------|--------|
B|--------|--------|--------|--------|--------|--------|--------|--------|--------|
G|--------|--------|--------|--------|--------|--------|--------|--------|--------|
D|--------|--------|--------|--------|--------|--------|--------|--------|--------|
A|--------|--------|--------|--------|--------|--------|--------|--------|--------|
E|--------|--------|--------|--------|--------|--------|--------|--------|--------|


E|--------|--------|--------|--------|--------|--------|--------|--------|--------|
B|--------|--------|--------|--------|--------|--------|--------|--------|--------|
G|--------|--------|--------|--------|--------|--------|--------|--------|--------|
D|--------|--------|--------|--------|--------|--------|--------|--------|--------|
A|--------|--------|--------|--------|--------|--------|--------|--------|--------|
E|--------|--------|--------|--------|--------|--------|--------|--------|--------|


E|--------|--------|--------|--------|--------|
B|--------|--------|--------|--------|--------|
G|--------|--------|--------|--------|--------|
D|--------|--------|--------|--------|--------|
A|--------|--------|--------|--------|--------|
E|--------|--------|--------|--------|--------|





Track 4: Guitar Solo

E|--------|--------|--------|--------|--------|--------|--------|--------|--------|
B|--------|--------|--------|--------|--------|--------|--------|--------|--------|
G|--------|--------|--------|--------|--------|--------|--------|--------|--------|
D|--------|--------|--------|--------|--------|--------|--------|--------|--------|
A|--------|--------|--------|--------|--------|--------|--------|--------|--------|
E|--------|--------|--------|--------|--------|--------|--------|--------|--------|


E|--------|--------|--------|--------|--------|--------|--------|--------|--------|
B|--------|--------|--------|--------|--------|--------|--------|--------|--------|
G|--------|--------|--------|--------|--------|--------|--------|--------|--------|
D|--------|--------|--------|--------|--------|--------|--------|--------|--------|
A|--------|--------|--------|--------|--------|--------|--------|--------|--------|
E|--------|--------|--------|--------|--------|--------|--------|--------|--------|


E|--------|--------|--------|--------|--------|--------|--------|--------|--------|
B|--------|--------|--------|--------|--------|--------|--------|--------|--------|
G|--------|--------|--------|--------|--------|--------|--------|--------|--------|
D|--------|--------|--------|--------|--------|--------|--------|--------|--------|
A|--------|--------|--------|--------|--------|--------|--------|--------|--------|
E|--------|--------|--------|--------|--------|--------|--------|--------|--------|


E|--------|--------|--------|--------|--------|--------|--------|--------|--------|
B|--------|--------|--------|--------|--------|--------|--------|--------|--------|
G|--------|--------|--------|--------|--------|--------|--------|--------|--------|
D|--------|--------|--------|--------|--------|--------|--------|--------|--------|
A|--------|--------|--------|--------|--------|--------|--------|--------|--------|
E|--------|--------|--------|--------|--------|--------|--------|--------|--------|


E|--------|--------|--------|--------|--------|--------|--------|--------|--------|
B|--------|--------|--------|--------|--------|--------|--------|--------|--------|
G|--------|--------|--------|--------|--------|--------|--------|--------|--------|
D|--------|--------|--------|--------|--------|--------|--------|--------|--------|
A|--------|--------|--------|--------|--------|--------|--------|--------|--------|
E|--------|--------|--------|--------|--------|--------|--------|--------|--------|


E|--------|--------|--------|--------|--------|--------|--------|--------|--------|
B|--------|--------|--------|--------|--------|--------|--------|--------|--------|
G|--------|--------|--------|--------|--------|--------|--------|--------|--------|
D|--------|--------|--------|--------|--------|--------|--------|--------|--------|
A|--------|--------|--------|--------|--------|--------|--------|--------|--------|
E|--------|--------|--------|--------|--------|--------|--------|--------|--------|


E|--------|--------|--------|--------|--------|--------|--------|--------|--------|
B|--------|--------|--------|--------|--------|--------|--------|--------|--------|
G|--------|--------|--------|--------|--------|--------|--------|--------|--------|
D|--------|--------|--------|--------|--------|--------|--------|--------|--------|
A|--------|--------|--------|--------|--------|--------|--------|--------|--------|
E|--------|--------|--------|--------|--------|--------|--------|--------|--------|


E|--------|--------|--------|--------|--------|--------|--------|--------|--------|
B|--------|--------|--------|--------|--------|--------|--------|--------|--------|
G|--------|--------|--------|--------|--------|--------|--------|--------|--------|
D|--------|--------|--------|--------|--------|--------|--------|--------|--------|
A|--------|--------|--------|--------|--------|--------|--------|--------|--------|
E|--------|--------|--------|--------|--------|--------|--------|--------|--------|


E|--------|--------|--------|--------|--------|--------|--------|--------|--------|
B|--------|--------|--------|--------|--------|--------|--------|--------|--------|
G|--------|--------|--------|--------|--------|--------|--------|--------|--------|
D|--------|--------|--------|--------|--------|--------|--------|--------|--------|
A|--------|--------|--------|--------|--------|--------|--------|--------|--------|
E|--------|--------|--------|--------|--------|--------|--------|--------|--------|


E|--------|--------|--------|--------|--------|--------|--------|--------|--------|
B|--------|--------|--------|--------|--------|--------|--------|--------|--------|
G|--------|--------|--------|--------|--------|--------|--------|--------|--------|
D|--------|--------|--------|--------|--------|--------|--------|--------|--------|
A|--------|--------|--------|--------|--------|--------|--------|--------|--------|
E|--------|--------|--------|--------|--------|--------|--------|--------|--------|


E|--------|--------|--------|--------|--------|--------|--------|--------|--------|
B|--------|--------|--------|--------|--------|--------|--------|--------|--------|
G|--------|--------|--------|--------|--------|--------|--------|--------|--------|
D|--------|--------|--------|--------|--------|--------|--------|--------|--------|
A|--------|--------|--------|--------|--------|--------|--------|--------|--------|
E|--------|--------|--------|--------|--------|--------|--------|--------|--------|


E|--------|--------|--------|--------|--------|--------|--------|--------|--------|
B|--------|--------|--------|--------|--------|--------|--------|--------|--------|
G|--------|--------|--------|--------|--------|--------|--------|--------|--------|
D|--------|--------|--------|--------|--------|--------|--------|--------|--------|
A|--------|--------|--------|--------|--------|--------|--------|--------|--------|
E|--------|--------|--------|--------|--------|--------|--------|--------|--------|


E|--------|--------|--------|--------|--------|--------|--------|--------|--------|
B|--------|--------|--------|--------|--------|--------|--------|--------|--------|
G|--------|--------|--------|--------|--------|--------|--------|--------|--------|
D|--------|--------|--------|--------|--------|--------|--------|--------|--------|
A|--------|--------|--------|--------|--------|--------|--------|--------|--------|
E|--------|--------|--------|--------|--------|--------|--------|--------|--------|


E|--------|--------|--------|--------|--------|---------------------|--------------------|
B|--------|--------|--------|--------|--------|---------------------|--------------------|
G|--------|--------|--------|--------|-4------|---------------------|--------------------|
D|--------|--------|--------|--------|--------|-5-----4-------------|--------------------|
A|--------|--------|--------|--------|--------|-------------5---7---|-7-----7---8---8----|
E|--------|--------|--------|--------|--------|---------------------|--------------------|


E|---------------------|------------------------|---------------------------|---------------------------|
B|---------------------|------------------------|---------------------------|---------------------------|
G|---------------------|------------------------|---------------------------|---------------------------|
D|---------------------|------------------------|---------------------------|---------------------------|
A|-8----8----8----8----|-8----8----8----8---7---|-7----7---7---5----5---2---|-2---3---3----2---3---3----|
E|---------------------|------------------------|---------------------------|---------------------------|


E|---------------------------|---------------------------|--------|--------|--------|
B|---------------------------|---------------------------|--------|--------|--------|
G|---------------------------|---------------------------|--------|--------|--------|
D|---------------------------|---------------------------|--------|--------|--------|
A|-3---2---2----3---2---2----|-3---2---2----2----2---0---|--------|--------|--------|
E|---------------------------|---------------------------|-4------|--------|--------|


E|--------|--------|--------|--------|--------|--------|--------|--------|--------|
B|--------|--------|--------|--------|--------|--------|--------|--------|--------|
G|--------|--------|--------|--------|--------|--------|--------|--------|--------|
D|--------|--------|--------|--------|--------|--------|--------|--------|--------|
A|--------|--------|--------|--------|--------|--------|--------|--------|--------|
E|--------|--------|--------|--------|--------|--------|--------|--------|--------|


E|--------|--------|--------|--------|--------|--------|--------|
B|--------|--------|--------|--------|--------|--------|--------|
G|--------|--------|--------|--------|--------|--------|--------|
D|--------|--------|--------|--------|--------|--------|--------|
A|--------|--------|--------|--------|--------|--------|--------|
E|--------|--------|--------|--------|--------|--------|--------|





Track 5: Bass

G|--------|--------|--------|--------|--------|---------------------------------|---------------------------------|
D|--------|--------|--------|--------|--------|---------------------------------|---------------------------------|
A|--------|--------|--------|--------|--------|---------------------------------|---------------------------------|
E|--------|--------|--------|--------|--------|-0---0---0---0---0---0---0---0---|-0---0---0---0---0---0---0---0---|


G|---------------------------------|---------------------------------|---------------------------------|
D|---------------------------------|---------------------------------|---------------------------------|
A|---------------------------------|---------------------------------|---------------------------------|
E|-0---0---0---0---0---0---0---0---|-0---0---0---0---0---0---0---0---|-1---1---1---1---1---1---1---1---|


G|---------------------------------|---------------------------------|---------------------------------|
D|---------------------------------|---------------------------------|---------------------------------|
A|-5---5---5---5---5---5---5---5---|---------------------------------|---------------------------------|
E|---------------------------------|-5---5---5---5---5---5---5---5---|-5---5---5---5---5---5---5---5---|


G|---------------------------------|---------------------------------|---------------------------|
D|---------------------------------|---------------------------------|---------------------------|
A|---------------------------------|---------------------------------|-0----0----0---3---3---0---|
E|-3---3---3---3---3---3---3---3---|-0---0---0---0---0---0---0---0---|---------------------------|


G|---------------------------|---------------------------|---------------------------|
D|---------------------------|---------------------------|---------------------------|
A|-0----0----0---3---3---0---|-0----0----0---3---3---0---|-0----0----0---3---3---0---|
E|---------------------------|---------------------------|---------------------------|


G|---------------------------|---------------------------|---------------------------|
D|---------------------------|---------------------------|---------------------------|
A|---------------------------|---------------------------|---------------------------|
E|-0----0----0---3---3---0---|-0----0----0---3---3---0---|-0----0----0---3---3---0---|


G|---------------------------|---------------------------|---------------------------|
D|---------------------------|---------------------------|---------------------------|
A|---------------------------|---------------------------|-5----5----5---5---5---5---|
E|-0----0----0---3---3---0---|-1----1----1---1---1---1---|---------------------------|


G|---------------------------|---------------------------|---------------------------|
D|---------------------------|---------------------------|---------------------------|
A|-0----0----0---3---3---0---|-0----0----0---3---3---0---|---------------------------|
E|---------------------------|---------------------------|-3----3----3---3---3---3---|


G|---------------------|---------------------------------|---------------------------------|
D|---------------------|---------------------------------|---------------------------------|
A|---------------------|---------------------------------|---------------------------------|
E|-0----0----0----0----|-5---5---5---5---5---5---5---5---|-5---5---5---5---5---5---5---5---|


G|---------------------------------|---------------------------------|---------------------------------|
D|---------------------------------|---------------------------------|---------------------------------|
A|---------------------------------|---------------------------------|---------------------------------|
E|-5---5---5---5---5---5---5---5---|-5---5---5---5---5---5---5---5---|-0---0---0---0---0---0---0---0---|


G|---------------------------------|---------------------------------|---------------------------------|
D|---------------------------------|---------------------------------|---------------------------------|
A|---------------------------------|---------------------------------|---------------------------------|
E|-0---0---0---0---0---0---0---0---|-0---0---0---0---0---0---0---0---|-0---0---0---0---0---0---0---0---|


G|---------------------------|---------------------------|---------------------------|
D|---------------------------|---------------------------|---------------------------|
A|-0----0----0---3---3---0---|-0----0----0---3---3---0---|-0----0----0---3---3---0---|
E|---------------------------|---------------------------|---------------------------|


G|---------------------------|---------------------------|---------------------------|
D|---------------------------|---------------------------|---------------------------|
A|-0----0----0---3---3---0---|---------------------------|---------------------------|
E|---------------------------|-0----0----0---3---3---0---|-0----0----0---3---3---0---|


G|---------------------------|---------------------------|---------------------------|
D|---------------------------|---------------------------|---------------------------|
A|---------------------------|---------------------------|---------------------------|
E|-0----0----0---3---3---0---|-0----0----0---3---3---0---|-1----1----1---1---1---1---|


G|---------------------------|---------------------------|---------------------------|
D|---------------------------|---------------------------|---------------------------|
A|-5----5----5---5---5---5---|-0----0----0---3---3---0---|-0----0----0---3---3---0---|
E|---------------------------|---------------------------|---------------------------|


G|---------------------------|---------------------|--------|--------|--------|--------|
D|---------------------------|---------------------|--------|--------|--------|--------|
A|---------------------------|---------------------|-5------|-5------|-5------|-5------|
E|-3----3----3---3---3---3---|-0----0----0----0----|--------|--------|--------|--------|


G|--------|--------|--------|--------|---------------------|---------------------|
D|--------|--------|--------|--------|---------------------|---------------------|
A|--------|--------|--------|--------|-5----5----5----5----|-5----5----5----5----|
E|-1------|-1------|-3------|-3------|---------------------|---------------------|


G|---------------------|---------------------|---------------------|---------------------|
D|---------------------|---------------------|---------------------|---------------------|
A|---------------------|---------------------|-5----5----5----5----|-5----5----5----5----|
E|-1----1----1----1----|-3----3----3----3----|---------------------|---------------------|


G|---------------------|---------------------|---------------------|---------------------|
D|---------------------|---------------------|---------------------|---------------------|
A|---------------------|-----------3----2----|---------------------|---------------------|
E|-1----1----1----1----|-3----3--------------|-5----5----5----5----|-5----5----5----5----|


G|---------------------|---------------------|---------------------|------------------------|
D|---------------------|---------------------|---------------------|------------------------|
A|-3----3----3----3----|-----------3----2----|---------------------|------------------------|
E|---------------------|-1----1--------------|-5----5----5----5----|-3---5---5----5----5----|


G|---------------------|---------------------|---------------------------------|---------------------------------|
D|---------------------|---------------------|---------------------------------|---------------------------------|
A|-3----3----3----3----|-----------3----2----|---------------------------------|---------------------------------|
E|---------------------|-1----1--------------|-5---5---5---5---5---5---5---5---|-5---5---5---5---5---5---5---5---|


G|---------------------------------|---------------------------------|---------------------------------|
D|---------------------------------|---------------------------------|---------------------------------|
A|---------------------------------|---------------------------------|---------------------------------|
E|-5---5---5---5---5---5---5---5---|-5---5---5---5---5---5---5---5---|-0---0---0---0---0---0---0---0---|


G|---------------------------------|---------------------------------|---------------------------------|
D|---------------------------------|---------------------------------|---------------------------------|
A|---------------------------------|---------------------------------|---------------------------------|
E|-0---0---0---0---0---0---0---0---|-0---0---0---0---0---0---0---0---|-0---0---0---0---0---0---0---0---|


G|---------------------------|---------------------------|---------------------------|
D|---------------------------|---------------------------|---------------------------|
A|-0----0----0---3---3---0---|-0----0----0---3---3---0---|-0----0----0---3---3---0---|
E|---------------------------|---------------------------|---------------------------|


G|---------------------------|---------------------------|---------------------------|
D|---------------------------|---------------------------|---------------------------|
A|-0----0----0---3---3---0---|---------------------------|---------------------------|
E|---------------------------|-0----0----0---3---3---0---|-0----0----0---3---3---0---|


G|---------------------------|---------------------------|---------------------------|
D|---------------------------|---------------------------|---------------------------|
A|---------------------------|---------------------------|---------------------------|
E|-0----0----0---3---3---0---|-0----0----0---3---3---0---|-1----1----1---1---1---1---|


G|---------------------------|---------------------------|---------------------------|
D|---------------------------|---------------------------|---------------------------|
A|-5----5----5---5---5---5---|-0----0----0---3---3---0---|-0----0----0---3---3---0---|
E|---------------------------|---------------------------|---------------------------|


G|---------------------------|---------------------|--------|--------|--------|--------|
D|---------------------------|---------------------|--------|--------|--------|--------|
A|---------------------------|---------------------|-5------|-5------|-5------|-5------|
E|-3----3----3---3---3---3---|-0----0----0----0----|--------|--------|--------|--------|


G|--------|--------|--------|--------|---------------------|---------------------|
D|--------|--------|--------|--------|---------------------|---------------------|
A|--------|--------|--------|--------|-5----5----5----5----|-5----5----5----5----|
E|-1------|-1------|-3------|-3------|---------------------|---------------------|


G|---------------------|---------------------|---------------------|---------------------|
D|---------------------|---------------------|---------------------|---------------------|
A|---------------------|---------------------|-5----5----5----5----|-5----5----5----5----|
E|-1----1----1----1----|-3----3----3----3----|---------------------|---------------------|


G|---------------------|---------------------|---------------------|---------------------|
D|---------------------|---------------------|---------------------|---------------------|
A|---------------------|-----------3----2----|---------------------|---------------------|
E|-1----1----1----1----|-3----3--------------|-5----5----5----5----|-5----5----5----5----|


G|---------------------|---------------------|---------------------|------------------------|
D|---------------------|---------------------|---------------------|------------------------|
A|-3----3----3----3----|-----------3----2----|---------------------|------------------------|
E|---------------------|-1----1--------------|-5----5----5----5----|-3---5---5----5----5----|


G|---------------------|---------------------|---------------------|---------------------|
D|---------------------|---------------------|---------------------|---------------------|
A|-3----3----3----3----|-----------3----2----|---------------------|---------------------|
E|---------------------|-1----1--------------|-0----0----0----0----|-0----0----0----0----|


G|---------------------|---------------------|---------------------|---------------------|
D|---------------------|---------------------|---------------------|---------------------|
A|---------------------|---------------------|---------------------|-5----5----5----5----|
E|-0----0----0----0----|-0----0----0----0----|-1----1----1----1----|---------------------|


G|---------------------|---------------------|---------------------|---------------------|
D|---------------------|---------------------|---------------------|---------------------|
A|---------------------|---------------------|---------------------|---------------------|
E|-5----5----5----5----|-5----5----5----5----|-3----3----3----3----|-0----0----0----0----|


G|--------|--------|---------------------|---------------------|---------------------|
D|--------|--------|---------------------|---------------------|---------------------|
A|-5------|-5------|---------------------|---------------------|-5----5----5----5----|
E|--------|--------|-1----1----1----1----|-3----3----3----3----|---------------------|


G|---------------------|---------------------|---------------------|---------------------|
D|---------------------|---------------------|---------------------|---------------------|
A|-5----5----5----5----|---------------------|-----------3----2----|---------------------|
E|---------------------|-1----1----1----1----|-3----3--------------|-5----5----5----5----|


G|---------------------|---------------------|---------------------|---------------------------|
D|---------------------|---------------------|---------------------|---------------------------|
A|---------------------|-3----3----3----3----|-----------3----2----|-0----0----0---3---3---0---|
E|-5----5----5----5----|---------------------|-1----1--------------|---------------------------|


G|---------------------------|---------------------------|---------------------------|
D|---------------------------|---------------------------|---------------------------|
A|-0----0----0---3---3---0---|-0----0----0---3---3---0---|-0----0----0---3---3---0---|
E|---------------------------|---------------------------|---------------------------|


G|--------|--------|
D|--------|--------|
A|-0------|-0------|
E|--------|--------|