Site menu:

    

Browse: 0-9 A B C D E F G H I J K L N O P Q R S T U V W X Y Z

nasty savage - xxx:



/---------------------------------------------------------------------------
/ The following is the author's own interpretation of the song, to be used -
/ for studying or private use only, removal of any part of this ten line   -
/ header is illegal!!!  Removal of the transcribers name or anything       -
/ relevant to the transcriber is also illegal, as so is the removal of the -
/ place inwhich the tab was downloaded. Publishing as well as printing of  -
/ the tab is illegal without permission of the transcriber and copyright   -
/ owner of the song. Failure to apply to these laws result will in legal   -
/ action from the appropriate parties.                                     -
/---------------------------------------------------------------------------

downloaded from Displacer's Tablature Site at
        http://www.dsrmusic.com/metaltab
join the death/black tab emailing list by filling out the free
subscription form at http://www.dsrmusic.com/metaltab/join.htm


#----------------------------------PLEASE NOTE---------------------------------#
#This file is the author's own work and represents their interpretation of the #
#song. You may only use this file for private study, scholarship, or research. #
#------------------------------------------------------------------------------#

  Visit MetalTabs.com for more metal tablature
  
=========================================================================================
Song: XXX
Artist: Nasty Savage
Album: Wage of Mayhem (1984), with a much improved version on Indulgence (1987)

Tabbed by Chris Rezendes (dudemcrude@yahoo.com)
Date started tab: 7-02-02
Date finished tab: 7-02-02

Tuning: Standard

Notation Key
v: vibrato
t: tremolo bar
^: bend
.: palm mute
~: trill
p: pull-off
h: hammer-on
x: ghost note
/: slide up
\: slide down

Comments: Nasty Savage ruled.  Too bad they broke up.  They could've been as big as
Megadeth or Slayer if marketed correctly.  The version from Indulgence is played the
same, except the first time you would play Fig. 6 on the '84 version, you'd play
Fig. 5 x1 instead. Anyway, e-mail if you want in relation with the tab.  Whatever.
=========================================================================================

Intro x1
e|---------------|
B|---------------|
G|---------------|
D|---------------|
A|----1-0-3-3-3--|
E|--0-----1-1-1--|

Fig. 1 x1
e|-----------------------------------------------|
B|-----------------------------------------------|
G|-----------------------------------------------|
D|-----------------------------------------------|
A|--------------------------------1-0---0-1-0----|
E|--00000-1-0000000000-1-00000000-----3-------3--|
    ..... . .......... . ........

e|----------------------------------------------|
B|----------------------------------------------|
G|----------------------------------------------|
D|---------------------------------------5-5-5--|
A|--------------------------------1-0-1--3-3-3--|
E|--00000-1-0000000000-1-00000000---------------|
    ..... . .......... . ........

e|-----------------------------------------------|
B|-----------------------------------------------|
G|-----------------------------------------------|
D|-----------------------------------------------|
A|--------------------------------1-0---0-1-0----|
E|--00000-1-0000000000-1-00000000-----3-------3--|
    ..... . .......... . ........

e|----------------------------------------------|
B|----------------------------------------------|
G|----------------------------------------------|
D|---------------------------------------8-8-8--|
A|--------------------------------1-0-1--6-6-6--|
E|--00000-1-0000000000-1-00000000---------------|
    ..... . .......... . ........

Fig. 2 x1
e|---------------------------------------------|
B|---------------------------------------------|
G|---------------------------------------------|
D|--------------------------------0-1-0--------|
A|--------------------------------------0-0-1--|
E|--00000-1-0000000000-1-00000000--------------|
    ..... . .......... . ........

e|-------------------------------------------|
B|-------------------------------------------|
G|-------------------------------------------|
D|-------------------------------------------|
A|----------------------------------0-1-0----|
E|--00000-1-0000000000-1-00000000-3-------3--|
    ..... . .......... . ........

e|---------------------------------------------|
B|---------------------------------------------|
G|---------------------------------------------|
D|--------------------------------0-1-0--------|
A|--------------------------------------0-0-1--|
E|--00000-1-0000000000-1-00000000--------------|
    ..... . .......... . ........

e|------------------------------------------------|
B|------------------------------------------------|
G|------------------------------------------------|
D|------------------------------------------------|
A|----------------------------------0-1-h1-h1-h1--|
E|--00000-1-0000000000-1-00000000-3---------------|
    ..... . .......... . ........

e|---------------------------------------------|
B|---------------------------------------------|
G|---------------------------------------------|
D|--------------------------------0-1-0--------|
A|--------------------------------------0-0-1--|
E|--00000-1-0000000000-1-00000000--------------|
    ..... . .......... . ........

e|-------------------------------------------|
B|-------------------------------------------|
G|-------------------------------------------|
D|-------------------------------------------|
A|----------------------------------0-1-0----|
E|--00000-1-0000000000-1-00000000-3-------3--|
    ..... . .......... . ........

e|---------------------------------------------|
B|---------------------------------------------|
G|---------------------------------------------|
D|--------------------------------0-1-0--------|
A|--------------------------------------0-0-1--|
E|--00000-1-0000000000-1-00000000--------------|
    ..... . .......... . ........

e|----------------------------------------------|----------------|
B|----------------------------------------------|----------------|
G|----------------------------------------------|----------------|
D|---------------------------------------8-8-8--|---------8-8-8--|
A|----------------------------------0-1--6-6-6--|----0-1--6-6-6--|
E|--00000-1-0000000000-1-00000000-3-------------|--3-------------|
    ..... . .......... . ........

Fig. 3 x2
e|------------------------------|
B|------------------------------|
G|------------------------------|
D|------------------------------|
A|---------------------------2--|
E|--00000-1-000000000-1-0000-0--|

Fig. 4 x1
e|----------------------------------------------|
B|----------------------------------------------|
G|----------------------------------------------|
D|---------------------------------------8-8-8--|
A|--------------------------------1-0-1--6-6-6--|
E|--00000-1-0000000000-1-00000000---------------|
    ..... . .......... . ........

Repeat Fig. 2 x1

Fig. 5 x1
e|-----------------|-----------------|-----------------|----------------------|
B|-----------------|-----------------|-----------------|----------------------|
G|-----------------|-----------------|-----------------|----------------------|
D|-----------------|--6-------6------|--5-------5------|--6-5-5-5-------------|
A|--5-------5------|--4-4-4-4-4-4-4--|--3-3-3-3-3-3-3--|--4-3-3-3--4-3h4p3p1--|
E|--3-3-3-3-3-3-3--|-----------------|-----------------|----------------------|

e|-----------------|-----------------|-----------------|
B|-----------------|-----------------|-----------------|
G|-----------------|-----------------|-----------------|
D|-----------------|--6-------6------|--5-------5------|
A|--5-------5------|--4-4-4-4-4-4-4--|--3-3-3-3-3-3-3--|
E|--3-3-3-3-3-3-3--|-----------------|-----------------|

e|-------------------------------------|
B|-------------------------------------|
G|-------------------------------------|
D|--3----------------------------------|
A|--1-1-1-1-1-1-1-1--1-0h1p0----3-3-3--|
E|---------------------------3--1-1-1--|

Repeat Fig. 1 x1
Repeat Fig. 2 x1

Fig. 6 x1
e|-----------------|-----------------|-----------------|----------------------|
B|-----------------|-----------------|-----------------|----------------------|
G|-----------------|-----------------|-----------------|----------------------|
D|-----------------|--6-------6------|--5-------5------|--6-5-5-5-------------|
A|--5-------5------|--4-4-4-4-4-4-4--|--3-3-3-3-3-3-3--|--4-3-3-3--4-3h4p3p1--|
E|--3-3-3-3-3-3-3--|-----------------|-----------------|----------------------|

e|-----------------|-----------------|-----------------|----------------------|
B|-----------------|-----------------|-----------------|----------------------|
G|-----------------|-----------------|-----------------|----------------------|
D|-----------------|--6-------6------|--5-------5------|--6-5-5-5-------------|
A|--5-------5------|--4-4-4-4-4-4-4--|--3-3-3-3-3-3-3--|--4-3-3-3--4-3h4p3p1--|
E|--3-3-3-3-3-3-3--|-----------------|-----------------|----------------------|

e|-----------------|-----------------|-----------------|----------------------|
B|-----------------|-----------------|-----------------|----------------------|
G|-----------------|-----------------|-----------------|----------------------|
D|-----------------|--6-------6------|--5-------5------|--6-5-5-5-------------|
A|--5-------5------|--4-4-4-4-4-4-4--|--3-3-3-3-3-3-3--|--4-3-3-3--4-3h4p3p1--|
E|--3-3-3-3-3-3-3--|-----------------|-----------------|----------------------|

e|-----------------|-----------------|-----------------|
B|-----------------|-----------------|-----------------|
G|-----------------|-----------------|-----------------|
D|-----------------|--6-------6------|--5-------5------|
A|--5-------5------|--4-4-4-4-4-4-4--|--3-3-3-3-3-3-3--|
E|--3-3-3-3-3-3-3--|-----------------|-----------------|

e|-------------------------------------|
B|-------------------------------------|
G|-------------------------------------|
D|--3----------------------------------|
A|--1-1-1-1-1-1-1-1--1-0h1p0----3-3-3--|
E|---------------------------3--1-1-1--|

Repeat Fig. 3 x2

Fig. 7 x7 (under solo)
e|---------------------------------------------|
B|---------------------------------------------|
G|---------------------------------------------|
D|---------------------------------------------|
A|--------------------------------5-6-5-6-5-6--|
E|--00000-1-0000000000-1-00000000--------------|
    ..... . .......... . ........

e|------------------------------------------|
B|------------------------------------------|
G|------------------------------------------|
D|------------------------------------------|
A|--------------------------------6-5--6-5--|
E|--00000-1-0000000000-1-00000000-4-3--4-3--|
    ..... . .......... . ........

Fig. 7b x1
e|---------------------------------------------|---------------------------------|
B|---------------------------------------------|---------------------------------|
G|---------------------------------------------|---------------------------------|
D|---------------------------------------------|---------------------------------|
A|--------------------------------5-6-5-6-5-6--|---------------------------------|
E|--00000-1-0000000000-1-00000000--------------|--00000-1-0000000000-1-00000000--|
    ..... . .......... . ........                 ..... . .......... . ........

Fig. 8 x3
e|---------|
B|---------|
G|---------|
D|--5-4-3--|
A|--3-2-1--|
E|---------|

Repeat Fig. 1 x1
Repeat Fig. 2 x1
Repeat Fig. 5 x1
Repeat Fig. 3 x3

Stop

Repeat Fig. 6 x1
Repeat Fig. 3 x3

  Visit MetalTabs.com for more metal tablature