Site menu:

    

Browse: 0-9 A B C D E F G H I J K L N O P Q R S T U V W X Y Z

napoléon coste - etude no 23 op 38:



Title: Etude # 23, Op.38
Artist: 
Album: 
Author: Napoleon Coste


Track 1: Guitar

E|---------------------------------|---------------------------------|----0-----0-----0-----0-----0-----0-----5-----5--|
B|---------------------------------|---------------------------------|-2-----2-----2-----2-----2-----2-----2-----2-----|
G|---------------------------------|---------------------------------|-------------------------------------------------|
D|---------------------------------|---------------------------------|-------------------------------------------------|
A|-0---------------0---------------|-0---------------0---------------|-0-----------------------0-----------------------|
E|---------0---0-----------0-------|---------0---0-----------0-------|-------------0-----0-----------------0-----------|


E|----5-----5-----4-----4-----2-----2-----0-----0--|----0-----0-----0-----0-----9-----9-----5-----5--|
B|-3-----3-----3-----3-----3-----3-----3-----3-----|-2-----2-----2-----2-----5-----5-----2-----2-----|
G|-------------------------------------------------|-------------------------------------------------|
D|-------------------------------------------------|-------------------------------------------------|
A|-2-----------------------2-----------------------|-0-----------------------0-----------------------|
E|-------------0-----0-----------------0-----------|-------------0-----0-----------------0-----------|


E|----5-----5-----4-----4-----2-----2-----0-----0--|----0-----0-----0-----0-----2-----2-----2-----2--|
B|-3-----3-----3-----3-----3-----3-----3-----3-----|-2-----2-----2-----2-----2-----2-----2-----2-----|
G|-------------------------------------------------|-------------------------------------------------|
D|-------------------------------------------------|-------------------------------------------------|
A|-2-----------------------2-----------------------|-------------------------1-----------------------|
E|-------------0-----0-----------------0-----------|-5-----------0-----0-----------------2-----------|


E|----2-----2-----1-----1-----0-----0-----0-----0--|----------------0-----0--------------------------|
B|-2-----2-----2-----2-----3-----3-----3-----3-----|-2--5--2--5--2-----2--------3-----3-----2-----2--|
G|-------------------------------------------------|-------------------------2-----2-----2-----2-----|
D|-------------------------------------------------|-------------------------------------------------|
A|-2-----------0-----0-----------------------------|-0-----------------------------------------------|
E|-------------------------4-----------0-----------|-------------3-----3-----2-----------0-----------|


E|-------------------------------------------------|----------------------------------------2-----2--|
B|----0-----0-----0-----0-----0-----0-----0-----0--|----0-----0-----0-----0-----0-----0--------------|
G|-2-----2-----2-----2-----2-----2-----2-----2-----|-2-----2-----2-----2-----2-----2-----2-----2-----|
D|-0-----------0-----2-----3-----------2-----------|-1-----------1-----2-----4-----------1-----------|
A|-------------------------------------------------|-------------------------------------------------|
E|-------------------------------------------------|-------------------------------------------------|


E|----0-----0-----0-----0-----0-----0-----0-----0--|----0-----0-----0-----0-----0-----0-----5-----5--|
B|-------------------------------------3-----3-----|-2-----2-----2-----2-----2-----2-----2-----2-----|
G|-1-----1-----1-----1-----2-----2-----------------|-------------------------------------------------|
D|-2-----------0-----0-----------------------------|-------------------------------------------------|
A|-------------------------4-----------2-----------|-0-----------------------0-----------------------|
E|-------------------------------------------------|-------------0-----0-----------------0-----------|


E|----5-----5-----4-----4-----2-----2-----0-----0--|----0-----0-----0-----0-----9-----9-----5-----5--|
B|-3-----3-----3-----3-----3-----3-----3-----3-----|-2-----2-----2-----2-----5-----5-----2-----2-----|
G|-------------------------------------------------|-------------------------------------------------|
D|-------------------------------------------------|-------------------------------------------------|
A|-2-----------------------2-----------------------|-0-----------------------0-----------------------|
E|-------------0-----0-----------------0-----------|-------------0-----0-----------------0-----------|


E|----5-----5-----4-----4-----2-----2-----0-----0--|----0-----0-----0-----0-----2-----2-----0-----0--|
B|-3-----3-----3-----3-----3-----3-----3-----3-----|-2-----2-----0-----0-----------------------------|
G|-------------------------------------------------|-------------1-----1-----3-----3-----3-----3-----|
D|-------------------------------------------------|-------------------------4-----------------------|
A|-2-----------------------2-----------------------|-0-----------------------------------------------|
E|-------------0-----0-----------------0-----------|-------------------------------------2-----------|


E|----------------------------0-----0--------------|-------------------------------------------------|
B|----4-----4-----4-----4-----------------3-----3--|----3-----3-----2-----2-----3-----3-----2-----2--|
G|-2-----2-----2-----2-----1-----1-----1-----1-----|-2-----2-----2-----2-----2-----2-----2-----2-----|
D|-4-----------------------2-----------------------|-------------2-----3-----4-----------2-----------|
A|-------------2-----2-----------------------------|-0-----------------------------------------------|
E|-------------------------------------0-----------|-------------------------------------------------|


E|----2-----2-----1-----1-----0-----0-----4-----4--|----5-----5-----5-----5-----5-----5-----5-----5--|
B|-------------0-----0-----2-----2-----3-----3-----|-------------------------------------------------|
G|-2-----2-----------------------------------------|-5-----5-----5-----5-----5-----5-----5-----5-----|
D|-1-----------0-----0-----2-----------------------|-------------------------------------------------|
A|-------------------------------------------------|-------------------------------------------------|
E|-------------------------------------0-----------|-5-----------5-----7-----8-----------5-----------|


E|----5-----5-----5-----5-----5-----5-----5-----5--|----3-----3-----3-----3-----3-----3-----3-----3--|
B|-4-----4-----4-----4-----4-----4-----4-----4-----|-5-----5-----5-----5-----5-----5-----5-----5-----|
G|-------------4-----3-----4-----------------------|-------------------------0-----------------------|
D|-------------------------------------------------|-------------2-----4-----------------2-----------|
A|-2-----------------------------------2-----------|-------------------------------------------------|
E|-------------------------------------------------|-0-----------------------------------------------|


E|----3-----3-----3-----3-----3-----3-----3-----3--|----3-----3-----1-----1-----1-----1-----1-----1--|
B|-5-----5-----5-----5-----5-----5-----5-----5-----|-5-----5-----3-----3-----3-----3-----3-----3-----|
G|-3-----------------------------------------------|-------------------------------------------------|
D|-------------------0-----2-----------------------|-0-----------0-----2-----3-----------0-----------|
A|-------------4-----------------------0-----------|-------------------------------------------------|
E|-------------------------------------------------|-------------------------------------------------|


E|----1-----1-----1-----1-----1-----1-----1-----1--|----1-----1-----0-----0-----0-----0-----0-----0--|
B|-3-----3-----3-----3-----3-----3-----3-----3-----|-3-----3-----1-----1-----1-----1-----1-----1-----|
G|-1-----------------------------------------------|-------------------------------------0-----2-----|
D|-------------------------0-----------------------|-------------------0-----2-----3-----------------|
A|-------------2-----3-----------------------------|-3-----------3-----------------------------------|
E|-------------------------------------3-----------|-------------------------------------------------|


E|----0-----0-----0-----0-----0-----0-----0-----0--|----1-----1-----1-----1-----1-----1-----3-----3--|
B|-1-----1-----1-----1-----1-----1-----1-----1-----|-1-----1-----1-----1-----1-----1-----2-----2-----|
G|-3-----------------------------------------------|-------------2-----0-----------------------------|
D|-------------------0-----2-----------------------|-3-----------------------3-----------2-----------|
A|-------------3-----------------------3-----------|-------------------------------------------------|
E|-------------------------------------------------|-------------------------------------------------|


E|----1-----1-----1-----1-----1-----1-----1-----1--|----1-----1-----1-----1-----1-----1-----1-----1--|
B|-3-----3-----3-----3-----3-----3-----3-----3-----|-3-----3-----3-----3-----3-----3-----3-----3-----|
G|-------------------------------------------------|-------------1-----2-----4-----------2-----------|
D|-0-----------3-----2-----0-----------------------|-------------------------------------------------|
A|-------------------------------------3-----------|-2-----------------------------------------------|
E|-------------------------------------------------|-------------------------------------------------|


E|----0-----0-----0-----0-----0-----0-----7-----7--|----5-----5-----5-----5-----3-----3-----3-----3--|
B|-3-----3-----3-----3-----3-----3-----3-----3-----|-2-----2-----2-----2-----5-----5-----5-----5-----|
G|-1-----------------------------------------------|-2-----------------------2-----------------------|
D|-------------------------------------------------|-------------------------------------------------|
A|-------------------------------------------------|-------------0-----0-----------------0-----------|
E|-------------0-----2-----4-----------0-----------|-------------------------------------------------|


E|----2-----2-----2-----2-----1-----1-----1-----1--|----0-----0-----0-----0-----0-----0-----0-----0--|
B|-4-----4-----4-----4-----3-----3-----3-----3-----|-2-----2-----2-----2-----1-----1-----1-----1-----|
G|-2-----------------------2-----------------------|-2-----------------------2-----------------------|
D|-------------------------------------------------|-------------------------------------------------|
A|-------------0-----0-----------------0-----------|-------------0-----0-----------------0-----------|
E|-------------------------------------------------|-------------------------------------------------|


E|----------------------------0-----0--------------|-------------------------------------------------|
B|----5-----5-----5-----5-----------------3-----3--|----3-----3-----1-----1-----3-----3-----3-----3--|
G|-4-----4-----4-----4-----2-----2-----2-----2-----|-2-----2-----2-----2-----2-----2-----2-----2-----|
D|-5-----------------------3-----------------------|-2-----------------------3-----------------------|
A|-------------------------------------------------|-------------------------------------------------|
E|-------------3-----3-----------------1-----------|-------------0-----0-----------------1-----------|


E|-------------------------------------------------|----------------0-----0-----0-----0-----0-----0--|
B|----3-----3-----1-----1-----0-----0-----0-----0--|----0-----0--------------------------------------|
G|-2-----2-----2-----2-----2-----2-----2-----2-----|-1-----1-----1-----1-----1-----1-----1-----1-----|
D|-2-----------------------0-----------1-----------|-2-----------------------0-----------------------|
A|-------------------------------------------------|-------------------------------------------------|
E|-------------0-----0-----------------------------|-------------0-----0-----------------0-----------|


E|----0-----0-----0-----0-----0-----0-----0-----0--|----0-----0-----0-----0-----0-----0-----0-----0--|
B|-------------------------------------------------|-------------------------------------------------|
G|-2-----2-----2-----2-----2-----2-----2-----2-----|-1-----1-----1-----1-----1-----1-----1-----1-----|
D|-------------------------------------------------|-------------------------0-----------------------|
A|-4-----------------------3-----------------------|-2-----------------------------------------------|
E|-------------0-----0-----------------0-----------|-------------0-----0-----------------0-----------|


E|----0-----0-----0-----0-----0-----0-----0-----0--|----0-----0-----0-----0-----0-----0-----0-----0--|
B|-------------------------------------------------|-------------------------------------------------|
G|-2-----2-----2-----2-----2-----2-----2-----2-----|-1-----1-----1-----1-----0-----0-----0-----0-----|
D|-------------------------------------------------|-------------------------------------------------|
A|-4-----------------------3-----------------------|-2-----------------------1-----------------------|
E|-------------0-----0-----------------0-----------|-------------0-----0-----------------0-----------|


E|----0-----0-----0-----0-----0-----0-----0-----0--|----0-----0-----0-----0-----0-----0-----0-----0--|
B|-------------------------------------------------|-------------------------------------------------|
G|-1-----1-----1-----1-----0-----0-----0-----0-----|-1-----1-----1-----1-----1-----1-----1-----1-----|
D|-------------------------------------------------|-------------------------------------------------|
A|-2-----------------------1-----------------------|-2-----------------------2-----------------------|
E|-------------0-----0-----------------0-----------|-------------0-----0-----------------0-----------|


E|----0-----0-----0-----0-----0-----0-----0-----0--|----0-----0-----0-----0-----0-----0-----0-----0--|
B|-------------------------------------------------|-0-----0-----0-----0-----1-----1-----1-----1-----|
G|-2-----2-----2-----2-----3-----3-----3-----3-----|-------------------------------------------------|
D|-------------------------------------------------|-0-----------------------1-----------------------|
A|-3-----------------------4-----------------------|-------------------------------------------------|
E|-------------0-----0-----------------0-----------|-------------0-----0-----------------0-----------|


E|----0-----0-----0-----0-----0-----0-----5-----5--|----5-----5-----4-----4-----2-----2-----0-----0--|
B|-2-----2-----2-----2-----2-----2-----2-----2-----|-3-----3-----3-----3-----3-----3-----3-----3-----|
G|-------------------------------------------------|-------------------------------------------------|
D|-------------------------------------------------|-------------------------------------------------|
A|-0-----------------------0-----------------------|-2-----------------------2-----------------------|
E|-------------0-----0-----------------0-----------|-------------0-----0-----------------0-----------|


E|----0-----0-----0-----0-----9-----9-----5-----5--|----5-----5-----4-----4-----2-----2-----0-----0--|
B|-2-----2-----2-----2-----5-----5-----2-----2-----|-3-----3-----3-----3-----3-----3-----3-----3-----|
G|-------------------------------------------------|-------------------------------------------------|
D|-------------------------------------------------|-------------------------------------------------|
A|-0-----------------------0-----------------------|-2-----------------------2-----------------------|
E|-------------0-----0-----------------0-----------|-------------0-----0-----------------0-----------|


E|----0-----0-----0-----0-----2-----2-----0-----0--|----------------------------0-----0--------------|
B|-2-----2-----0-----0-----------------------------|----4-----4-----4-----4-----------------3-----3--|
G|-------------1-----1-----3-----3-----3-----3-----|-2-----2-----2-----2-----1-----1-----1-----1-----|
D|-------------------------4-----------------------|-4-----------------------2-----------------------|
A|-0-----------------------------------------------|-------------2-----2-----------------------------|
E|-------------------------------------2-----------|-------------------------------------0-----------|


E|-------------------------------------------------|----2-----2-----1-----1-----0-----0-----4-----4--|
B|----3-----3-----2-----2-----3-----3-----2-----2--|-------------0-----0-----2-----2-----3-----3-----|
G|-2-----2-----2-----2-----2-----2-----2-----2-----|-2-----2-----------------------------------------|
D|-------------2-----3-----4-----------2-----------|-1-----------0-----0-----2-----------------------|
A|-0-----------------------------------------------|-------------------------------------------------|
E|-------------------------------------------------|-------------------------------------0-----------|


E|----5-----5-----5-----5-----9-----9-----5-----5--|----5-----5-----4-----4-----2-----2-----0-----0--|
B|-2-----2-----2-----2-----5-----5-----2-----2-----|-3-----3-----3-----3-----3-----3-----3-----3-----|
G|-------------------------------------------------|-------------------------------------------------|
D|-------------------------------------------------|-------------------------------------------------|
A|-0-----------------------0-----------------------|-2-----------------------2-----------------------|
E|-------------0-----0-----------------0-----------|-------------0-----0-----------------0-----------|


E|----0-----0-----0-----0-----0-----0-----0-----0--|----0-----0-----0-----0-----0-----0-----0-----0--|
B|-2-----2-----2-----2-----2-----2-----2-----2-----|-3-----3-----3-----3-----3-----3-----3-----3-----|
G|-------------------------------------------------|-------------------------------------------------|
D|-------------------------------------------------|-------------------------------------------------|
A|-0-----------------------4-----------0-----------|-0-----------------------------------------------|
E|-------------0-----0-----------------------------|-------------4-----2-----4-----------0-----------|


E|----0-----0-----2-----2-----------------0-----0--|-------------------------------------------------|
B|-2-----2--------------------3-----3--------------|----2-----2-----0-----0-----3-----3-----0-----0--|
G|-------------3-----3-----4-----4-----1-----1-----|-2-----2-----1-----0-----------------------------|
D|-------------------------------------------------|-------------------------4-----4-----3-----3-----|
A|-0-----------------------2-----------------------|-0-----------0-----0-----5-----------5-----------|
E|-------------2-----2-----------------0-----------|-------------------------------------------------|


E|-------------------------------------------------|----------------9-----9-----5-----5-----7-----7--|
B|----------------------------2-----2--------------|-------------5-----5-----2-----2-----3-----3-----|
G|----2-----2-----2-----2-----------------4-----4--|----2-----2--------------------------------------|
D|-------------------------2-----2-----0-----0-----|-------------------------------------------------|
A|-4-----4-----3-----4-----------------------------|-4-----4-----------------0-----------------------|
E|-0-----------0-----0-----0-----------0-----------|-5-----------0-----0-----------------0-----------|


E|----5-----5-----9-----9-----5-----5-----7-----7--|----5-----5-----5-----5-----5-----5-----9-----9--|
B|-2-----2-----5-----5-----2-----2-----3-----3-----|-2-----2-----2-----2-----2-----2-----5-----5-----|
G|-------------------------------------------------|-------------------------------------------------|
D|-------------------------------------------------|-------------------------------------------------|
A|-------------------------0-----------------------|-0-----------------------0-----------------------|
E|-5-----------0-----0-----------------0-----------|-------------0-----0-----------------0-----------|


E|----9-----9-----12----12----12----12----17----17-|-17--------0---------|-5------|
B|-10----10----14----14----14----14----14----14----|-14--------0---------|-5------|
G|-------------------------------------------------|-----------7---------|-6------|
D|-------------------------------------------------|-----------6---------|-7------|
A|-0-----------------------0-----------------------|-0---------7---------|-7------|
E|-------------0-----0-----------------0-----------|---------------------|-5------|





Track 2: Untitled

G|--------|--------|--------|--------|--------|--------|--------|--------|--------|
D|--------|--------|--------|--------|--------|--------|--------|--------|--------|
A|--------|--------|--------|--------|--------|--------|--------|--------|--------|
E|--------|--------|--------|--------|--------|--------|--------|--------|--------|


G|--------|--------|--------|--------|--------|--------|--------|--------|--------|
D|--------|--------|--------|--------|--------|--------|--------|--------|--------|
A|--------|--------|--------|--------|--------|--------|--------|--------|--------|
E|--------|--------|--------|--------|--------|--------|--------|--------|--------|


G|--------|--------|--------|--------|--------|--------|--------|--------|--------|
D|--------|--------|--------|--------|--------|--------|--------|--------|--------|
A|--------|--------|--------|--------|--------|--------|--------|--------|--------|
E|--------|--------|--------|--------|--------|--------|--------|--------|--------|


G|--------|--------|--------|--------|--------|--------|--------|--------|--------|
D|--------|--------|--------|--------|--------|--------|--------|--------|--------|
A|--------|--------|--------|--------|--------|--------|--------|--------|--------|
E|--------|--------|--------|--------|--------|--------|--------|--------|--------|


G|--------|--------|--------|--------|--------|--------|--------|--------|--------|
D|--------|--------|--------|--------|--------|--------|--------|--------|--------|
A|--------|--------|--------|--------|--------|--------|--------|--------|--------|
E|--------|--------|--------|--------|--------|--------|--------|--------|--------|


G|--------|--------|--------|--------|--------|--------|--------|--------|--------|
D|--------|--------|--------|--------|--------|--------|--------|--------|--------|
A|--------|--------|--------|--------|--------|--------|--------|--------|--------|
E|--------|--------|--------|--------|--------|--------|--------|--------|--------|


G|--------|--------|--------|--------|--------|--------|--------|--------|--------|
D|--------|--------|--------|--------|--------|--------|--------|--------|--------|
A|--------|--------|--------|--------|--------|--------|--------|--------|--------|
E|--------|--------|--------|--------|--------|--------|--------|--------|--------|


G|--------|--------|--------|--------|--------|
D|--------|--------|--------|--------|--------|
A|--------|--------|--------|--------|--------|
E|--------|--------|--------|--------|--------|