Site menu:

    

Browse: 0-9 A B C D E F G H I J K L N O P Q R S T U V W X Y Z

los prisioneros - el baile de los que sobran:



Title: El Baile De Los Que Sobran
Artist: 
Album: Ni Por La Razon, Ni Por La Fuerza
Author: Jorge Gonzáles


Track 1: E.guitar

E|-0---0---0--0----0--0--0---0--0------|-3---3---3--3----3--3--3---3--3---3--|-0---0---0--0----0--0--0---0--0------|
B|-1---1---1--1----1--1--1---1--1------|-3---3---3--3----3--3--3---3--3---3--|-1---1---1--1----1--1--1---1--1------|
G|-0---0---0--0----0--0--0---0--0------|-0---0---0--0----0--0--0---0--0---0--|-0---0---0--0----0--0--0---0--0------|
D|-2---2---2--2----2--2--2---2--2------|-0---0---0--0----0--0--0---0--0---0--|-2---2---2--2----2--2--2---2--2------|
A|-------------------------------------|-------------------------------------|-------------------------------------|
E|-------------------------------------|-------------------------------------|-------------------------------------|


E|-------------------------------------|-0---0---0--0----0--0--0---0--0------|-3---3---3--3----3--3--3---3--3---3--|
B|-1---1---1--1----1--1--1---1--1------|-1---1---1--1----1--1--1---1--1------|-3---3---3--3----3--3--3---3--3---3--|
G|-2---2---2--2----2--2--2---2--2------|-0---0---0--0----0--0--0---0--0------|-0---0---0--0----0--0--0---0--0---0--|
D|-3---3---3--3----3--3--3---3--3------|-2---2---2--2----2--2--2---2--2------|-0---0---0--0----0--0--0---0--0---0--|
A|-3---3---3--3----3--3--3---3--3------|-------------------------------------|-------------------------------------|
E|-1---1---1--1----1--1--1---1--1------|-------------------------------------|-------------------------------------|


E|-0---0---0--0----0--0--0---0--0------|-------------------------------------|-0---0---0--0----0--0--0---0--0------|
B|-1---1---1--1----1--1--1---1--1------|-1---1---1--1----1--1--1---1--1------|-1---1---1--1----1--1--1---1--1------|
G|-0---0---0--0----0--0--0---0--0------|-2---2---2--2----2--2--2---2--2------|-0---0---0--0----0--0--0---0--0------|
D|-2---2---2--2----2--2--2---2--2------|-3---3---3--3----3--3--3---3--3------|-2---2---2--2----2--2--2---2--2------|
A|-------------------------------------|-3---3---3--3----3--3--3---3--3------|-------------------------------------|
E|-------------------------------------|-1---1---1--1----1--1--1---1--1------|-------------------------------------|


E|-3---3---3--3----3--3--3---3--3---3--|-0---0---0--0----0--0--0---0--0------|-------------------------------------|
B|-3---3---3--3----3--3--3---3--3---3--|-1---1---1--1----1--1--1---1--1------|-1---1---1--1----1--1--1---1--1------|
G|-0---0---0--0----0--0--0---0--0---0--|-0---0---0--0----0--0--0---0--0------|-2---2---2--2----2--2--2---2--2------|
D|-0---0---0--0----0--0--0---0--0---0--|-2---2---2--2----2--2--2---2--2------|-3---3---3--3----3--3--3---3--3------|
A|-------------------------------------|-------------------------------------|-3---3---3--3----3--3--3---3--3------|
E|-------------------------------------|-------------------------------------|-1---1---1--1----1--1--1---1--1------|


E|--------|--------|--------|--------|--------|--------|--------|--------|--------|
B|--------|--------|--------|--------|--------|--------|--------|--------|--------|
G|--------|--------|--------|--------|--------|--------|--------|--------|--------|
D|--------|--------|--------|--------|--------|--------|--------|--------|--------|
A|--------|--------|--------|--------|--------|--------|--------|--------|--------|
E|--------|--------|--------|--------|--------|--------|--------|--------|--------|


E|--------|--------|--------|--------|--------|--------|--------|--------|--------|
B|--------|--------|--------|--------|--------|--------|--------|--------|--------|
G|--------|--------|--------|--------|--------|--------|--------|--------|--------|
D|--------|--------|--------|--------|--------|--------|--------|--------|--------|
A|--------|--------|--------|--------|--------|--------|--------|--------|--------|
E|--------|--------|--------|--------|--------|--------|--------|--------|--------|


E|--------|--------|--------|-0---0---0--0----0--0--0---0--0------|-3---3---3--3----3--3--3---3--3---3--|
B|--------|--------|--------|-1---1---1--1----1--1--1---1--1------|-3---3---3--3----3--3--3---3--3---3--|
G|--------|--------|--------|-0---0---0--0----0--0--0---0--0------|-0---0---0--0----0--0--0---0--0---0--|
D|--------|--------|--------|-2---2---2--2----2--2--2---2--2------|-0---0---0--0----0--0--0---0--0---0--|
A|--------|--------|--------|-------------------------------------|-------------------------------------|
E|--------|--------|--------|-------------------------------------|-------------------------------------|


E|-0---0---0--0----0--0--0---0--0------|-------------------------------------|-0---0---0--0----0--0--0---0--0------|
B|-1---1---1--1----1--1--1---1--1------|-1---1---1--1----1--1--1---1--1------|-1---1---1--1----1--1--1---1--1------|
G|-0---0---0--0----0--0--0---0--0------|-2---2---2--2----2--2--2---2--2------|-0---0---0--0----0--0--0---0--0------|
D|-2---2---2--2----2--2--2---2--2------|-3---3---3--3----3--3--3---3--3------|-2---2---2--2----2--2--2---2--2------|
A|-------------------------------------|-3---3---3--3----3--3--3---3--3------|-------------------------------------|
E|-------------------------------------|-1---1---1--1----1--1--1---1--1------|-------------------------------------|


E|-3---3---3--3----3--3--3---3--3---3--|-0---0---0--0----0--0--0---0--0------|-------------------------------------|
B|-3---3---3--3----3--3--3---3--3---3--|-1---1---1--1----1--1--1---1--1------|-1---1---1--1----1--1--1---1--1------|
G|-0---0---0--0----0--0--0---0--0---0--|-0---0---0--0----0--0--0---0--0------|-2---2---2--2----2--2--2---2--2------|
D|-0---0---0--0----0--0--0---0--0---0--|-2---2---2--2----2--2--2---2--2------|-3---3---3--3----3--3--3---3--3------|
A|-------------------------------------|-------------------------------------|-3---3---3--3----3--3--3---3--3------|
E|-------------------------------------|-------------------------------------|-1---1---1--1----1--1--1---1--1------|


E|-0---0---0--0----0--0--0---0--0------|-3---3---3--3----3--3--3---3--3---3--|-0---0---0--0----0--0--0---0--0------|
B|-1---1---1--1----1--1--1---1--1------|-3---3---3--3----3--3--3---3--3---3--|-1---1---1--1----1--1--1---1--1------|
G|-0---0---0--0----0--0--0---0--0------|-0---0---0--0----0--0--0---0--0---0--|-0---0---0--0----0--0--0---0--0------|
D|-2---2---2--2----2--2--2---2--2------|-0---0---0--0----0--0--0---0--0---0--|-2---2---2--2----2--2--2---2--2------|
A|-------------------------------------|-------------------------------------|-------------------------------------|
E|-------------------------------------|-------------------------------------|-------------------------------------|


E|-------------------------------------|-0---0---0--0----0--0--0---0--0------|-3---3---3--3----3--3--3---3--3---3--|
B|-1---1---1--1----1--1--1---1--1------|-1---1---1--1----1--1--1---1--1------|-3---3---3--3----3--3--3---3--3---3--|
G|-2---2---2--2----2--2--2---2--2------|-0---0---0--0----0--0--0---0--0------|-0---0---0--0----0--0--0---0--0---0--|
D|-3---3---3--3----3--3--3---3--3------|-2---2---2--2----2--2--2---2--2------|-0---0---0--0----0--0--0---0--0---0--|
A|-3---3---3--3----3--3--3---3--3------|-------------------------------------|-------------------------------------|
E|-1---1---1--1----1--1--1---1--1------|-------------------------------------|-------------------------------------|


E|-0---0---0--0----0--0--0---0--0------|-------------------------------------|--------|
B|-1---1---1--1----1--1--1---1--1------|-1---1---1--1----1--1--1---1--1------|--------|
G|-0---0---0--0----0--0--0---0--0------|-2---2---2--2----2--2--2---2--2------|--------|
D|-2---2---2--2----2--2--2---2--2------|-3---3---3--3----3--3--3---3--3------|--------|
A|-------------------------------------|-3---3---3--3----3--3--3---3--3------|--------|
E|-------------------------------------|-1---1---1--1----1--1--1---1--1------|--------|


E|--------|--------|--------|--------|--------|--------|--------|--------|--------|
B|--------|--------|--------|--------|--------|--------|--------|--------|--------|
G|--------|--------|--------|--------|--------|--------|--------|--------|--------|
D|--------|--------|--------|--------|--------|--------|--------|--------|--------|
A|--------|--------|--------|--------|--------|--------|--------|--------|--------|
E|--------|--------|--------|--------|--------|--------|--------|--------|--------|


E|--------|--------|--------|--------|--------|--------|--------|--------|--------|
B|--------|--------|--------|--------|--------|--------|--------|--------|--------|
G|--------|--------|--------|--------|--------|--------|--------|--------|--------|
D|--------|--------|--------|--------|--------|--------|--------|--------|--------|
A|--------|--------|--------|--------|--------|--------|--------|--------|--------|
E|--------|--------|--------|--------|--------|--------|--------|--------|--------|


E|--------|--------|--------|--------|--------|-0---0---0--0----0--0--0---0--0------|
B|--------|--------|--------|--------|--------|-1---1---1--1----1--1--1---1--1------|
G|--------|--------|--------|--------|--------|-0---0---0--0----0--0--0---0--0------|
D|--------|--------|--------|--------|--------|-2---2---2--2----2--2--2---2--2------|
A|--------|--------|--------|--------|--------|-------------------------------------|
E|--------|--------|--------|--------|--------|-------------------------------------|


E|-3---3---3--3----3--3--3---3--3---3--|-0---0---0--0----0--0--0---0--0------|-------------------------------------|
B|-3---3---3--3----3--3--3---3--3---3--|-1---1---1--1----1--1--1---1--1------|-1---1---1--1----1--1--1---1--1------|
G|-0---0---0--0----0--0--0---0--0---0--|-0---0---0--0----0--0--0---0--0------|-2---2---2--2----2--2--2---2--2------|
D|-0---0---0--0----0--0--0---0--0---0--|-2---2---2--2----2--2--2---2--2------|-3---3---3--3----3--3--3---3--3------|
A|-------------------------------------|-------------------------------------|-3---3---3--3----3--3--3---3--3------|
E|-------------------------------------|-------------------------------------|-1---1---1--1----1--1--1---1--1------|


E|-0---0---0--0----0--0--0---0--0------|-3---3---3--3----3--3--3---3--3---3--|-0---0---0--0----0--0--0---0--0------|
B|-1---1---1--1----1--1--1---1--1------|-3---3---3--3----3--3--3---3--3---3--|-1---1---1--1----1--1--1---1--1------|
G|-0---0---0--0----0--0--0---0--0------|-0---0---0--0----0--0--0---0--0---0--|-0---0---0--0----0--0--0---0--0------|
D|-2---2---2--2----2--2--2---2--2------|-0---0---0--0----0--0--0---0--0---0--|-2---2---2--2----2--2--2---2--2------|
A|-------------------------------------|-------------------------------------|-------------------------------------|
E|-------------------------------------|-------------------------------------|-------------------------------------|


E|-------------------------------------|--------|--------|--------|--------|--------|
B|-1---1---1--1----1--1--1---1--1------|--------|--------|--------|--------|--------|
G|-2---2---2--2----2--2--2---2--2------|--------|--------|--------|--------|--------|
D|-3---3---3--3----3--3--3---3--3------|--------|--------|--------|--------|--------|
A|-3---3---3--3----3--3--3---3--3------|--------|--------|--------|--------|--------|
E|-1---1---1--1----1--1--1---1--1------|--------|--------|--------|--------|--------|


E|--------|--------|--------|--------|--------|--------|--------|--------|--------|
B|--------|--------|--------|--------|--------|--------|--------|--------|--------|
G|--------|--------|--------|--------|--------|--------|--------|--------|--------|
D|--------|--------|--------|--------|--------|--------|--------|--------|--------|
A|--------|--------|--------|--------|--------|--------|--------|--------|--------|
E|--------|--------|--------|--------|--------|--------|--------|--------|--------|


E|--------|--------|--------|--------|--------|--------|--------|--------|--------|
B|--------|--------|--------|--------|--------|--------|--------|--------|--------|
G|--------|--------|--------|--------|--------|--------|--------|--------|--------|
D|--------|--------|--------|--------|--------|--------|--------|--------|--------|
A|--------|--------|--------|--------|--------|--------|--------|--------|--------|
E|--------|--------|--------|--------|--------|--------|--------|--------|--------|


E|--------|--------|--------|--------|--------|--------|--------|--------|--------|
B|--------|--------|--------|--------|--------|--------|--------|--------|--------|
G|--------|--------|--------|--------|--------|--------|--------|--------|--------|
D|--------|--------|--------|--------|--------|--------|--------|--------|--------|
A|--------|--------|--------|--------|--------|--------|--------|--------|--------|
E|--------|--------|--------|--------|--------|--------|--------|--------|--------|


E|--------|--------|--------|--------|--------|--------|--------|--------|--------|
B|--------|--------|--------|--------|--------|--------|--------|--------|--------|
G|--------|--------|--------|--------|--------|--------|--------|--------|--------|
D|--------|--------|--------|--------|--------|--------|--------|--------|--------|
A|--------|--------|--------|--------|--------|--------|--------|--------|--------|
E|--------|--------|--------|--------|--------|--------|--------|--------|--------|


E|--------|--------|--------|--------|--------|--------|--------|--------|--------|
B|--------|--------|--------|--------|--------|--------|--------|--------|--------|
G|--------|--------|--------|--------|--------|--------|--------|--------|--------|
D|--------|--------|--------|--------|--------|--------|--------|--------|--------|
A|--------|--------|--------|--------|--------|--------|--------|--------|--------|
E|--------|--------|--------|--------|--------|--------|--------|--------|--------|


E|--------|--------|--------|--------|--------|--------|--------|--------|--------|
B|--------|--------|--------|--------|--------|--------|--------|--------|--------|
G|--------|--------|--------|--------|--------|--------|--------|--------|--------|
D|--------|--------|--------|--------|--------|--------|--------|--------|--------|
A|--------|--------|--------|--------|--------|--------|--------|--------|--------|
E|--------|--------|--------|--------|--------|--------|--------|--------|--------|


E|--------|--------|--------|--------|--------|--------|--------|--------|--------|
B|--------|--------|--------|--------|--------|--------|--------|--------|--------|
G|--------|--------|--------|--------|--------|--------|--------|--------|--------|
D|--------|--------|--------|--------|--------|--------|--------|--------|--------|
A|--------|--------|--------|--------|--------|--------|--------|--------|--------|
E|--------|--------|--------|--------|--------|--------|--------|--------|--------|


E|--------|--------|--------|--------|--------|--------|
B|--------|--------|--------|--------|--------|--------|
G|--------|--------|--------|--------|--------|--------|
D|--------|--------|--------|--------|--------|--------|
A|--------|--------|--------|--------|--------|--------|
E|--------|--------|--------|--------|--------|--------|





Track 2: Harmonica arrg. for guitar

E|--------|--------|--------|--------|--------|--------|--------|--------|--------|
B|--------|--------|--------|--------|--------|--------|--------|--------|--------|
G|--------|--------|--------|--------|--------|--------|--------|--------|--------|
D|--------|--------|--------|--------|--------|--------|--------|--------|--------|
A|--------|--------|--------|--------|--------|--------|--------|--------|--------|
E|--------|--------|--------|--------|--------|--------|--------|--------|--------|


E|--------|--------|--------|------------0----------|-------------|---------0----0---------|
B|--------|--------|--------|-----------------1-----|-1-----------|-------------------1----|
G|--------|--------|--------|--------0--------------|-------------|-----0------------------|
D|--------|--------|--------|-----------------------|-------------|------------------------|
A|--------|--------|--------|----3------------------|-------------|-3----------------------|
E|--------|--------|--------|-----------------------|-------------|------------------------|


E|----------------|-0---0---0--0----0--0--0---0--0------|-3---3---3--3----3--3--3---3--3---3--|
B|-1---3----------|-1---1---1--1----1--1--1---1--1------|-3---3---3--3----3--3--3---3--3---3--|
G|---------2------|-0---0---0--0----0--0--0---0--0------|-0---0---0--0----0--0--0---0--0---0--|
D|----------------|-2---2---2--2----2--2--2---2--2------|-0---0---0--0----0--0--0---0--0---0--|
A|----------------|-------------------------------------|-------------------------------------|
E|----------------|-------------------------------------|-------------------------------------|


E|-0---0---0--0----0--0--0---0--0------|-------------------------------------|-0---0---0--0----0--0--0---0--0------|
B|-1---1---1--1----1--1--1---1--1------|-1---1---1--1----1--1--1---1--1------|-1---1---1--1----1--1--1---1--1------|
G|-0---0---0--0----0--0--0---0--0------|-2---2---2--2----2--2--2---2--2------|-0---0---0--0----0--0--0---0--0------|
D|-2---2---2--2----2--2--2---2--2------|-3---3---3--3----3--3--3---3--3------|-2---2---2--2----2--2--2---2--2------|
A|-------------------------------------|-3---3---3--3----3--3--3---3--3------|-------------------------------------|
E|-------------------------------------|-1---1---1--1----1--1--1---1--1------|-------------------------------------|


E|-3---3---3--3----3--3--3---3--3---3--|-0---0---0--0----0--0--0---0--0------|-------------------------------------|
B|-3---3---3--3----3--3--3---3--3---3--|-1---1---1--1----1--1--1---1--1------|-1---1---1--1----1--1--1---1--1------|
G|-0---0---0--0----0--0--0---0--0---0--|-0---0---0--0----0--0--0---0--0------|-2---2---2--2----2--2--2---2--2------|
D|-0---0---0--0----0--0--0---0--0---0--|-2---2---2--2----2--2--2---2--2------|-3---3---3--3----3--3--3---3--3------|
A|-------------------------------------|-------------------------------------|-3---3---3--3----3--3--3---3--3------|
E|-------------------------------------|-------------------------------------|-1---1---1--1----1--1--1---1--1------|


E|--------|--------|--------|--------|--------|--------|--------|--------|--------|
B|--------|--------|--------|--------|--------|--------|--------|--------|--------|
G|--------|--------|--------|--------|--------|--------|--------|--------|--------|
D|--------|--------|--------|--------|--------|--------|--------|--------|--------|
A|--------|--------|--------|--------|--------|--------|--------|--------|--------|
E|--------|--------|--------|--------|--------|--------|--------|--------|--------|


E|--------|--------|--------|--------|--------|--------|--------|--------|--------|
B|--------|--------|--------|--------|--------|--------|--------|--------|--------|
G|--------|--------|--------|--------|--------|--------|--------|--------|--------|
D|--------|--------|--------|--------|--------|--------|--------|--------|--------|
A|--------|--------|--------|--------|--------|--------|--------|--------|--------|
E|--------|--------|--------|--------|--------|--------|--------|--------|--------|


E|--------|--------|--------|--------|--------|--------|--------|--------|--------|
B|--------|--------|--------|--------|--------|--------|--------|--------|--------|
G|--------|--------|--------|--------|--------|--------|--------|--------|--------|
D|--------|--------|--------|--------|--------|--------|--------|--------|--------|
A|--------|--------|--------|--------|--------|--------|--------|--------|--------|
E|--------|--------|--------|--------|--------|--------|--------|--------|--------|


E|--------|--------|--------|--------|--------|--------|--------|--------|--------|
B|--------|--------|--------|--------|--------|--------|--------|--------|--------|
G|--------|--------|--------|--------|--------|--------|--------|--------|--------|
D|--------|--------|--------|--------|--------|--------|--------|--------|--------|
A|--------|--------|--------|--------|--------|--------|--------|--------|--------|
E|--------|--------|--------|--------|--------|--------|--------|--------|--------|


E|--------|--------|--------|--------|--------|--------|--------|--------|--------|
B|--------|--------|--------|--------|--------|--------|--------|--------|--------|
G|--------|--------|--------|--------|--------|--------|--------|--------|--------|
D|--------|--------|--------|--------|--------|--------|--------|--------|--------|
A|--------|--------|--------|--------|--------|--------|--------|--------|--------|
E|--------|--------|--------|--------|--------|--------|--------|--------|--------|


E|--------|--------|--------|--------|--------|--------|--------|--------|--------|
B|--------|--------|--------|--------|--------|--------|--------|--------|--------|
G|--------|--------|--------|--------|--------|--------|--------|--------|--------|
D|--------|--------|--------|--------|--------|--------|--------|--------|--------|
A|--------|--------|--------|--------|--------|--------|--------|--------|--------|
E|--------|--------|--------|--------|--------|--------|--------|--------|--------|


E|--------|--------|--------|--------|--------|--------|--------|--------|--------|
B|--------|--------|--------|--------|--------|--------|--------|--------|--------|
G|--------|--------|--------|--------|--------|--------|--------|--------|--------|
D|--------|--------|--------|--------|--------|--------|--------|--------|--------|
A|--------|--------|--------|--------|--------|--------|--------|--------|--------|
E|--------|--------|--------|--------|--------|--------|--------|--------|--------|


E|--------|--------|--------|--------|--------|--------|--------|--------|--------|
B|--------|--------|--------|--------|--------|--------|--------|--------|--------|
G|--------|--------|--------|--------|--------|--------|--------|--------|--------|
D|--------|--------|--------|--------|--------|--------|--------|--------|--------|
A|--------|--------|--------|--------|--------|--------|--------|--------|--------|
E|--------|--------|--------|--------|--------|--------|--------|--------|--------|


E|--------|--------|--------|--------|--------|--------|--------|--------|--------|
B|--------|--------|--------|--------|--------|--------|--------|--------|--------|
G|--------|--------|--------|--------|--------|--------|--------|--------|--------|
D|--------|--------|--------|--------|--------|--------|--------|--------|--------|
A|--------|--------|--------|--------|--------|--------|--------|--------|--------|
E|--------|--------|--------|--------|--------|--------|--------|--------|--------|


E|--------|--------|--------|--------|--------|--------|--------|--------|--------|
B|--------|--------|--------|--------|--------|--------|--------|--------|--------|
G|--------|--------|--------|--------|--------|--------|--------|--------|--------|
D|--------|--------|--------|--------|--------|--------|--------|--------|--------|
A|--------|--------|--------|--------|--------|--------|--------|--------|--------|
E|--------|--------|--------|--------|--------|--------|--------|--------|--------|


E|--------|--------|--------|--------|--------|--------|--------|--------|--------|
B|--------|--------|--------|--------|--------|--------|--------|--------|--------|
G|--------|--------|--------|--------|--------|--------|--------|--------|--------|
D|--------|--------|--------|--------|--------|--------|--------|--------|--------|
A|--------|--------|--------|--------|--------|--------|--------|--------|--------|
E|--------|--------|--------|--------|--------|--------|--------|--------|--------|


E|--------|--------|--------|--------|--------|--------|--------|--------|--------|
B|--------|--------|--------|--------|--------|--------|--------|--------|--------|
G|--------|--------|--------|--------|--------|--------|--------|--------|--------|
D|--------|--------|--------|--------|--------|--------|--------|--------|--------|
A|--------|--------|--------|--------|--------|--------|--------|--------|--------|
E|--------|--------|--------|--------|--------|--------|--------|--------|--------|


E|--------|--------|--------|--------|--------|--------|--------|--------|--------|
B|--------|--------|--------|--------|--------|--------|--------|--------|--------|
G|--------|--------|--------|--------|--------|--------|--------|--------|--------|
D|--------|--------|--------|--------|--------|--------|--------|--------|--------|
A|--------|--------|--------|--------|--------|--------|--------|--------|--------|
E|--------|--------|--------|--------|--------|--------|--------|--------|--------|


E|--------|--------|--------|--------|--------|--------|--------|--------|--------|
B|--------|--------|--------|--------|--------|--------|--------|--------|--------|
G|--------|--------|--------|--------|--------|--------|--------|--------|--------|
D|--------|--------|--------|--------|--------|--------|--------|--------|--------|
A|--------|--------|--------|--------|--------|--------|--------|--------|--------|
E|--------|--------|--------|--------|--------|--------|--------|--------|--------|


E|--------|--------|--------|--------|--------|
B|--------|--------|--------|--------|--------|
G|--------|--------|--------|--------|--------|
D|--------|--------|--------|--------|--------|
A|--------|--------|--------|--------|--------|
E|--------|--------|--------|--------|--------|





Track 3: R.organ arrg. for guitar

E|--------|--------|--------|--------|--------|--------|--------|--------|--------|
B|--------|--------|--------|--------|--------|--------|--------|--------|--------|
G|--------|--------|--------|--------|--------|--------|--------|--------|--------|
D|--------|--------|--------|--------|--------|--------|--------|--------|--------|
A|--------|--------|--------|--------|--------|--------|--------|--------|--------|
E|--------|--------|--------|--------|--------|--------|--------|--------|--------|


E|--------|--------|--------|--------|--------|--------|--------|--------|--------|
B|--------|--------|--------|--------|--------|--------|--------|--------|--------|
G|--------|--------|--------|--------|--------|--------|--------|--------|--------|
D|--------|--------|--------|--------|--------|--------|--------|--------|--------|
A|--------|--------|--------|--------|--------|--------|--------|--------|--------|
E|--------|--------|--------|--------|--------|--------|--------|--------|--------|


E|--------|--------|--------|--------|--------|--------|-------------------------------------|
B|--------|--------|--------|--------|--------|--------|-1---1---1--1----1--1--1---1--1---1--|
G|--------|--------|--------|--------|--------|--------|-------------------------------------|
D|--------|--------|--------|--------|--------|--------|-------------------------------------|
A|--------|--------|--------|--------|--------|--------|-------------------------------------|
E|--------|--------|--------|--------|--------|--------|-------------------------------------|


E|-------------------------------------|-------------------------------------|-------------------------------------|
B|-0---0---0--0----0--0--0---0--0---0--|-1---1---1--1----1--1--1---1--1---1--|-------------------------------------|
G|-------------------------------------|-------------------------------------|-2---2---2--2----2--2--2---2--2---2--|
D|-------------------------------------|-------------------------------------|-------------------------------------|
A|-------------------------------------|-------------------------------------|-------------------------------------|
E|-------------------------------------|-------------------------------------|-------------------------------------|


E|-------------------------------------|-------------------------------------|-------------------------------------|
B|-1---1---1--1----1--1--1---1--1---1--|-0---0---0--0----0--0--0---0--0---0--|-1---1---1--1----1--1--1---1--1---1--|
G|-------------------------------------|-------------------------------------|-------------------------------------|
D|-------------------------------------|-------------------------------------|-------------------------------------|
A|-------------------------------------|-------------------------------------|-------------------------------------|
E|-------------------------------------|-------------------------------------|-------------------------------------|


E|-------------------------------------|--------|--------|--------|--------|--------|
B|-------------------------------------|--------|--------|--------|--------|--------|
G|-2---2---2--2----2--2--2---2--2---2--|--------|--------|--------|--------|--------|
D|-------------------------------------|--------|--------|--------|--------|--------|
A|-------------------------------------|--------|--------|--------|--------|--------|
E|-------------------------------------|--------|--------|--------|--------|--------|


E|--------|--------|--------|--------|--------|--------|--------|--------|--------|
B|--------|--------|--------|--------|--------|--------|--------|--------|--------|
G|--------|--------|--------|--------|--------|--------|--------|--------|--------|
D|--------|--------|--------|--------|--------|--------|--------|--------|--------|
A|--------|--------|--------|--------|--------|--------|--------|--------|--------|
E|--------|--------|--------|--------|--------|--------|--------|--------|--------|


E|--------|--------|--------|-0---0---0--0----0--0--0---0--0---0--|-------------------------------------|
B|--------|--------|--------|-1---1---1--1----1--1--1---1--1---1--|-0---0---0--0----0--0--0---0--0---0--|
G|--------|--------|--------|-------------------------------------|-7---7---7--7----7--7--7---7--7---7--|
D|--------|--------|--------|-------------------------------------|-------------------------------------|
A|--------|--------|--------|-------------------------------------|-------------------------------------|
E|--------|--------|--------|-------------------------------------|-------------------------------------|


E|-0---0---0--0----0--0--0---0--0---0--|-------------------------------------|-0---0---0--0----0--0--0---0--0---0--|
B|-1---1---1--1----1--1--1---1--1---1--|-------------------------------------|-1---1---1--1----1--1--1---1--1---1--|
G|-------------------------------------|-2---2---2--2----2--2--2---2--2---2--|-------------------------------------|
D|-------------------------------------|-3---3---3--3----3--3--3---3--3---3--|-------------------------------------|
A|-------------------------------------|-------------------------------------|-------------------------------------|
E|-------------------------------------|-------------------------------------|-------------------------------------|


E|-------------------------------------|-0---0---0--0----0--0--0---0--0---0--|-------------------------------------|
B|-0---0---0--0----0--0--0---0--0---0--|-1---1---1--1----1--1--1---1--1---1--|-------------------------------------|
G|-7---7---7--7----7--7--7---7--7---7--|-------------------------------------|-2---2---2--2----2--2--2---2--2---2--|
D|-------------------------------------|-------------------------------------|-3---3---3--3----3--3--3---3--3---3--|
A|-------------------------------------|-------------------------------------|-------------------------------------|
E|-------------------------------------|-------------------------------------|-------------------------------------|


E|--------|--------|--------|--------|--------|--------|--------|--------|--------|
B|--------|--------|--------|--------|--------|--------|--------|--------|--------|
G|--------|--------|--------|--------|--------|--------|--------|--------|--------|
D|--------|--------|--------|--------|--------|--------|--------|--------|--------|
A|--------|--------|--------|--------|--------|--------|--------|--------|--------|
E|--------|--------|--------|--------|--------|--------|--------|--------|--------|


E|--------|--------|--------|--------|--------|--------|--------|--------|--------|
B|--------|--------|--------|--------|--------|--------|--------|--------|--------|
G|--------|--------|--------|--------|--------|--------|--------|--------|--------|
D|--------|--------|--------|--------|--------|--------|--------|--------|--------|
A|--------|--------|--------|--------|--------|--------|--------|--------|--------|
E|--------|--------|--------|--------|--------|--------|--------|--------|--------|


E|--------|--------|--------|--------|--------|--------|-0---0---0--0----0--0--0---0--0---0--|
B|--------|--------|--------|--------|--------|--------|-1---1---1--1----1--1--1---1--1---1--|
G|--------|--------|--------|--------|--------|--------|-------------------------------------|
D|--------|--------|--------|--------|--------|--------|-------------------------------------|
A|--------|--------|--------|--------|--------|--------|-------------------------------------|
E|--------|--------|--------|--------|--------|--------|-------------------------------------|


E|-------------------------------------|-0---0---0--0----0--0--0---0--0---0--|-------------------------------------|
B|-0---0---0--0----0--0--0---0--0---0--|-1---1---1--1----1--1--1---1--1---1--|-------------------------------------|
G|-7---7---7--7----7--7--7---7--7---7--|-------------------------------------|-2---2---2--2----2--2--2---2--2---2--|
D|-------------------------------------|-------------------------------------|-3---3---3--3----3--3--3---3--3---3--|
A|-------------------------------------|-------------------------------------|-------------------------------------|
E|-------------------------------------|-------------------------------------|-------------------------------------|


E|-0---0---0--0----0--0--0---0--0---0--|-------------------------------------|-0---0---0--0----0--0--0---0--0---0--|
B|-1---1---1--1----1--1--1---1--1---1--|-0---0---0--0----0--0--0---0--0---0--|-1---1---1--1----1--1--1---1--1---1--|
G|-------------------------------------|-7---7---7--7----7--7--7---7--7---7--|-------------------------------------|
D|-------------------------------------|-------------------------------------|-------------------------------------|
A|-------------------------------------|-------------------------------------|-------------------------------------|
E|-------------------------------------|-------------------------------------|-------------------------------------|


E|-------------------------------------|-0---0---0--0----0--0--0---0--0---0--|-------------------------------------|
B|-------------------------------------|-1---1---1--1----1--1--1---1--1---1--|-0---0---0--0----0--0--0---0--0---0--|
G|-2---2---2--2----2--2--2---2--2---2--|-------------------------------------|-7---7---7--7----7--7--7---7--7---7--|
D|-3---3---3--3----3--3--3---3--3---3--|-------------------------------------|-------------------------------------|
A|-------------------------------------|-------------------------------------|-------------------------------------|
E|-------------------------------------|-------------------------------------|-------------------------------------|


E|-0---0---0--0----0--0--0---0--0---0--|-------------------------------------|-0---0---0--0----0--0--0---0--0---0--|
B|-1---1---1--1----1--1--1---1--1---1--|-------------------------------------|-1---1---1--1----1--1--1---1--1---1--|
G|-------------------------------------|-2---2---2--2----2--2--2---2--2---2--|-------------------------------------|
D|-------------------------------------|-3---3---3--3----3--3--3---3--3---3--|-------------------------------------|
A|-------------------------------------|-------------------------------------|-------------------------------------|
E|-------------------------------------|-------------------------------------|-------------------------------------|


E|-------------------------------------|-0---0---0--0----0--0--0---0--0---0--|-------------------------------------|
B|-0---0---0--0----0--0--0---0--0---0--|-1---1---1--1----1--1--1---1--1---1--|-------------------------------------|
G|-7---7---7--7----7--7--7---7--7---7--|-------------------------------------|-2---2---2--2----2--2--2---2--2---2--|
D|-------------------------------------|-------------------------------------|-3---3---3--3----3--3--3---3--3---3--|
A|-------------------------------------|-------------------------------------|-------------------------------------|
E|-------------------------------------|-------------------------------------|-------------------------------------|


E|-0---0---0--0----0--0--0---0--0---0--|-------------------------------------|-0---0---0--0----0--0--0---0--0---0--|
B|-1---1---1--1----1--1--1---1--1---1--|-0---0---0--0----0--0--0---0--0---0--|-1---1---1--1----1--1--1---1--1---1--|
G|-------------------------------------|-7---7---7--7----7--7--7---7--7---7--|-------------------------------------|
D|-------------------------------------|-------------------------------------|-------------------------------------|
A|-------------------------------------|-------------------------------------|-------------------------------------|
E|-------------------------------------|-------------------------------------|-------------------------------------|


E|-------------------------------------|-0---0---0--0----0--0--0---0--0---0--|-------------------------------------|
B|-------------------------------------|-1---1---1--1----1--1--1---1--1---1--|-0---0---0--0----0--0--0---0--0---0--|
G|-2---2---2--2----2--2--2---2--2---2--|-------------------------------------|-7---7---7--7----7--7--7---7--7---7--|
D|-3---3---3--3----3--3--3---3--3---3--|-------------------------------------|-------------------------------------|
A|-------------------------------------|-------------------------------------|-------------------------------------|
E|-------------------------------------|-------------------------------------|-------------------------------------|


E|-0---0---0--0----0--0--0---0--0---0--|-------------------------------------|--------|
B|-1---1---1--1----1--1--1---1--1---1--|-------------------------------------|--------|
G|-------------------------------------|-2---2---2--2----2--2--2---2--2---2--|--------|
D|-------------------------------------|-3---3---3--3----3--3--3---3--3---3--|--------|
A|-------------------------------------|-------------------------------------|--------|
E|-------------------------------------|-------------------------------------|--------|


E|--------|--------|--------|--------|--------|--------|--------|--------|-------------------------|
B|--------|--------|--------|--------|--------|--------|--------|--------|-1--1---1----1--0--1-----|
G|--------|--------|--------|--------|--------|--------|--------|--------|-------------------------|
D|--------|--------|--------|--------|--------|--------|--------|--------|-------------------------|
A|--------|--------|--------|--------|--------|--------|--------|--------|-------------------------|
E|--------|--------|--------|--------|--------|--------|--------|--------|-------------------------|


E|---------------------|-------------------------|---------------------|-------------------------|
B|-0----0----0---------|-1--1---1----1--0--1-----|-0----0----0---------|-1--1---1----1--0--1-----|
G|----------------2----|-------------------------|----------------2----|-------------------------|
D|---------------------|-------------------------|---------------------|-------------------------|
A|---------------------|-------------------------|---------------------|-------------------------|
E|---------------------|-------------------------|---------------------|-------------------------|


E|---------------------|-------------------------|---------------------|-------------------------|
B|-0----0----0---------|-1--1---1----1--0--1-----|-0----0----0---------|-1--1---1----1--0--1-----|
G|----------------2----|-------------------------|----------------2----|-------------------------|
D|---------------------|-------------------------|---------------------|-------------------------|
A|---------------------|-------------------------|---------------------|-------------------------|
E|---------------------|-------------------------|---------------------|-------------------------|


E|---------------------|-------------------------|---------------------|-------------------------|
B|-0----0----0---------|-1--1---1----1--0--1-----|-0----0----0---------|-1--1---1----1--0--1-----|
G|----------------2----|-------------------------|----------------2----|-------------------------|
D|---------------------|-------------------------|---------------------|-------------------------|
A|---------------------|-------------------------|---------------------|-------------------------|
E|---------------------|-------------------------|---------------------|-------------------------|


E|---------------------|-------------------------|---------------------|-------------------------|
B|-0----0----0---------|-1--1---1----1--0--1-----|-0----0----0---------|-1--1---1----1--0--1-----|
G|----------------2----|-------------------------|----------------2----|-------------------------|
D|---------------------|-------------------------|---------------------|-------------------------|
A|---------------------|-------------------------|---------------------|-------------------------|
E|---------------------|-------------------------|---------------------|-------------------------|


E|---------------------|-------------------------|---------------------|-------------------------|
B|-0----0----0---------|-1--1---1----1--0--1-----|-0----0----0---------|-1--1---1----1--0--1-----|
G|----------------2----|-------------------------|----------------2----|-------------------------|
D|---------------------|-------------------------|---------------------|-------------------------|
A|---------------------|-------------------------|---------------------|-------------------------|
E|---------------------|-------------------------|---------------------|-------------------------|


E|---------------------|-------------------------|---------------------|-------------------------|
B|-0----0----0---------|-1--1---1----1--0--1-----|-0----0----0---------|-1--1---1----1--0--1-----|
G|----------------2----|-------------------------|----------------2----|-------------------------|
D|---------------------|-------------------------|---------------------|-------------------------|
A|---------------------|-------------------------|---------------------|-------------------------|
E|---------------------|-------------------------|---------------------|-------------------------|


E|---------------------|-------------------------|---------------------|-------------------------|
B|-0----0----0---------|-1--1---1----1--0--1-----|-0----0----0---------|-1--1---1----1--0--1-----|
G|----------------2----|-------------------------|----------------2----|-------------------------|
D|---------------------|-------------------------|---------------------|-------------------------|
A|---------------------|-------------------------|---------------------|-------------------------|
E|---------------------|-------------------------|---------------------|-------------------------|


E|---------------------|-------------------------|---------------------|-------------------------|
B|-0----0----0---------|-1--1---1----1--0--1-----|-0----0----0---------|-1--1---1----1--0--1-----|
G|----------------2----|-------------------------|----------------2----|-------------------------|
D|---------------------|-------------------------|---------------------|-------------------------|
A|---------------------|-------------------------|---------------------|-------------------------|
E|---------------------|-------------------------|---------------------|-------------------------|


E|---------------------|-------------------------|---------------------|-------------------------|
B|-0----0----0---------|-1--1---1----1--0--1-----|-0----0----0---------|-1--1---1----1--0--1-----|
G|----------------2----|-------------------------|----------------2----|-------------------------|
D|---------------------|-------------------------|---------------------|-------------------------|
A|---------------------|-------------------------|---------------------|-------------------------|
E|---------------------|-------------------------|---------------------|-------------------------|


E|---------------------|-------------------------|---------------------|--------|
B|-0----0----0---------|-1--1---1----1--0--1-----|-0----0----0---------|--------|
G|----------------2----|-------------------------|----------------2----|--------|
D|---------------------|-------------------------|---------------------|--------|
A|---------------------|-------------------------|---------------------|--------|
E|---------------------|-------------------------|---------------------|--------|





Track 4: low vol guitar

E|--------|--------|--------|--------|--------|--------|--------|--------|--------|
B|--------|--------|--------|--------|--------|--------|--------|--------|--------|
G|--------|--------|--------|--------|--------|--------|--------|--------|--------|
D|--------|--------|--------|--------|--------|--------|--------|--------|--------|
A|--------|--------|--------|--------|--------|--------|--------|--------|--------|
E|--------|--------|--------|--------|--------|--------|--------|--------|--------|


E|--------|--------|--------|--------|--------|--------|--------|--------|--------|
B|--------|--------|--------|--------|--------|--------|--------|--------|--------|
G|--------|--------|--------|--------|--------|--------|--------|--------|--------|
D|--------|--------|--------|--------|--------|--------|--------|--------|--------|
A|--------|--------|--------|--------|--------|--------|--------|--------|--------|
E|--------|--------|--------|--------|--------|--------|--------|--------|--------|


E|--------|--------|--------|--------|--------|--------|--------|--------|--------|
B|--------|--------|--------|--------|--------|--------|--------|--------|--------|
G|--------|--------|--------|--------|--------|--------|--------|--------|--------|
D|--------|--------|--------|--------|--------|--------|--------|--------|--------|
A|--------|--------|--------|--------|--------|--------|--------|--------|--------|
E|--------|--------|--------|--------|--------|--------|--------|--------|--------|


E|--------|--------|--------|--------|--------|--------|--------|--------|--------|
B|--------|--------|--------|--------|--------|--------|--------|--------|--------|
G|--------|--------|--------|--------|--------|--------|--------|--------|--------|
D|--------|--------|--------|--------|--------|--------|--------|--------|--------|
A|--------|--------|--------|--------|--------|--------|--------|--------|--------|
E|--------|--------|--------|--------|--------|--------|--------|--------|--------|


E|--------|--------|--------|--------|--------|--------|--------|--------|--------|
B|--------|--------|--------|--------|--------|--------|--------|--------|--------|
G|--------|--------|--------|--------|--------|--------|--------|--------|--------|
D|--------|--------|--------|--------|--------|--------|--------|--------|--------|
A|--------|--------|--------|--------|--------|--------|--------|--------|--------|
E|--------|--------|--------|--------|--------|--------|--------|--------|--------|


E|--------|--------|--------|--------|--------|--------|--------|--------|--------|
B|--------|--------|--------|--------|--------|--------|--------|--------|--------|
G|--------|--------|--------|--------|--------|--------|--------|--------|--------|
D|--------|--------|--------|--------|--------|--------|--------|--------|--------|
A|--------|--------|--------|--------|--------|--------|--------|--------|--------|
E|--------|--------|--------|--------|--------|--------|--------|--------|--------|


E|--------|--------|--------|-0---0---0--0----0--0--0---0--0---0--|-3---3---3--3----3--3--3---3--3---3--|
B|--------|--------|--------|-1---1---1--1----1--1--1---1--1---1--|-3---3---3--3----3--3--3---3--3---3--|
G|--------|--------|--------|-2---2---2--2----2--2--2---2--2---2--|-0---0---0--0----0--0--0---0--0---0--|
D|--------|--------|--------|-2---2---2--2----2--2--2---2--2---2--|-0---0---0--0----0--0--0---0--0---0--|
A|--------|--------|--------|-0---0---0--0----0--0--0---0--0---0--|-------------------------------------|
E|--------|--------|--------|-------------------------------------|-------------------------------------|


E|-------------------------------------|-2---2---2--2----2-------------------|-0---0---0--0----0--0--0---0--0---0--|
B|-1---1---1--1----1--1--1---1--1------|-3---3---3--3----3--0--0---0--0---0--|-1---1---1--1----1--1--1---1--1---1--|
G|-2---2---2--2----2--2--2---2--2------|-2---2---2--2----2--0--0---0--0---0--|-2---2---2--2----2--2--2---2--2---2--|
D|-3---3---3--3----3--3--3---3--3------|-0---0---0--0----0--2--2---2--2---2--|-2---2---2--2----2--2--2---2--2---2--|
A|-3---3---3--3----3--3--3---3--3------|--------------------2--2---2--2---2--|-0---0---0--0----0--0--0---0--0---0--|
E|-1---1---1--1----1--1--1---1--1------|--------------------0--0---0--0---0--|-------------------------------------|


E|-3---3---3--3----3--3--3---3--3---3--|-------------------------------------|-2---2---2--2----2-------------------|
B|-3---3---3--3----3--3--3---3--3---3--|-1---1---1--1----1--1--1---1--1------|-3---3---3--3----3--0--0---0--0---0--|
G|-0---0---0--0----0--0--0---0--0---0--|-2---2---2--2----2--2--2---2--2------|-2---2---2--2----2--0--0---0--0---0--|
D|-0---0---0--0----0--0--0---0--0---0--|-3---3---3--3----3--3--3---3--3------|-0---0---0--0----0--2--2---2--2---2--|
A|-------------------------------------|-3---3---3--3----3--3--3---3--3------|--------------------2--2---2--2---2--|
E|-------------------------------------|-1---1---1--1----1--1--1---1--1------|--------------------0--0---0--0---0--|


E|--------|--------|--------|--------|--------|--------|--------|--------|--------|
B|--------|--------|--------|--------|--------|--------|--------|--------|--------|
G|--------|--------|--------|--------|--------|--------|--------|--------|--------|
D|--------|--------|--------|--------|--------|--------|--------|--------|--------|
A|--------|--------|--------|--------|--------|--------|--------|--------|--------|
E|--------|--------|--------|--------|--------|--------|--------|--------|--------|


E|--------|--------|--------|--------|--------|--------|--------|--------|--------|
B|--------|--------|--------|--------|--------|--------|--------|--------|--------|
G|--------|--------|--------|--------|--------|--------|--------|--------|--------|
D|--------|--------|--------|--------|--------|--------|--------|--------|--------|
A|--------|--------|--------|--------|--------|--------|--------|--------|--------|
E|--------|--------|--------|--------|--------|--------|--------|--------|--------|


E|--------|--------|--------|--------|--------|--------|--------|--------|--------|
B|--------|--------|--------|--------|--------|--------|--------|--------|--------|
G|--------|--------|--------|--------|--------|--------|--------|--------|--------|
D|--------|--------|--------|--------|--------|--------|--------|--------|--------|
A|--------|--------|--------|--------|--------|--------|--------|--------|--------|
E|--------|--------|--------|--------|--------|--------|--------|--------|--------|


E|--------|--------|--------|--------|--------|--------|--------|--------|--------|
B|--------|--------|--------|--------|--------|--------|--------|--------|--------|
G|--------|--------|--------|--------|--------|--------|--------|--------|--------|
D|--------|--------|--------|--------|--------|--------|--------|--------|--------|
A|--------|--------|--------|--------|--------|--------|--------|--------|--------|
E|--------|--------|--------|--------|--------|--------|--------|--------|--------|


E|--------|--------|--------|--------|--------|-0---0---0--0----0--0--0---0--0---0--|
B|--------|--------|--------|--------|--------|-1---1---1--1----1--1--1---1--1---1--|
G|--------|--------|--------|--------|--------|-2---2---2--2----2--2--2---2--2---2--|
D|--------|--------|--------|--------|--------|-2---2---2--2----2--2--2---2--2---2--|
A|--------|--------|--------|--------|--------|-0---0---0--0----0--0--0---0--0---0--|
E|--------|--------|--------|--------|--------|-------------------------------------|


E|-3---3---3--3----3--3--3---3--3---3--|-------------------------------------|-2---2---2--2----2-------------------|
B|-3---3---3--3----3--3--3---3--3---3--|-1---1---1--1----1--1--1---1--1------|-3---3---3--3----3--0--0---0--0---0--|
G|-0---0---0--0----0--0--0---0--0---0--|-2---2---2--2----2--2--2---2--2------|-2---2---2--2----2--0--0---0--0---0--|
D|-0---0---0--0----0--0--0---0--0---0--|-3---3---3--3----3--3--3---3--3------|-0---0---0--0----0--2--2---2--2---2--|
A|-------------------------------------|-3---3---3--3----3--3--3---3--3------|--------------------2--2---2--2---2--|
E|-------------------------------------|-1---1---1--1----1--1--1---1--1------|--------------------0--0---0--0---0--|


E|-0---0---0--0----0--0--0---0--0---0--|-3---3---3--3----3--3--3---3--3---3--|-------------------------------------|
B|-1---1---1--1----1--1--1---1--1---1--|-3---3---3--3----3--3--3---3--3---3--|-1---1---1--1----1--1--1---1--1------|
G|-2---2---2--2----2--2--2---2--2---2--|-0---0---0--0----0--0--0---0--0---0--|-2---2---2--2----2--2--2---2--2------|
D|-2---2---2--2----2--2--2---2--2---2--|-0---0---0--0----0--0--0---0--0---0--|-3---3---3--3----3--3--3---3--3------|
A|-0---0---0--0----0--0--0---0--0---0--|-------------------------------------|-3---3---3--3----3--3--3---3--3------|
E|-------------------------------------|-------------------------------------|-1---1---1--1----1--1--1---1--1------|


E|-2---2---2--2----2-------------------|--------|--------|--------|--------|--------|
B|-3---3---3--3----3--0--0---0--0---0--|--------|--------|--------|--------|--------|
G|-2---2---2--2----2--0--0---0--0---0--|--------|--------|--------|--------|--------|
D|-0---0---0--0----0--2--2---2--2---2--|--------|--------|--------|--------|--------|
A|--------------------2--2---2--2---2--|--------|--------|--------|--------|--------|
E|--------------------0--0---0--0---0--|--------|--------|--------|--------|--------|


E|--------|--------|--------|--------|--------|--------|--------|--------|--------|
B|--------|--------|--------|--------|--------|--------|--------|--------|--------|
G|--------|--------|--------|--------|--------|--------|--------|--------|--------|
D|--------|--------|--------|--------|--------|--------|--------|--------|--------|
A|--------|--------|--------|--------|--------|--------|--------|--------|--------|
E|--------|--------|--------|--------|--------|--------|--------|--------|--------|


E|--------|--------|--------|--------|--------|--------|--------|--------|--------|
B|--------|--------|--------|--------|--------|--------|--------|--------|--------|
G|--------|--------|--------|--------|--------|--------|--------|--------|--------|
D|--------|--------|--------|--------|--------|--------|--------|--------|--------|
A|--------|--------|--------|--------|--------|--------|--------|--------|--------|
E|--------|--------|--------|--------|--------|--------|--------|--------|--------|


E|--------|--------|--------|--------|--------|--------|--------|--------|--------|
B|--------|--------|--------|--------|--------|--------|--------|--------|--------|
G|--------|--------|--------|--------|--------|--------|--------|--------|--------|
D|--------|--------|--------|--------|--------|--------|--------|--------|--------|
A|--------|--------|--------|--------|--------|--------|--------|--------|--------|
E|--------|--------|--------|--------|--------|--------|--------|--------|--------|


E|--------|--------|--------|--------|--------|--------|--------|--------|--------|
B|--------|--------|--------|--------|--------|--------|--------|--------|--------|
G|--------|--------|--------|--------|--------|--------|--------|--------|--------|
D|--------|--------|--------|--------|--------|--------|--------|--------|--------|
A|--------|--------|--------|--------|--------|--------|--------|--------|--------|
E|--------|--------|--------|--------|--------|--------|--------|--------|--------|





Track 5: flute arrg. for guitar

E|--------|--------|--------|--------|--------|--------|--------|--------|--------|
B|--------|--------|--------|--------|--------|--------|--------|--------|--------|
G|--------|--------|--------|--------|--------|--------|--------|--------|--------|
D|--------|--------|--------|--------|--------|--------|--------|--------|--------|
A|--------|--------|--------|--------|--------|--------|--------|--------|--------|
E|--------|--------|--------|--------|--------|--------|--------|--------|--------|


E|--------|--------|--------|--------|--------|--------|--------|--------|--------|
B|--------|--------|--------|--------|--------|--------|--------|--------|--------|
G|--------|--------|--------|--------|--------|--------|--------|--------|--------|
D|--------|--------|--------|--------|--------|--------|--------|--------|--------|
A|--------|--------|--------|--------|--------|--------|--------|--------|--------|
E|--------|--------|--------|--------|--------|--------|--------|--------|--------|


E|--------|--------|--------|--------|--------|--------|--------|--------|--------|
B|--------|--------|--------|--------|--------|--------|--------|--------|--------|
G|--------|--------|--------|--------|--------|--------|--------|--------|--------|
D|--------|--------|--------|--------|--------|--------|--------|--------|--------|
A|--------|--------|--------|--------|--------|--------|--------|--------|--------|
E|--------|--------|--------|--------|--------|--------|--------|--------|--------|


E|--------|--------|--------|--------|--------|--------|--------|--------|--------|
B|--------|--------|--------|--------|--------|--------|--------|--------|--------|
G|--------|--------|--------|--------|--------|--------|--------|--------|--------|
D|--------|--------|--------|--------|--------|--------|--------|--------|--------|
A|--------|--------|--------|--------|--------|--------|--------|--------|--------|
E|--------|--------|--------|--------|--------|--------|--------|--------|--------|


E|--------|--------|--------|--------|--------|--------|--------|--------|--------|
B|--------|--------|--------|--------|--------|--------|--------|--------|--------|
G|--------|--------|--------|--------|--------|--------|--------|--------|--------|
D|--------|--------|--------|--------|--------|--------|--------|--------|--------|
A|--------|--------|--------|--------|--------|--------|--------|--------|--------|
E|--------|--------|--------|--------|--------|--------|--------|--------|--------|


E|--------|--------|--------|--------|--------|--------|--------|--------|--------|
B|--------|--------|--------|--------|--------|--------|--------|--------|--------|
G|--------|--------|--------|--------|--------|--------|--------|--------|--------|
D|--------|--------|--------|--------|--------|--------|--------|--------|--------|
A|--------|--------|--------|--------|--------|--------|--------|--------|--------|
E|--------|--------|--------|--------|--------|--------|--------|--------|--------|


E|--------|--------|--------|----------------------|----------------------|----------------------|
B|--------|--------|--------|-1----1----------1----|-0----0----------0----|----------------------|
G|--------|--------|--------|-----------2----------|-----------0----------|-2----2----------2----|
D|--------|--------|--------|----------------------|----------------------|-----------3----------|
A|--------|--------|--------|----------------------|----------------------|----------------------|
E|--------|--------|--------|----------------------|----------------------|----------------------|


E|----------------------|----------------------|----------------------|----------------------|
B|----------------------|-1----1----------1----|-0----0----------0----|----------------------|
G|-0----0----0----------|-----------2----------|-----------0----------|-2----2----------2----|
D|-----------------2----|----------------------|----------------------|-----------3----------|
A|----------------------|----------------------|----------------------|----------------------|
E|----------------------|----------------------|----------------------|----------------------|


E|----------------------|--------|--------|--------|--------|--------|--------|--------|
B|----------------------|--------|--------|--------|--------|--------|--------|--------|
G|-0----0----0----------|--------|--------|--------|--------|--------|--------|--------|
D|-----------------2----|--------|--------|--------|--------|--------|--------|--------|
A|----------------------|--------|--------|--------|--------|--------|--------|--------|
E|----------------------|--------|--------|--------|--------|--------|--------|--------|


E|--------|--------|--------|--------|--------|--------|--------|--------|--------|
B|--------|--------|--------|--------|--------|--------|--------|--------|--------|
G|--------|--------|--------|--------|--------|--------|--------|--------|--------|
D|--------|--------|--------|--------|--------|--------|--------|--------|--------|
A|--------|--------|--------|--------|--------|--------|--------|--------|--------|
E|--------|--------|--------|--------|--------|--------|--------|--------|--------|


E|--------|--------|--------|--------|--------|--------|--------|--------|--------|
B|--------|--------|--------|--------|--------|--------|--------|--------|--------|
G|--------|--------|--------|--------|--------|--------|--------|--------|--------|
D|--------|--------|--------|--------|--------|--------|--------|--------|--------|
A|--------|--------|--------|--------|--------|--------|--------|--------|--------|
E|--------|--------|--------|--------|--------|--------|--------|--------|--------|


E|--------|--------|--------|--------|--------|--------|--------|--------|--------|
B|--------|--------|--------|--------|--------|--------|--------|--------|--------|
G|--------|--------|--------|--------|--------|--------|--------|--------|--------|
D|--------|--------|--------|--------|--------|--------|--------|--------|--------|
A|--------|--------|--------|--------|--------|--------|--------|--------|--------|
E|--------|--------|--------|--------|--------|--------|--------|--------|--------|


E|--------|--------|--------|--------|--------|--------|--------|----------------------|
B|--------|--------|--------|--------|--------|--------|--------|-1----1----------1----|
G|--------|--------|--------|--------|--------|--------|--------|-----------2----------|
D|--------|--------|--------|--------|--------|--------|--------|----------------------|
A|--------|--------|--------|--------|--------|--------|--------|----------------------|
E|--------|--------|--------|--------|--------|--------|--------|----------------------|


E|----------------------|----------------------|----------------------|----------------------|
B|-0----0----------0----|----------------------|----------------------|-1----1----------1----|
G|-----------0----------|-2----2----------2----|-0----0----0----------|-----------2----------|
D|----------------------|-----------3----------|-----------------2----|----------------------|
A|----------------------|----------------------|----------------------|----------------------|
E|----------------------|----------------------|----------------------|----------------------|


E|----------------------|----------------------|----------------------|--------|--------|
B|-0----0----------0----|----------------------|----------------------|--------|--------|
G|-----------0----------|-2----2----------2----|-0----0----0----------|--------|--------|
D|----------------------|-----------3----------|-----------------2----|--------|--------|
A|----------------------|----------------------|----------------------|--------|--------|
E|----------------------|----------------------|----------------------|--------|--------|


E|--------|--------|--------|--------|--------|--------|--------|--------|--------|
B|--------|--------|--------|--------|--------|--------|--------|--------|--------|
G|--------|--------|--------|--------|--------|--------|--------|--------|--------|
D|--------|--------|--------|--------|--------|--------|--------|--------|--------|
A|--------|--------|--------|--------|--------|--------|--------|--------|--------|
E|--------|--------|--------|--------|--------|--------|--------|--------|--------|


E|--------|--------|--------|--------|--------|--------|--------|--------|--------|
B|--------|--------|--------|--------|--------|--------|--------|--------|--------|
G|--------|--------|--------|--------|--------|--------|--------|--------|--------|
D|--------|--------|--------|--------|--------|--------|--------|--------|--------|
A|--------|--------|--------|--------|--------|--------|--------|--------|--------|
E|--------|--------|--------|--------|--------|--------|--------|--------|--------|


E|--------|--------|--------|--------|--------|--------|--------|--------|--------|
B|--------|--------|--------|--------|--------|--------|--------|--------|--------|
G|--------|--------|--------|--------|--------|--------|--------|--------|--------|
D|--------|--------|--------|--------|--------|--------|--------|--------|--------|
A|--------|--------|--------|--------|--------|--------|--------|--------|--------|
E|--------|--------|--------|--------|--------|--------|--------|--------|--------|


E|--------|--------|--------|--------|--------|--------|--------|--------|--------|
B|--------|--------|--------|--------|--------|--------|--------|--------|--------|
G|--------|--------|--------|--------|--------|--------|--------|--------|--------|
D|--------|--------|--------|--------|--------|--------|--------|--------|--------|
A|--------|--------|--------|--------|--------|--------|--------|--------|--------|
E|--------|--------|--------|--------|--------|--------|--------|--------|--------|


E|--------|--------|--------|
B|--------|--------|--------|
G|--------|--------|--------|
D|--------|--------|--------|
A|--------|--------|--------|
E|--------|--------|--------|





Track 6: trumpet arrg. for guitar

E|--------|--------|--------|--------|--------|--------|--------|--------|--------|
B|--------|--------|--------|--------|--------|--------|--------|--------|--------|
G|--------|--------|--------|--------|--------|--------|--------|--------|--------|
D|--------|--------|--------|--------|--------|--------|--------|--------|--------|
A|--------|--------|--------|--------|--------|--------|--------|--------|--------|
E|--------|--------|--------|--------|--------|--------|--------|--------|--------|


E|--------|--------|--------|--------|--------|--------|--------|--------|--------|
B|--------|--------|--------|--------|--------|--------|--------|--------|--------|
G|--------|--------|--------|--------|--------|--------|--------|--------|--------|
D|--------|--------|--------|--------|--------|--------|--------|--------|--------|
A|--------|--------|--------|--------|--------|--------|--------|--------|--------|
E|--------|--------|--------|--------|--------|--------|--------|--------|--------|


E|--------|--------|--------|--------|--------|--------|--------|--------|--------|
B|--------|--------|--------|--------|--------|--------|--------|--------|--------|
G|--------|--------|--------|--------|--------|--------|--------|--------|--------|
D|--------|--------|--------|--------|--------|--------|--------|--------|--------|
A|--------|--------|--------|--------|--------|--------|--------|--------|--------|
E|--------|--------|--------|--------|--------|--------|--------|--------|--------|


E|--------|--------|--------|--------|--------|--------|--------|--------|--------|
B|--------|--------|--------|--------|--------|--------|--------|--------|--------|
G|--------|--------|--------|--------|--------|--------|--------|--------|--------|
D|--------|--------|--------|--------|--------|--------|--------|--------|--------|
A|--------|--------|--------|--------|--------|--------|--------|--------|--------|
E|--------|--------|--------|--------|--------|--------|--------|--------|--------|


E|--------|--------|--------|--------|--------|--------|--------|--------|--------|
B|--------|--------|--------|--------|--------|--------|--------|--------|--------|
G|--------|--------|--------|--------|--------|--------|--------|--------|--------|
D|--------|--------|--------|--------|--------|--------|--------|--------|--------|
A|--------|--------|--------|--------|--------|--------|--------|--------|--------|
E|--------|--------|--------|--------|--------|--------|--------|--------|--------|


E|--------|--------|--------|--------|--------|--------|--------|--------|--------|
B|--------|--------|--------|--------|--------|--------|--------|--------|--------|
G|--------|--------|--------|--------|--------|--------|--------|--------|--------|
D|--------|--------|--------|--------|--------|--------|--------|--------|--------|
A|--------|--------|--------|--------|--------|--------|--------|--------|--------|
E|--------|--------|--------|--------|--------|--------|--------|--------|--------|


E|--------|--------|--------|--------|--------|--------|--------|--------|--------|
B|--------|--------|--------|--------|--------|--------|--------|--------|--------|
G|--------|--------|--------|--------|--------|--------|--------|--------|--------|
D|--------|--------|--------|--------|--------|--------|--------|--------|--------|
A|--------|--------|--------|--------|--------|--------|--------|--------|--------|
E|--------|--------|--------|--------|--------|--------|--------|--------|--------|


E|--------|--------|-------1----0---------|-------3----1----0----|-----------1-----|
B|--------|--------|-1---------------3----|----------------------|-----------------|
G|--------|--------|----------------------|-0--------------------|-2---------------|
D|--------|--------|----------------------|----------------------|-----------------|
A|--------|--------|----------------------|----------------------|-----------------|
E|--------|--------|----------------------|----------------------|-----------------|


E|-0--------------0----|-------1----0---------|-------3----1----0----|-----------1-----|
B|------3----1---------|-1---------------3----|----------------------|-----------------|
G|---------------------|----------------------|-0--------------------|-2---------------|
D|---------------------|----------------------|----------------------|-----------------|
A|---------------------|----------------------|----------------------|-----------------|
E|---------------------|----------------------|----------------------|-----------------|


E|-0--------------0----|--------|--------|--------|--------|--------|--------|--------|
B|------3----1---------|--------|--------|--------|--------|--------|--------|--------|
G|---------------------|--------|--------|--------|--------|--------|--------|--------|
D|---------------------|--------|--------|--------|--------|--------|--------|--------|
A|---------------------|--------|--------|--------|--------|--------|--------|--------|
E|---------------------|--------|--------|--------|--------|--------|--------|--------|


E|--------|--------|--------|--------|--------|--------|--------|--------|--------|
B|--------|--------|--------|--------|--------|--------|--------|--------|--------|
G|--------|--------|--------|--------|--------|--------|--------|--------|--------|
D|--------|--------|--------|--------|--------|--------|--------|--------|--------|
A|--------|--------|--------|--------|--------|--------|--------|--------|--------|
E|--------|--------|--------|--------|--------|--------|--------|--------|--------|


E|--------|--------|--------|--------|--------|--------|--------|--------|--------|
B|--------|--------|--------|--------|--------|--------|--------|--------|--------|
G|--------|--------|--------|--------|--------|--------|--------|--------|--------|
D|--------|--------|--------|--------|--------|--------|--------|--------|--------|
A|--------|--------|--------|--------|--------|--------|--------|--------|--------|
E|--------|--------|--------|--------|--------|--------|--------|--------|--------|


E|--------|--------|--------|--------|--------|--------|--------|--------|--------|
B|--------|--------|--------|--------|--------|--------|--------|--------|--------|
G|--------|--------|--------|--------|--------|--------|--------|--------|--------|
D|--------|--------|--------|--------|--------|--------|--------|--------|--------|
A|--------|--------|--------|--------|--------|--------|--------|--------|--------|
E|--------|--------|--------|--------|--------|--------|--------|--------|--------|


E|--------|--------|--------|--------|--------|--------|--------|--------|--------|
B|--------|--------|--------|--------|--------|--------|--------|--------|--------|
G|--------|--------|--------|--------|--------|--------|--------|--------|--------|
D|--------|--------|--------|--------|--------|--------|--------|--------|--------|
A|--------|--------|--------|--------|--------|--------|--------|--------|--------|
E|--------|--------|--------|--------|--------|--------|--------|--------|--------|


E|--------|--------|--------|--------|--------|--------|--------|--------|--------|
B|--------|--------|--------|--------|--------|--------|--------|--------|--------|
G|--------|--------|--------|--------|--------|--------|--------|--------|--------|
D|--------|--------|--------|--------|--------|--------|--------|--------|--------|
A|--------|--------|--------|--------|--------|--------|--------|--------|--------|
E|--------|--------|--------|--------|--------|--------|--------|--------|--------|


E|--------|--------|--------|--------|--------|--------|--------|--------|--------|
B|--------|--------|--------|--------|--------|--------|--------|--------|--------|
G|--------|--------|--------|--------|--------|--------|--------|--------|--------|
D|--------|--------|--------|--------|--------|--------|--------|--------|--------|
A|--------|--------|--------|--------|--------|--------|--------|--------|--------|
E|--------|--------|--------|--------|--------|--------|--------|--------|--------|


E|--------|--------|--------|--------|--------|--------|--------|--------|--------|
B|--------|--------|--------|--------|--------|--------|--------|--------|--------|
G|--------|--------|--------|--------|--------|--------|--------|--------|--------|
D|--------|--------|--------|--------|--------|--------|--------|--------|--------|
A|--------|--------|--------|--------|--------|--------|--------|--------|--------|
E|--------|--------|--------|--------|--------|--------|--------|--------|--------|


E|--------|--------|--------|--------|--------|--------|--------|--------|--------|
B|--------|--------|--------|--------|--------|--------|--------|--------|--------|
G|--------|--------|--------|--------|--------|--------|--------|--------|--------|
D|--------|--------|--------|--------|--------|--------|--------|--------|--------|
A|--------|--------|--------|--------|--------|--------|--------|--------|--------|
E|--------|--------|--------|--------|--------|--------|--------|--------|--------|


E|--------|--------|--------|
B|--------|--------|--------|
G|--------|--------|--------|
D|--------|--------|--------|
A|--------|--------|--------|
E|--------|--------|--------|





Track 7: Untitled

G|--------|--------|--------|--------|-------------------------------------|-------------------------------------|
D|--------|--------|--------|--------|-------------------------------------|-------------------------------------|
A|--------|--------|--------|--------|-3---3---3--3----3--3--3---3--3---3--|-------------------------------------|
E|--------|--------|--------|--------|-------------------------------------|-3---3---3--3----3--3--3---3--3---3--|


G|-------------------------------------|-------------------------------------|-------------------------------------|
D|-------------------------------------|-------------------------------------|-------------------------------------|
A|-3---3---3--3----3--3--3---3--3---3--|-------------------------------------|-3---3---3--3----3--3--3---3--3---3--|
E|-------------------------------------|-1---1---1--1----1--1--1---1--1---1--|-------------------------------------|


G|-------------------------------------|-------------------------------------|-------------------------------------|
D|-------------------------------------|-------------------------------------|-------------------------------------|
A|-------------------------------------|-3---3---3--3----3--3--3---3--3---3--|-------------------------------------|
E|-3---3---3--3----3--3--3---3--3---3--|-------------------------------------|-1---1---1--1----1--1--1---1--1---1--|


G|-------------------------------------|-------------------------------------|-------------------------------------|
D|-------------------------------------|-------------------------------------|-------------------------------------|
A|-3---3---3--3----3--3--3---3--3---3--|-------------------------------------|-3---3---3--3----3--3--3---3--3---3--|
E|-------------------------------------|-3---3---3--3----3--3--3---3--3---3--|-------------------------------------|


G|-------------------------------------|-------------------------------------|-------------------------------------|
D|-------------------------------------|-------------------------------------|-------------------------------------|
A|-------------------------------------|-3---3---3--3----3--3--3---3--3---3--|-------------------------------------|
E|-1---1---1--1----1--1--1---1--1---1--|-------------------------------------|-3---3---3--3----3--3--3---3--3---3--|


G|-------------------------------------|-------------------------------------|-------------------------------------|
D|-------------------------------------|-------------------------------------|-------------------------------------|
A|-3---3---3--3----3--3--3---3--3---3--|-------------------------------------|-3---3---3--3----3--3--3---3--3---3--|
E|-------------------------------------|-1---1---1--1----1--1--1---1--1---1--|-------------------------------------|


G|-------------------------------------|-------------------------------------|-------------------------------------|
D|-------------------------------------|-------------------------------------|-------------------------------------|
A|-------------------------------------|-3---3---3--3----3--3--3---3--3---3--|-------------------------------------|
E|-3---3---3--3----3--3--3---3--3---3--|-------------------------------------|-1---1---1--1----1--1--1---1--1---1--|


G|-------------------------------------|---------------------------------------|---------------------------------------|
D|-------------------------------------|---------------------------------------|---------------------------------------|
A|-3---3---3---3--3----3--3--3---3--3--|----3----------------------------------|-------3---3---3--3----3--3--3---3--3--|
E|-------------------------------------|-------3---3---3--3----3--3--3---3--3--|----3----------------------------------|


G|---------------------------------------|---------------------------------------|
D|---------------------------------------|---------------------------------------|
A|----3----------------------------------|-------3---3---3--3----3--3--3---3--3--|
E|-------1---1---1--1----1--1--1---1--1--|----1----------------------------------|


G|---------------------------------------|---------------------------------------|
D|---------------------------------------|---------------------------------------|
A|----3----------------------------------|-------3---3---3--3----3--3--3---3--3--|
E|-------3---3---3--3----3--3--3---3--3--|----3----------------------------------|


G|---------------------------------------|--------------|-------------------------------------|
D|---------------------------------------|--------------|-------------------------------------|
A|----3----------------------------------|--------------|-----3---3---3--3----3--3--3---3--3--|
E|-------1---1---1--1----1--1--1---1--1--|----1---------|-------------------------------------|


G|---------------------------------------|---------------------------------------|
D|---------------------------------------|---------------------------------------|
A|----3----------------------------------|-------3---3---3--3----3--3--3---3--3--|
E|-------3---3---3--3----3--3--3---3--3--|----3----------------------------------|


G|---------------------------------------|---------------------------------------|
D|---------------------------------------|---------------------------------------|
A|----3----------------------------------|-------3---3---3--3----3--3--3---3--3--|
E|-------1---1---1--1----1--1--1---1--1--|----1----------------------------------|


G|---------------------------------------|---------------------------------------|
D|---------------------------------------|---------------------------------------|
A|----3----------------------------------|-------3---3---3--3----3--3--3---3--3--|
E|-------3---3---3--3----3--3--3---3--3--|----3----------------------------------|


G|---------------------------------------|---------------------------------------|
D|---------------------------------------|---------------------------------------|
A|----3----------------------------------|-------3---3---3--3----3--3--3---3--3--|
E|-------1---1---1--1----1--1--1---1--1--|----1----------------------------------|


G|---------------------------------------|---------------------------------------|
D|---------------------------------------|---------------------------------------|
A|----3----------------------------------|-------3---3---3--3----3--3--3---3--3--|
E|-------3---3---3--3----3--3--3---3--3--|----3----------------------------------|


G|---------------------------------------|---------------------------------------|
D|---------------------------------------|---------------------------------------|
A|----3----------------------------------|-------3---3---3--3----3--3--3---3--3--|
E|-------1---1---1--1----1--1--1---1--1--|----1----------------------------------|


G|---------------------------------------|---------------------------------------|
D|---------------------------------------|---------------------------------------|
A|----3----------------------------------|-------3---3---3--3----3--3--3---3--3--|
E|-------3---3---3--3----3--3--3---3--3--|----3----------------------------------|


G|---------------------------------------|---------------------------------------|
D|---------------------------------------|---------------------------------------|
A|----3----------------------------------|-------3---3---3--3----3--3--3---3--3--|
E|-------1---1---1--1----1--1--1---1--1--|----1----------------------------------|


G|---------------------------------------|---------------------------------------|
D|---------------------------------------|---------------------------------------|
A|----3----------------------------------|-------3---3---3--3----3--3--3---3--3--|
E|-------3---3---3--3----3--3--3---3--3--|----3----------------------------------|


G|---------------------------------------|---------------------------------------|
D|---------------------------------------|---------------------------------------|
A|----3----------------------------------|-------3---3---3--3----3--3--3---3--3--|
E|-------1---1---1--1----1--1--1---1--1--|----1----------------------------------|


G|---------------------------------------|---------------------------------------|
D|---------------------------------------|---------------------------------------|
A|----3----------------------------------|-------3---3---3--3----3--3--3---3--3--|
E|-------3---3---3--3----3--3--3---3--3--|----3----------------------------------|


G|---------------------------------------|--------------------------|--------------------2---|
D|---------------------------------------|--------------------------|-----2----2-------------|
A|----3----------------------------------|-------3----3---------2---|---------------5--------|
E|-------1---1---1--1----1--1--1---1--1--|----1------------5--------|------------------------|


G|------------------------|--------------------2---|------------------------|--------------------2---|
D|------------------------|-----2----2-------------|------------------------|-----2----2-------------|
A|-----3----3---------2---|---------------5--------|-----3----3---------2---|---------------5--------|
E|---------------5--------|------------------------|---------------5--------|------------------------|


G|------------------------|--------------------2---|-------------------------------------|
D|------------------------|-----2----2-------------|-------------------------------------|
A|-----3----3---------2---|---------------5--------|-----3---3---3--3----3--3--3---3--3--|
E|---------------5--------|------------------------|-------------------------------------|


G|---------------------------------------|---------------------------------------|
D|---------------------------------------|---------------------------------------|
A|----3----------------------------------|-------3---3---3--3----3--3--3---3--3--|
E|-------3---3---3--3----3--3--3---3--3--|----3----------------------------------|


G|---------------------------------------|---------------------------------------|
D|---------------------------------------|---------------------------------------|
A|----3----------------------------------|-------3---3---3--3----3--3--3---3--3--|
E|-------1---1---1--1----1--1--1---1--1--|----1----------------------------------|


G|---------------------------------------|---------------------------------------|
D|---------------------------------------|---------------------------------------|
A|----3----------------------------------|-------3---3---3--3----3--3--3---3--3--|
E|-------3---3---3--3----3--3--3---3--3--|----3----------------------------------|


G|---------------------------------------|---------------------------------------|
D|---------------------------------------|---------------------------------------|
A|----3----------------------------------|-------3---3---3--3----3--3--3---3--3--|
E|-------1---1---1--1----1--1--1---1--1--|----1----------------------------------|


G|---------------------------------------|---------------------------------------|
D|---------------------------------------|---------------------------------------|
A|----3----------------------------------|-------3---3---3--3----3--3--3---3--3--|
E|-------3---3---3--3----3--3--3---3--3--|----3----------------------------------|


G|---------------------------------------|---------------------------------------|
D|---------------------------------------|---------------------------------------|
A|----3----------------------------------|-------3---3---3--3----3--3--3---3--3--|
E|-------1---1---1--1----1--1--1---1--1--|----1----------------------------------|


G|---------------------------------------|---------------------------------------|
D|---------------------------------------|---------------------------------------|
A|----3----------------------------------|-------3---3---3--3----3--3--3---3--3--|
E|-------3---3---3--3----3--3--3---3--3--|----3----------------------------------|


G|---------------------------------------|---------------------------------------|
D|---------------------------------------|---------------------------------------|
A|----3----------------------------------|-------3---3---3--3----3--3--3---3--3--|
E|-------1---1---1--1----1--1--1---1--1--|----1----------------------------------|


G|---------------------------------------|---------------------------------------|
D|---------------------------------------|---------------------------------------|
A|----3----------------------------------|-------3---3---3--3----3--3--3---3--3--|
E|-------3---3---3--3----3--3--3---3--3--|----3----------------------------------|


G|---------------------------------------|---------------------------------------|
D|---------------------------------------|---------------------------------------|
A|----3----------------------------------|-------3---3---3--3----3--3--3---3--3--|
E|-------1---1---1--1----1--1--1---1--1--|----1----------------------------------|


G|---------------------------------------|---------------------------------------|
D|---------------------------------------|---------------------------------------|
A|----3----------------------------------|-------3---3---3--3----3--3--3---3--3--|
E|-------3---3---3--3----3--3--3---3--3--|----3----------------------------------|


G|---------------------------------------|---------------------------------------|
D|---------------------------------------|---------------------------------------|
A|----3----------------------------------|-------3---3---3--3----3--3--3---3--3--|
E|-------1---1---1--1----1--1--1---1--1--|----1----------------------------------|


G|---------------------------------------|---------------------------------------|
D|---------------------------------------|---------------------------------------|
A|----3----------------------------------|-------3---3---3--3----3--3--3---3--3--|
E|-------3---3---3--3----3--3--3---3--3--|----3----------------------------------|


G|---------------------------------------|---------------------------------------|
D|---------------------------------------|---------------------------------------|
A|----3----------------------------------|-------3---3---3--3----3--3--3---3--3--|
E|-------1---1---1--1----1--1--1---1--1--|----1----------------------------------|


G|---------------------------------------|---------------------------------------|
D|---------------------------------------|---------------------------------------|
A|----3----------------------------------|-------3---3---3--3----3--3--3---3--3--|
E|-------3---3---3--3----3--3--3---3--3--|----3----------------------------------|


G|---------------------------------------|---------------------------------------|
D|---------------------------------------|---------------------------------------|
A|----3----------------------------------|-------3---3---3--3----3--3--3---3--3--|
E|-------1---1---1--1----1--1--1---1--1--|----1----------------------------------|


G|---------------------------------------|---------------------------------------|
D|---------------------------------------|---------------------------------------|
A|----3----------------------------------|-------3---3---3--3----3--3--3---3--3--|
E|-------3---3---3--3----3--3--3---3--3--|----3----------------------------------|


G|---------------------------------------|---------------------------------------|
D|---------------------------------------|---------------------------------------|
A|----3----------------------------------|-------3---3---3--3----3--3--3---3--3--|
E|-------1---1---1--1----1--1--1---1--1--|----1----------------------------------|


G|---------------------------------------|---------------------------------------|
D|---------------------------------------|---------------------------------------|
A|----3----------------------------------|-------3---3---3--3----3--3--3---3--3--|
E|-------3---3---3--3----3--3--3---3--3--|----3----------------------------------|


G|---------------------------------------|--------------|------------------------|
D|---------------------------------------|--------------|------------------------|
A|----3----------------------------------|--------------|-----3----3---------2---|
E|-------1---1---1--1----1--1--1---1--1--|----1---------|---------------5--------|


G|--------------------2---|------------------------|--------------------2---|------------------------|
D|-----2----2-------------|------------------------|-----2----2-------------|------------------------|
A|---------------5--------|-----3----3---------2---|---------------5--------|-----3----3---------2---|
E|------------------------|---------------5--------|------------------------|---------------5--------|


G|--------------------2---|------------------------|--------------------2---|-----------------------------------|
D|-----2----2-------------|------------------------|-----2----2-------------|-----------------------------------|
A|---------------5--------|-----3----3---------2---|---------------5--------|-----3---3---3---3--3----3--3--3---|
E|------------------------|---------------5--------|------------------------|-----------------------------------|


G|-------------------------------------|-------------------------------------|-------------------------------------|
D|-------------------------------------|-------------------------------------|-------------------------------------|
A|-3--3---3----------------------------|-----------3---3---3--3----3--3--3---|-3--3---3----------------------------|
E|-----------3---3---3--3----3--3--3---|-3--3---3----------------------------|-----------1---1---1--1----1--1--1---|


G|-------------------------------------|-------------------------------------|-------------------------------------|
D|-------------------------------------|-------------------------------------|-------------------------------------|
A|-----------3---3---3--3----3--3--3---|-3--3---3----------------------------|-----------3---3---3--3----3--3--3---|
E|-1--1---1----------------------------|-----------3---3---3--3----3--3--3---|-3--3---3----------------------------|


G|-------------------------------------|-------------------------------------|-------------------------------------|
D|-------------------------------------|-------------------------------------|-------------------------------------|
A|-3--3---3----------------------------|-----------3---3---3--3----3--3--3---|-3--3---3----------------------------|
E|-----------1---1---1--1----1--1--1---|-1--1---1----------------------------|-----------3---3---3--3----3--3--3---|


G|-------------------------------------|-------------------------------------|-------------------------------------|
D|-------------------------------------|-------------------------------------|-------------------------------------|
A|-----------3---3---3--3----3--3--3---|-3--3---3----------------------------|-----------3---3---3--3----3--3--3---|
E|-3--3---3----------------------------|-----------1---1---1--1----1--1--1---|-1--1---1----------------------------|


G|-------------------------------------|-------------------------------------|-------------------------------------|
D|-------------------------------------|-------------------------------------|-------------------------------------|
A|-3--3---3----------------------------|-----------3---3---3--3----3--3--3---|-3--3---3----------------------------|
E|-----------3---3---3--3----3--3--3---|-3--3---3----------------------------|-----------1---1---1--1----1--1--1---|


G|-------------------------------------|-------------------------------------|-------------------------------------|
D|-------------------------------------|-------------------------------------|-------------------------------------|
A|-----------3---3---3--3----3--3--3---|-3--3---3----------------------------|-----------3---3---3--3----3--3--3---|
E|-1--1---1----------------------------|-----------3---3---3--3----3--3--3---|-3--3---3----------------------------|


G|-------------------------------------|-------------------------------------|-------------------------------------|
D|-------------------------------------|-------------------------------------|-------------------------------------|
A|-3--3---3----------------------------|-----------3---3---3--3----3--3--3---|-3--3---3----------------------------|
E|-----------1---1---1--1----1--1--1---|-1--1---1----------------------------|-----------3---3---3--3----3--3--3---|


G|-------------------------------------|-------------------------------------|-------------------------------------|
D|-------------------------------------|-------------------------------------|-------------------------------------|
A|-----------3---3---3--3----3--3--3---|-3--3---3----------------------------|-----------3---3---3--3----3--3--3---|
E|-3--3---3----------------------------|-----------1---1---1--1----1--1--1---|-1--1---1----------------------------|


G|-------------------------------------|-------------------------------------|-------------------------------------|
D|-------------------------------------|-------------------------------------|-------------------------------------|
A|-3--3---3----------------------------|-----------3---3---3--3----3--3--3---|-3--3---3----------------------------|
E|-----------3---3---3--3----3--3--3---|-3--3---3----------------------------|-----------1---1---1--1----1--1--1---|


G|-------------------------------------|-------------------------------------|-------------------------------------|
D|-------------------------------------|-------------------------------------|-------------------------------------|
A|-----------3---3---3--3----3--3--3---|-3--3---3----------------------------|-----------3---3---3--3----3--3--3---|
E|-1--1---1----------------------------|-----------3---3---3--3----3--3--3---|-3--3---3----------------------------|


G|-------------------------------------|-------------------------------------|-------------------------------------|
D|-------------------------------------|-------------------------------------|-------------------------------------|
A|-3--3---3----------------------------|-----------3---3---3--3----3--3--3---|-3--3---3----------------------------|
E|-----------1---1---1--1----1--1--1---|-1--1---1----------------------------|-----------3---3---3--3----3--3--3---|


G|-------------------------------------|-------------------------------------|-------------------------------------|
D|-------------------------------------|-------------------------------------|-------------------------------------|
A|-----------3---3---3--3----3--3--3---|-3--3---3----------------------------|-----------3---3---3--3----3--3--3---|
E|-3--3---3----------------------------|-----------1---1---1--1----1--1--1---|-1--1---1----------------------------|


G|-------------------------------------|-------------------------------------|-------------------------------------|
D|-------------------------------------|-------------------------------------|-------------------------------------|
A|-3--3---3----------------------------|-----------3---3---3--3----3--3--3---|-3--3---3----------------------------|
E|-----------3---3---3--3----3--3--3---|-3--3---3----------------------------|-----------1---1---1--1----1--1--1---|


G|------------------|
D|------------------|
A|------------------|
E|-1--1---1---------|