Site menu:

    

Browse: 0-9 A B C D E F G H I J K L N O P Q R S T U V W X Y Z

kamelot - forever:



/---------------------------------------------------------------------------
/ The following is the author's own interpretation of the song, to be used -
/ for studying or private use only, removal of any part of this ten line   -
/ header is illegal!!!  Removal of the transcribers name or anything       -
/ relevant to the transcriber is also illegal, as so is the removal of the -
/ place inwhich the tab was downloaded. Publishing as well as printing of  -
/ the tab is illegal without permission of the transcriber and copyright   -
/ owner of the song. Failure to apply to these laws result will in legal   -
/ action from the appropriate parties.                                     -
/---------------------------------------------------------------------------

downloaded from Displacer's Tablature Site at
        http://www.dsrmusic.com/metaltab
join the death/black tab emailing list by filling out the free
subscription form at http://www.dsrmusic.com/metaltab/join.htm


#----------------------------------PLEASE NOTE---------------------------------#
#This file is the author's own work and represents their interpretation of the #
#song. You may only use this file for private study, scholarship, or research. #
#------------------------------------------------------------------------------#

  Visit MetalTabs.com for more metal tablature
  
Song: Forever
Group: Kamelot
Album: Karma
Day Tabbed: 21/04/03
Transcribed By: Diego and Marco Parisi
E-mail: trall@libero.it


 Intro:
e|-----------6-7-7-6-6----------------------------|
B|----6-7-9------------7----6-7-7-6-6-------------|
G|-8---------------------8------------6--------6--|
D|--------------------------------------8--6-8----|
A|------------------------------------------------|
E|------------------------------------------------|

e|-----------6-7-7-6-6----------------------------|
B|----6-7-9------------7---6-7-7-6-6--------------|
G|-8--------------------8------------6-8----------|
D|------------------------------------------------|
A|------------------------------------------------|
E|------------------------------------------------|

e|---------------------------------------------------------------------|
B|--------------------------9-12-11-12-11-9-------9-12b(13)-12-11-9----|
G|-8-10-11-10-11-10-8-10/11-----------------10-11-------------------8--|
D|---------------------------------------------------------------------|
D|---------------------------------------------------------------------|
E|---------------------------------------------------------------------|

e|-----------6-7-7-6-6---11--13-14-14-13-13----11-|
B|----6-7-9------------7--------------------14----|
G|-8----------------------------------------------|
D|------------------------------------------------|
A|------------------------------------------------|
E|------------------------------------------------|

 Interlude(with keyboard):        Start to sing:
e|--------------------------------|---------------|
B|--------------------------------|---------------|
G|--------------------------------|---------------|
D|--------------------------------|-8===----------|
A|-666-666-666-...-666666666-...--|-6===----------|
E|--------------------------------|---------------|


 Verse 1 (guitar enter at 0.52):
e|------------------------------------------------|
B|------------------------------------------------|
G|------------------------------------------------|x2
D|-8----------8----------8----------8-------------|
A|-6-6666666--6-6666666--6-6666666--6-6666666-----|
E|------------------------------------------------|
P.M  .......	.......    .......    .......

 Pre-Chorus:
e|------------------------------------------------|
B|------------------------------------------------|
G|------------------------------------------------|
D|--4----4/6----6\3----3--------------------------|
A|--2----2/4----4\1----1----22222222--44444444----|
E|------------------------------------------------|

 Chorus:
e|----------------------|-------------------------|
B|----------------------|-------------------------|
G|----------------------|-------------------------|
D|--8--6--4----6-----6--|--8--6--4----6--8-4--6-1-|
A|--6--4--2----4--4--4--|--6--4--2----4--6-2--4-3-|
E|----------------2-----|-------------------------|


 Verse 2:
e|------------------------------------------------|
B|------------------------------------------------|
G|------------------------------------------------|x2
D|-8----------8----------8----------8-------------|
A|-6-6666666--6-6666666--6-6666666--6-6666666-----|
E|------------------------------------------------|
P.M  .......	.......    .......    .......

 (guitar enter at 1.49):
e|------------------------------------------------|
B|------------------------------------------------|
G|------------------------------------------------|x2
D|------------------------------------------------|
A|--666666666666-...-8/9---666666666666-...-8/9---|
E|------------------------------------------------|

 Pre-Chorus:
e|------------------------------------------------|
B|------------------------------------------------|
G|------------------------------------------------|
D|--4----4/6----6\3----3----4----6-6-6------------|
A|--2----2/4----4\1----1----2----4-4-4------------|
E|------------------------------------------------|

 Chorus:
e|----------------------|--------------------------------------------|
B|----------------------|--------------------------------------------|
G|----------------------|--------------------------------------------|
D|--8--6--4----6-----6--|--8--6--4----6--8-8-8---------8-8-8---------|
A|--6--4--2----4--4--4--|--6--4--2----4--6-6-6-666-666-6-6-6-666666--|
E|----------------2-----|--------------------------------------------|


 Bridge (guitar enter at 2.57):
e|------------------------------------------------|
B|------------------------------------------------|
G|------------------------------------------------|x2
D|-6/8-6/8-6/8=-6-8-6--6/8-6/8-6/8=-6-8-6---------|
A|-4/6-4/6-4/6=-4-6-4--4/6-4/6-4/6=-4-6-4---------|
E|------------------------------------------------|

 Solo:
e|-----------------16--------------------------------------------|
B|-15b(16)--19--18----19-18--------18-21-19-18-21-19-18----------|
G|--------------------------18-15~-----------------------18-20~~-|
D|---------------------------------------------------------------|
A|---------------------------------------------------------------|
E|---------------------------------------------------------------|

e|------------------------------------------------------|
B|-----------16-----------------------------------------|
G|-18p16p15------13-16----------------------------------|
D|----------------------15p13p12-16~~-------------------|
A|------------------------------------------------------|
E|------------------------------------------------------|
            a.h.
e|------------------------------------------------------|
B|--------------------------11~=-12~=-------------------|
G|-----------------10-11-13-----------13~=-11~-10~------|
D|--------11-12-13---------------------------------11~=-|
A|--14-15-----------------------------------------------|
E|------------------------------------------------------|
P.M .  .  .  .  .


 Pre-Chorus:
e|------------------------------------------------|
B|------------------------------------------------|
G|------------------------------------------------|
D|--4----4/6----6\3----3--------------------------|
A|--2----2/4----4\1----1----22222222--44444444----|
E|------------------------------------------------|

 Chorus:
e|----------------------|---------------|----------------|
B|----------------------|---------------|----------------|
G|----------------------|---------------|----------------|
D|--8--6--4----6-----6--|--8--6--4----6-|--8--6--4----6--|
A|--6--4--2----4--4--4--|--6--4--2----4-|--6--4--2----4--|
E|----------------2-----|---------------|----------------|

 Outro:
e|--------------------------------------|
B|--------------------------------------|
G|--------------------------------------|
D|--8-9-8-6--6-8------------------------|
A|--6-7-6-4--4-6----8-9-8-6--6-8--------|
E|------------------6-7-6-4--4-6--------|


Symbol explanation:

/     slide up
\     slide down
b     bend up
r     bend release down
h     hammer-on
p     pull-off
~     vibrate
=     sustain
tr    trill
P.M.  palm mute
a.h.  artificial armonic
...   etc.

  Visit MetalTabs.com for more metal tablature