Site menu:

    

Browse: 0-9 A B C D E F G H I J K L N O P Q R S T U V W X Y Z

kamelot - dont you cry:



Title: Don't You Cry
Artist: 
Album: Karma
Author: 


Track 1: Acoustic Guitar 1

D#|-0--------2--------3-----------------0-----------|-----------------0-----0--------2--------3-----|
A#|-------0--------2--------5-----3-----1--3--1--0--|-------1------1--------------0--------3-----0--|
F#|----0--------2-----------------------0-----------|----0------2--------2-----0--------2-----------|
C#|-------------------------------------------------|-----------------------------------------------|
G#|-------------------------------------3-----------|-------0---------------------------------------|
D#|-3--------2--------0--------------------------3--|-----------------------3--------2--------0-----|


D#|----5--------7------|-0---------0-------------0-----0-------|-------0-------0-----1---0-------0---|
A#|--------------------|--------1-----1--0----------0--1----3--|-1-----0----------0--3-------3-------|
F#|-0-----4--6---------|-----0---------------0-----------------|----2--0---0---------2-----------0---|
C#|-------------9------|---------------------------------------|---------------------0-----------2---|
G#|----4--------6------|-3-----------------------------0-------|---------------------------------3---|
D#|--------------------|-----------------0---------------------|-------0-----------------------------|


D#|---------------------------------|-0-------------------0-------------|-------------0-----1---0-------0---|
A#|----3--1---0------0-----0--------|-1---3---1---0-------------1----3--|-1---0---------------------3-------|
F#|---------------4-----4-----4-----|-0---------------0------0----------|---------0------0--------------0---|
C#|---------------------------------|-----------------------------------|-------------------0-----------2---|
G#|---------------------------------|-3-------------------------0-------|-------------------------------3---|
D#|-----------3---------------3-----|-------------0---------------------|-----0-----------------------------|


D#|---------------------------------|----------0-----------------0-----------------0--|
A#|----3--1---0------0-----0--------|-------1-----1-----------1-----1-----------1-----|
F#|---------------4-----4-----4-----|----2-----------2-----2-----------2-----2--------|
C#|---------------------------------|-------------------2-----------------------------|
G#|---------------------------------|-0-----------------------------------0-----------|
D#|-----------3---------------3-----|-------------------------------------------------|


D#|-------0-----0--------0---|--------------------------------|----------0---------------------|
A#|-1-----1-----1----1---1---|----3--1---0------------1---0---|-1----1---1----3--1---0------0--|
F#|----2--2-----2----2---2---|----------------0---0-----------|-2----2---2---------------4-----|
C#|-------2------------------|--------------------------------|--------------------------------|
G#|-------0-----0----0---0---|------------------------3-------|-0----0---0---------------------|
D#|--------------------------|-----------3----3---3-------3---|----------------------3---------|


D#|-3----------------0---0---|---------------------3-----------------|---------0---0---------------------|
A#|----0--------1----1---1---|----3--1---0------0-----0------1---0---|-1----------------3--1---0------0--|
F#|-------0-----2----2---2---|---------------4-----------0-----------|-----2-----------------------4-----|
C#|--------------------------|---------------------------------------|-----------------------------------|
G#|-------------0----0---0---|-------------------------------3-------|-0---0-------0---------------------|
D#|--------------------------|-----------3---3-------------------3---|-------------------------3---------|


D#|-3---------------------0-----0---|-------------------3-----------------|-----------0-----0-----------------------|
A#|----0--------1------1-----1------|----3--1---0----0-----0------1---0---|-1------1-----1---------3--1---0------0--|
F#|-------0---------2---------------|-------------------------0-----------|-----2-----------------------------4-----|
C#|---------------------------------|-------------------------------------|-----------------------------------------|
G#|-------------0-------------------|-----------------------------3-------|-0---------------------------------------|
D#|---------------------------------|-----------3---------------------3---|-------------------------------3---------|


D#|-3---------------------0-----0---|-------------------3-----------------|-----------0-----0-----------------------|
A#|----0--------1------1-----1------|----3--1---0----0-----0------1---0---|-1------1-----1---------3--1---0------0--|
F#|-------0---------2---------------|-------------------------0-----------|-----2-----------------------------4-----|
C#|---------------------------------|-------------------------------------|-----------------------------------------|
G#|-------------0-------------------|-----------------------------3-------|-0---------------------------------------|
D#|---------------------------------|-----------3---------------------3---|-------------------------------3---------|


D#|-3-----------0---------------------|---------0-----------------------0-----|-0--------------------------------0-------|
A#|----0--------------0--------3------|-5---3---1--3--1--0----1------1--------|-------0--------3-----0--------5-----4----|
F#|-------0--------0--------2---------|---------0-----------------2--------2--|----0--------2-----------0--4--------4----|
C#|----------------------4--------2---|---------------------------------------|----------4--------2----------------------|
G#|-----------------------------------|---------3-----3-------0---------------|----------------------------4--------6----|
D#|-------------3--------2--------0---|------------------3--------------------|-3--------2--------0----------------------|


D#|-------0---------0---------|-----0-----0-------------0-------0-----|-1---0-------0---------------------|
A#|--------------1-----1--0---|--------0--1----3--1-----0----------0--|-3-------3--------3--1---0------0--|
F#|-----------0---------------|-0--------------------2--0---0---------|-2-----------0---------------4-----|
C#|---------------------------|---------------------------------------|-0-----------2---------------------|
G#|-------3-------------------|-----------0---------------------------|-------------3---------------------|
D#|-----------------------0---|-------------------------0-------------|-------------------------3---------|


D#|-------------------------0---------|-----0-----0-------------0-------0-----|-1---0-------0---------------------|
A#|----0-----------------1-----1--0---|--------0--1----3--1-----0----------0--|-3-------3--------3--1---0------0--|
F#|-4-----4-----------0---------------|-0--------------------2--0---0---------|-2-----------0---------------4-----|
C#|----------------2------------------|---------------------------------------|-0-----------2---------------------|
G#|-------------3---------------------|-----------0---------------------------|-------------3---------------------|
D#|-------3-----------------------0---|-------------------------0-------------|-------------------------3---------|


D#|----------------------0--------------|----0-----------------0--------0-----|-0--------0----------------|
A#|----0--------------1-----1-----------|-1-----1-----------1-----1-----1-----|-1----1---1----3--1---0----|
F#|-4-----4--------2-----------2-----2--|----------2-----2-----------2--2-----|-2----2---2----------------|
C#|-------------------------------2-----|-------------------------------2-----|---------------------------|
G#|-------------0-----------------------|-------------0-----------------0-----|-0----0---0----------------|
D#|-------3-----------------------------|-------------------------------------|----------------------3----|


D#|--------------------------0---|---------------------3-----------|------0---0---------------------|
A#|---------1---0---1----1---1---|----3--1---0------0-----0--------|-1----1---1----3--1---0------0--|
F#|-0---0-----------2----2---2---|---------------4-----------0-----|-2----2---2---------------4-----|
C#|------------------------------|---------------------------------|--------------------------------|
G#|---------3-------0----0---0---|---------------------------------|-0----0---0---------------------|
D#|-3---3-------3----------------|-----------3---------------------|----------------------3---3-----|


D#|-3-------------------------0---0---|---------------------3-----------|-----------0-----0---------------------|
A#|----0------1---0---1---------------|----3--1---0------0-----0--------|-1------1-----1---------3--1---0----0--|
F#|-------0---------------2-----------|---------------4-----------0-----|-----2---------------------------------|
C#|-----------------------------------|---------------------------------|---------------------------------------|
G#|-----------3-------0---0-------0---|---------------------------------|-0-------------------------------------|
D#|---------------3-------------------|-----------3---------------------|-------------------------------3-------|


D#|-3---------------------------0-----0---|---------------------3-----------|-----------0-----0---------------------|
A#|----0------1---0---1------1-----1------|----3--1---0------0-----0--------|-1------1-----1---------3--1---0----0--|
F#|-------0---------------2---------------|---------------4-----------0-----|-----2---------------------------------|
C#|---------------------------------------|---------------------------------|---------------------------------------|
G#|-----------3-------0-------------------|---------------------------------|-0-------------------------------------|
D#|---------------3-----------------------|-----------3---------------------|-------------------------------3-------|


D#|-3---------------------------0-----0---|---------------------3-----------|-0-----------------------------0-----------|
A#|----0------1---0---1------1-----1------|----3--1---0------0-----0--------|-------0--------3------5---3---1--3--1--0--|
F#|-------0---------------2---------------|---------------4-----------0-----|----0--------2-----------------0-----------|
C#|---------------------------------------|---------------------------------|----------4--------2-----------------------|
G#|-----------3-------0-------------------|---------------------------------|-------------------------------3-----3-----|
D#|---------------3-----------------------|-----------3---------------------|-3--------2--------0--------------------3--|


D#|---------------0-----0-----------------------|----------0---------|-0---------0-------------0-----0-------|
A#|-----1------1--------------0--------3-----0--|-------5-----4------|--------1-----1--0----------0--1----3--|
F#|---------2--------2-----0--------2-----------|-0--4--------4------|-----0---------------0-----------------|
C#|------------------------------4--------2-----|--------------------|---------------------------------------|
G#|-----0---------------------------------------|----4--------6------|-3-----------------------------0-------|
D#|---------------------3--------2--------0-----|--------------------|-----------------0---------------------|


D#|-------0-------0-----1---0-------0---|---------------------------------|-------------0-------------0-----0-------|
A#|-1-----0----------0--3-------3-------|----3--1---0------0-----0--------|----------1-----1--0----------0--1----3--|
F#|----2--0---0---------2-----------0---|---------------4-----4-----4-----|-------0---------------0-----------------|
C#|---------------------0-----------2---|---------------------------------|----2------------------------------------|
G#|---------------------------------3---|---------------------------------|-3-------------------------------0-------|
D#|-------0-----------------------------|-----------3---------------3-----|-------------------0---------------------|


D#|-------0-------0-----1---0-------0---|---------------------------------|-------------------------------------------------|
A#|-1-----0----------0--3-------3-------|----3--1---0------0-----0--------|----------------------------------------------1--|
F#|----2--0---0---------2-----------0---|---------------4-----4-----4-----|----------0-----------------0--------------2-----|
C#|---------------------0-----------2---|---------------------------------|-2--4--------4-----2--4--------4--------2--------|
G#|---------------------------------3---|---------------------------------|-------2--------2--------2--------2--0-----------|
D#|-------0-----------------------------|-----------3---------------3-----|-------------------------------------------------|


D#|-0-----------------------------------------------|-------------------------------------------------|
A#|----1-----------1--------------------------------|-------------------1--0--1--------------3--0-----|
F#|-------------2-----2--------------0--------------|----0-----------0-----------0--------0--------0--|
C#|----------2-----------2--2--4--------4-----2--4--|-------4--------------------------0--------------|
G#|-------0-----------------------2--------2--------|-2--------2--3-----------------------------------|
D#|-------------------------------------------------|-------------------------------3-----------------|


D#|----------1--------------------------|-0-----------------------------------1---|
A#|-------1-----1--------------1-----1--|----1--0--------0----------------1-------|
F#|----2-----------2--2-----------2-----|----------0--------0---------2-----------|
C#|-------------------3-----------------|-------------0--------0------------------|
G#|-------------------------0-----------|-----------------------------------------|
D#|-1-----------------1-----------------|-------3-----------------1---------------|


D#|------1------|-0--------0----------------|--------------------------0---|---------------------3-----------|
A#|-------------|-1----1---1----3--1---0----|---------1---0---1----1---1---|----3--1---0------0-----0--------|
F#|-------------|-2----2---2----------------|-0---0-----------2----2---2---|---------------4-----------0-----|
C#|-------------|---------------------------|------------------------------|---------------------------------|
G#|-------------|-0----0---0----------------|---------3-------0----0---0---|---------------------------------|
D#|-------------|----------------------3----|-3---3-------3----------------|-----------3---------------------|


D#|------0---0---------------------|-3-------------------------0---0---|---------------------3-----------|
A#|-1----1---1----3--1---0------0--|----0------1---0---1---------------|----3--1---0------0-----0--------|
F#|-2----2---2---------------4-----|-------0---------------2-----------|---------------4-----------0-----|
C#|--------------------------------|-----------------------------------|---------------------------------|
G#|-0----0---0---------------------|-----------3-------0---0-------0---|---------------------------------|
D#|----------------------3---3-----|---------------3-------------------|-----------3---------------------|


D#|----------1--------------0---------|-------------------------------1---|------0---------0-------------0-----|
A#|-------1-----1-----------1------1--|-1--1----------0-----------1-------|-------------1-----1--0----------0--|
F#|----2-----------2--------2---2-----|-----------4-----------2-----------|----------0---------------0---------|
C#|-3-----------------3---------------|-------5-----------3---------------|------------------------------------|
G#|-------------------------0---------|-----------------------------------|------3-----------------------------|
D#|-----------------------------------|-----------------------------------|----------------------0-------------|


D#|-0-------------0-------0-----1---0---|-----0-------------------------------|------------------0-------------0-----|
A#|-1----3--1-----0----------0--3-------|-3--------3--1---0------0-----0------|---------------1-----1--0----------0--|
F#|------------2--0---0---------2-------|-----0---------------4-----4-----4---|------------0---------------0---------|
C#|-----------------------------0-------|-----2-------------------------------|---------2----------------------------|
G#|-0-----------------------------------|-----3-------------------------------|------3-------------------------------|
D#|---------------0---------------------|-----------------3---------------3---|------------------------0-------------|


D#|-0-------------0-------0-----1---0---|-----0-------------------------------|------0---------0-------------0-----|
A#|-1----3--1-----0----------0--3-------|-3--------3--1---0------0-----0------|-------------1-----1--0----------0--|
F#|------------2--0---0---------2-------|-----0---------------4-----4-----4---|----------0---------------0---------|
C#|-----------------------------0-------|-----2-------------------------------|------------------------------------|
G#|-0-----------------------------------|-----3-------------------------------|------3-----------------------------|
D#|---------------0---------------------|-----------------3---------------3---|----------------------0-------------|


D#|-0-------------0-------0-----1---0---|-----0-------------------------------|------------------0-------------0-----|
A#|-1----3--1-----0----------0--3-------|-3--------3--1---0------0-----0------|---------------1-----1--0----------0--|
F#|------------2--0---0---------2-------|-----0---------------4-----4-----4---|------------0---------------0---------|
C#|-----------------------------0-------|-----2-------------------------------|---------2----------------------------|
G#|-0-----------------------------------|-----3-------------------------------|------3-------------------------------|
D#|---------------0---------------------|-----------------3---------------3---|------------------------0-------------|


D#|-0-------------0-------0-----1---0---|-----0-------------------------------|---------------0-----------------0--------|
A#|-1----3--1-----0----------0--3-------|-3--------3--1---0------0-----0------|------------1-----1-----------1-----1-----|
F#|------------2--0---0---------2-------|-----0---------------4-----4-----4---|---------2-----------2-----2-----------2--|
C#|-----------------------------0-------|-----2-------------------------------|------------------------2-----------------|
G#|-0-----------------------------------|-----3-------------------------------|------0-----------------------------------|
D#|---------------0---------------------|-----------------3---------------3---|------------------------------------------|


D#|----------0--------------0----|----------------------------------|------0------|
A#|-------1-----1-----------0----|-------------3--------------------|------1------|
F#|----2-----------2--2-----2----|-------4--5-----5--4-5-4-2--------|------2------|
C#|-------------------2-----2----|----------------------------2-----|------2------|
G#|-0-----------------0----------|-------------------------------3--|-2----0------|
D#|------------------------------|----------------------------------|-------------|





Track 2: Lead

D#|--------|--------|--------|--------|--------|--------|--------|--------|--------|
A#|--------|--------|--------|--------|--------|--------|--------|--------|--------|
F#|--------|--------|--------|--------|--------|--------|--------|--------|--------|
C#|--------|--------|--------|--------|--------|--------|--------|--------|--------|
G#|--------|--------|--------|--------|--------|--------|--------|--------|--------|
D#|--------|--------|--------|--------|--------|--------|--------|--------|--------|


D#|--------|--------|--------|--------|--------|--------|--------|--------|--------|
A#|--------|--------|--------|--------|--------|--------|--------|--------|--------|
F#|--------|--------|--------|--------|--------|--------|--------|--------|--------|
C#|--------|--------|--------|--------|--------|--------|--------|--------|--------|
G#|--------|--------|--------|--------|--------|--------|--------|--------|--------|
D#|--------|--------|--------|--------|--------|--------|--------|--------|--------|


D#|--------|--------|--------|--------|--------|--------|--------|--------|--------|
A#|--------|--------|--------|--------|--------|--------|--------|--------|--------|
F#|--------|--------|--------|--------|--------|--------|--------|--------|--------|
C#|--------|--------|--------|--------|--------|--------|--------|--------|--------|
G#|--------|--------|--------|--------|--------|--------|--------|--------|--------|
D#|--------|--------|--------|--------|--------|--------|--------|--------|--------|


D#|--------|--------|--------|--------|--------|--------|--------|--------|--------|
A#|--------|--------|--------|--------|--------|--------|--------|--------|--------|
F#|--------|--------|--------|--------|--------|--------|--------|--------|--------|
C#|--------|--------|--------|--------|--------|--------|--------|--------|--------|
G#|--------|--------|--------|--------|--------|--------|--------|--------|--------|
D#|--------|--------|--------|--------|--------|--------|--------|--------|--------|


D#|--------|--------|--------|--------|--------|--------|--------|--------|--------|
A#|--------|--------|--------|--------|--------|--------|--------|--------|--------|
F#|--------|--------|--------|--------|--------|--------|--------|--------|--------|
C#|--------|--------|--------|--------|--------|--------|--------|--------|--------|
G#|--------|--------|--------|--------|--------|--------|--------|--------|--------|
D#|--------|--------|--------|--------|--------|--------|--------|--------|--------|


D#|--------|--------|--------|--------|--------|--------|--------|--------|--------|
A#|--------|--------|--------|--------|--------|--------|--------|--------|--------|
F#|--------|--------|--------|--------|--------|--------|--------|--------|--------|
C#|--------|--------|--------|--------|--------|--------|--------|--------|--------|
G#|--------|--------|--------|--------|--------|--------|--------|--------|--------|
D#|--------|--------|--------|--------|--------|--------|--------|--------|--------|


D#|--------|--------|--------|--------|--------|--------|-----------------------------------|
A#|--------|--------|--------|--------|--------|--------|-----------------------------------|
F#|--------|--------|--------|--------|--------|--------|-----5--5--5--------------4-5-4----|
C#|--------|--------|--------|--------|--------|--------|-----------------------------------|
G#|--------|--------|--------|--------|--------|--------|-----------------------------------|
D#|--------|--------|--------|--------|--------|--------|-----------------------------------|


D#|------------------------|----------------------------------|-----5--7--8--10--------8-8-8-8----|
A#|------------5--6--5--5--|--------5--6-------5-6-5----------|-----5-----------------------------|
F#|------------------------|-----7-------------------7--------|-----5-----------------------------|
C#|------------------------|----------------------------------|-----7-----------------------------|
G#|------------------------|----------------------------------|-----------------------------------|
D#|------------------------|----------------------------------|-----------------------------------|


D#|----7-8-7-----------------------------|-------------------------------------|-----------------------|
A#|----------8---------5--6-----5--------|-------------------------------------|-----------------------|
F#|--------------------------7-----5--7--|-4--5-----4--------------------------|--------------------4--|
C#|--------------------------------------|-------7-----5--7--3--5--2--3--------|-----------------7-----|
G#|--------------------------------------|-------------------------------5-----|-8---------------------|
D#|--------------------------------------|-------------------------------------|-----------------------|


D#|--------------------------------|--------|--------|--------|--------|--------|--------|
A#|--------------------------------|--------|--------|--------|--------|--------|--------|
F#|-5--7--4-5-4--------------------|--------|--------|--------|--------|--------|--------|
C#|--------------5-------7---------|--------|--------|--------|--------|--------|--------|
G#|------------------7-------------|--------|--------|--------|--------|--------|--------|
D#|--------------------------------|--------|--------|--------|--------|--------|--------|


D#|--------|--------|--------|--------|--------|--------|--------|--------|--------|
A#|--------|--------|--------|--------|--------|--------|--------|--------|--------|
F#|--------|--------|--------|--------|--------|--------|--------|--------|--------|
C#|--------|--------|--------|--------|--------|--------|--------|--------|--------|
G#|--------|--------|--------|--------|--------|--------|--------|--------|--------|
D#|--------|--------|--------|--------|--------|--------|--------|--------|--------|


D#|--------|
A#|--------|
F#|--------|
C#|--------|
G#|--------|
D#|--------|





Track 3: Untitled

G|--------|--------|--------|--------|--------|--------|--------|--------|--------|
D|--------|--------|--------|--------|--------|--------|--------|--------|--------|
A|--------|--------|--------|--------|--------|--------|--------|--------|--------|
E|--------|--------|--------|--------|--------|--------|--------|--------|--------|


G|--------|--------|--------|--------|--------|--------|--------|--------|--------|
D|--------|--------|--------|--------|--------|--------|--------|--------|--------|
A|--------|--------|--------|--------|--------|--------|--------|--------|--------|
E|--------|--------|--------|--------|--------|--------|--------|--------|--------|


G|--------|--------|--------|--------|--------|--------|--------|--------|--------|
D|--------|--------|--------|--------|--------|--------|--------|--------|--------|
A|--------|--------|--------|--------|--------|--------|--------|--------|--------|
E|--------|--------|--------|--------|--------|--------|--------|--------|--------|


G|--------|--------|--------|--------|--------|--------|--------|--------|--------|
D|--------|--------|--------|--------|--------|--------|--------|--------|--------|
A|--------|--------|--------|--------|--------|--------|--------|--------|--------|
E|--------|--------|--------|--------|--------|--------|--------|--------|--------|


G|--------|--------|--------|--------|--------|--------|--------|--------|--------|
D|--------|--------|--------|--------|--------|--------|--------|--------|--------|
A|--------|--------|--------|--------|--------|--------|--------|--------|--------|
E|--------|--------|--------|--------|--------|--------|--------|--------|--------|


G|--------|--------|--------|--------|--------|--------|--------|--------|--------|
D|--------|--------|--------|--------|--------|--------|--------|--------|--------|
A|--------|--------|--------|--------|--------|--------|--------|--------|--------|
E|--------|--------|--------|--------|--------|--------|--------|--------|--------|


G|--------|--------|--------|--------|--------|--------|--------|--------|--------|
D|--------|--------|--------|--------|--------|--------|--------|--------|--------|
A|--------|--------|--------|--------|--------|--------|--------|--------|--------|
E|--------|--------|--------|--------|--------|--------|--------|--------|--------|


G|--------|--------|--------|--------|--------|--------|--------|--------|--------|
D|--------|--------|--------|--------|--------|--------|--------|--------|--------|
A|--------|--------|--------|--------|--------|--------|--------|--------|--------|
E|--------|--------|--------|--------|--------|--------|--------|--------|--------|


G|--------|--------|--------|--------|--------|--------|--------|--------|--------|
D|--------|--------|--------|--------|--------|--------|--------|--------|--------|
A|--------|--------|--------|--------|--------|--------|--------|--------|--------|
E|--------|--------|--------|--------|--------|--------|--------|--------|--------|


G|--------|--------|--------|
D|--------|--------|--------|
A|--------|--------|--------|
E|--------|--------|--------|