Site menu:

    

Browse: 0-9 A B C D E F G H I J K L N O P Q R S T U V W X Y Z

kalmah - kill the idealist:



Title: Kill The Idealist
Artist: 
Album: They Will Return
Author: 


Track 1: Electric clean 1

D#|-------------|-------------|--------|--------|-------------|-------------|--------|
A#|-------------|-------------|--------|--------|-------------|-------------|--------|
F#|-------------|-------------|-5------|-2------|-------------|-------------|-5------|
C#|-9-----5-----|-4-----5-----|-7------|-4------|-9-----5-----|-4-----5-----|-7------|
G#|-------------|-------7-----|--------|--------|-------------|-------7-----|--------|
D#|-------------|-------------|--------|--------|-------------|-------------|--------|


D#|-------------|--------|--------|--------|--------|--------|--------|--------|--------|
A#|-------------|--------|--------|--------|--------|--------|--------|--------|--------|
F#|-2-----------|--------|--------|--------|--------|--------|--------|--------|--------|
C#|-4-----------|--------|--------|--------|--------|--------|--------|--------|--------|
G#|-------------|--------|--------|--------|--------|--------|--------|--------|--------|
D#|-------------|--------|--------|--------|--------|--------|--------|--------|--------|


D#|--------|--------|--------|--------|--------|--------|--------|--------|--------|
A#|--------|--------|--------|--------|--------|--------|--------|--------|--------|
F#|--------|--------|--------|--------|--------|--------|--------|--------|--------|
C#|--------|--------|--------|--------|--------|--------|--------|--------|--------|
G#|--------|--------|--------|--------|--------|--------|--------|--------|--------|
D#|--------|--------|--------|--------|--------|--------|--------|--------|--------|


D#|--------|--------|--------|--------|--------|--------|--------|--------|--------|
A#|--------|--------|--------|--------|--------|--------|--------|--------|--------|
F#|--------|--------|--------|--------|--------|--------|--------|--------|--------|
C#|--------|--------|--------|--------|--------|--------|--------|--------|--------|
G#|--------|--------|--------|--------|--------|--------|--------|--------|--------|
D#|--------|--------|--------|--------|--------|--------|--------|--------|--------|


D#|--------|--------|--------|--------|--------|--------|--------|--------|--------|
A#|--------|--------|--------|--------|--------|--------|--------|--------|--------|
F#|--------|--------|--------|--------|--------|--------|--------|--------|--------|
C#|--------|--------|--------|--------|--------|--------|--------|--------|--------|
G#|--------|--------|--------|--------|--------|--------|--------|--------|--------|
D#|--------|--------|--------|--------|--------|--------|--------|--------|--------|


D#|--------|--------|--------|--------|--------|--------|--------|--------|--------|
A#|--------|--------|--------|--------|--------|--------|--------|--------|--------|
F#|--------|--------|--------|--------|--------|--------|--------|--------|--------|
C#|--------|--------|--------|--------|--------|--------|--------|--------|--------|
G#|--------|--------|--------|--------|--------|--------|--------|--------|--------|
D#|--------|--------|--------|--------|--------|--------|--------|--------|--------|


D#|--------|--------|--------|--------|--------|--------|--------|--------|--------|
A#|--------|--------|--------|--------|--------|--------|--------|--------|--------|
F#|--------|--------|--------|--------|--------|--------|--------|--------|--------|
C#|--------|--------|--------|--------|--------|--------|--------|--------|--------|
G#|--------|--------|--------|--------|--------|--------|--------|--------|--------|
D#|--------|--------|--------|--------|--------|--------|--------|--------|--------|


D#|--------|--------|--------|--------|--------|--------|--------|--------|--------|
A#|--------|--------|--------|--------|--------|--------|--------|--------|--------|
F#|--------|--------|--------|--------|--------|--------|--------|--------|--------|
C#|--------|--------|--------|--------|--------|--------|--------|--------|--------|
G#|--------|--------|--------|--------|--------|--------|--------|--------|--------|
D#|--------|--------|--------|--------|--------|--------|--------|--------|--------|


D#|--------|--------|--------|--------|--------|--------|--------|--------|--------|
A#|--------|--------|--------|--------|--------|--------|--------|--------|--------|
F#|--------|--------|--------|--------|--------|--------|--------|--------|--------|
C#|--------|--------|--------|--------|--------|--------|--------|--------|--------|
G#|--------|--------|--------|--------|--------|--------|--------|--------|--------|
D#|--------|--------|--------|--------|--------|--------|--------|--------|--------|


D#|--------|--------|--------|--------|--------|--------|--------|--------|--------|
A#|--------|--------|--------|--------|--------|--------|--------|--------|--------|
F#|--------|--------|--------|--------|--------|--------|--------|--------|--------|
C#|--------|--------|--------|--------|--------|--------|--------|--------|--------|
G#|--------|--------|--------|--------|--------|--------|--------|--------|--------|
D#|--------|--------|--------|--------|--------|--------|--------|--------|--------|


D#|--------|--------|--------|--------|--------|--------|--------|--------|--------|
A#|--------|--------|--------|--------|--------|--------|--------|--------|--------|
F#|--------|--------|--------|--------|--------|--------|--------|--------|--------|
C#|--------|--------|--------|--------|--------|--------|--------|--------|--------|
G#|--------|--------|--------|--------|--------|--------|--------|--------|--------|
D#|--------|--------|--------|--------|--------|--------|--------|--------|--------|


D#|--------|--------|--------|--------|--------|--------|--------|--------|--------|
A#|--------|--------|--------|--------|--------|--------|--------|--------|--------|
F#|--------|--------|--------|--------|--------|--------|--------|--------|--------|
C#|--------|--------|--------|--------|--------|--------|--------|--------|--------|
G#|--------|--------|--------|--------|--------|--------|--------|--------|--------|
D#|--------|--------|--------|--------|--------|--------|--------|--------|--------|


D#|--------|--------|--------|--------|--------|--------|--------|--------|--------|
A#|--------|--------|--------|--------|--------|--------|--------|--------|--------|
F#|--------|--------|--------|--------|--------|--------|--------|--------|--------|
C#|--------|--------|--------|--------|--------|--------|--------|--------|--------|
G#|--------|--------|--------|--------|--------|--------|--------|--------|--------|
D#|--------|--------|--------|--------|--------|--------|--------|--------|--------|


D#|--------|--------|--------|--------|--------|--------|--------|--------|--------|
A#|--------|--------|--------|--------|--------|--------|--------|--------|--------|
F#|--------|--------|--------|--------|--------|--------|--------|--------|--------|
C#|--------|--------|--------|--------|--------|--------|--------|--------|--------|
G#|--------|--------|--------|--------|--------|--------|--------|--------|--------|
D#|--------|--------|--------|--------|--------|--------|--------|--------|--------|


D#|--------|--------|--------|--------|--------|--------|--------|--------|--------|
A#|--------|--------|--------|--------|--------|--------|--------|--------|--------|
F#|--------|--------|--------|--------|--------|--------|--------|--------|--------|
C#|--------|--------|--------|--------|--------|--------|--------|--------|--------|
G#|--------|--------|--------|--------|--------|--------|--------|--------|--------|
D#|--------|--------|--------|--------|--------|--------|--------|--------|--------|


D#|--------|--------|--------|--------|--------|--------|--------|--------|--------|
A#|--------|--------|--------|--------|--------|--------|--------|--------|--------|
F#|--------|--------|--------|--------|--------|--------|--------|--------|--------|
C#|--------|--------|--------|--------|--------|--------|--------|--------|--------|
G#|--------|--------|--------|--------|--------|--------|--------|--------|--------|
D#|--------|--------|--------|--------|--------|--------|--------|--------|--------|


D#|--------|--------|--------|--------|--------|--------|--------|--------|--------|
A#|--------|--------|--------|--------|--------|--------|--------|--------|--------|
F#|--------|--------|--------|--------|--------|--------|--------|--------|--------|
C#|--------|--------|--------|--------|--------|--------|--------|--------|--------|
G#|--------|--------|--------|--------|--------|--------|--------|--------|--------|
D#|--------|--------|--------|--------|--------|--------|--------|--------|--------|


D#|--------|--------|--------|--------|--------|--------|--------|--------|--------|
A#|--------|--------|--------|--------|--------|--------|--------|--------|--------|
F#|--------|--------|--------|--------|--------|--------|--------|--------|--------|
C#|--------|--------|--------|--------|--------|--------|--------|--------|--------|
G#|--------|--------|--------|--------|--------|--------|--------|--------|--------|
D#|--------|--------|--------|--------|--------|--------|--------|--------|--------|


D#|--------|--------|--------|--------|--------|--------|--------|--------|--------|
A#|--------|--------|--------|--------|--------|--------|--------|--------|--------|
F#|--------|--------|--------|--------|--------|--------|--------|--------|--------|
C#|--------|--------|--------|--------|--------|--------|--------|--------|--------|
G#|--------|--------|--------|--------|--------|--------|--------|--------|--------|
D#|--------|--------|--------|--------|--------|--------|--------|--------|--------|





Track 2: Electric Clean 2

D#|-------------------------------------------------|-------------------------------------------------|
A#|-0-----------0-----------0-----------0-----------|-0-----------0-----------0-----------0-----------|
F#|-----2-----------2-----------0-----------0-------|-----------------------------0-----------0-------|
C#|---------2-----------2-----------2-----------2---|-----4---2-------4---2-----------2-----------2---|
G#|-------------------------------------------------|-------------------------------------------------|
D#|-------------------------------------------------|-------------------------------------------------|


D#|-------------------------------------------------|-------------------------------------------------|
A#|-1-----------1-----------0-----------1-----------|-------------------------------------1---0-------|
F#|-----2-----------2-----------2-----------2-------|-2-----------2-----------2-------------------2---|
C#|---------2-----------2-----------2-----------2---|-----4-----------4-----------4-------------------|
G#|-------------------------------------------------|---------2-----------2-----------2---------------|
D#|-------------------------------------------------|-------------------------------------------------|


D#|-------------------------------------------------|-------------------------------------------------|
A#|-0-----------0-----------0-----------0-----------|-0-----------0-----------0-----------0-----------|
F#|-----2-----------2-----------0-----------0-------|-----------------------------0-----------0-------|
C#|---------2-----------2-----------2-----------2---|-----4---2-------4---2-----------2-----------2---|
G#|-------------------------------------------------|-------------------------------------------------|
D#|-------------------------------------------------|-------------------------------------------------|


D#|-------------------------------------------------|------------------------------------------|
A#|-1-----------1-----------0-----------1-----------|------------------------------------------|
F#|-----2-----------2-----------2-----------2-------|-2-----------2-----------2----------------|
C#|---------2-----------2-----------2-----------2---|-----4-----------4-----------4------------|
G#|-------------------------------------------------|---------2-----------2-----------2--------|
D#|-------------------------------------------------|------------------------------------------|


D#|--------|--------|--------|--------|--------|--------|--------|--------|--------|
A#|--------|--------|--------|--------|--------|--------|--------|--------|--------|
F#|--------|--------|--------|--------|--------|--------|--------|--------|--------|
C#|--------|--------|--------|--------|--------|--------|--------|--------|--------|
G#|--------|--------|--------|--------|--------|--------|--------|--------|--------|
D#|--------|--------|--------|--------|--------|--------|--------|--------|--------|


D#|--------|--------|--------|--------|--------|--------|--------|--------|--------|
A#|--------|--------|--------|--------|--------|--------|--------|--------|--------|
F#|--------|--------|--------|--------|--------|--------|--------|--------|--------|
C#|--------|--------|--------|--------|--------|--------|--------|--------|--------|
G#|--------|--------|--------|--------|--------|--------|--------|--------|--------|
D#|--------|--------|--------|--------|--------|--------|--------|--------|--------|


D#|--------|--------|--------|--------|--------|--------|--------|--------|--------|
A#|--------|--------|--------|--------|--------|--------|--------|--------|--------|
F#|--------|--------|--------|--------|--------|--------|--------|--------|--------|
C#|--------|--------|--------|--------|--------|--------|--------|--------|--------|
G#|--------|--------|--------|--------|--------|--------|--------|--------|--------|
D#|--------|--------|--------|--------|--------|--------|--------|--------|--------|


D#|--------|--------|--------|--------|--------|--------|--------|--------|--------|
A#|--------|--------|--------|--------|--------|--------|--------|--------|--------|
F#|--------|--------|--------|--------|--------|--------|--------|--------|--------|
C#|--------|--------|--------|--------|--------|--------|--------|--------|--------|
G#|--------|--------|--------|--------|--------|--------|--------|--------|--------|
D#|--------|--------|--------|--------|--------|--------|--------|--------|--------|


D#|--------|--------|--------|--------|--------|--------|--------|--------|--------|
A#|--------|--------|--------|--------|--------|--------|--------|--------|--------|
F#|--------|--------|--------|--------|--------|--------|--------|--------|--------|
C#|--------|--------|--------|--------|--------|--------|--------|--------|--------|
G#|--------|--------|--------|--------|--------|--------|--------|--------|--------|
D#|--------|--------|--------|--------|--------|--------|--------|--------|--------|


D#|--------|--------|--------|--------|--------|--------|--------|--------|--------|
A#|--------|--------|--------|--------|--------|--------|--------|--------|--------|
F#|--------|--------|--------|--------|--------|--------|--------|--------|--------|
C#|--------|--------|--------|--------|--------|--------|--------|--------|--------|
G#|--------|--------|--------|--------|--------|--------|--------|--------|--------|
D#|--------|--------|--------|--------|--------|--------|--------|--------|--------|


D#|--------|--------|--------|--------|--------|--------|--------|--------|--------|
A#|--------|--------|--------|--------|--------|--------|--------|--------|--------|
F#|--------|--------|--------|--------|--------|--------|--------|--------|--------|
C#|--------|--------|--------|--------|--------|--------|--------|--------|--------|
G#|--------|--------|--------|--------|--------|--------|--------|--------|--------|
D#|--------|--------|--------|--------|--------|--------|--------|--------|--------|


D#|--------|--------|--------|--------|--------|--------|--------|--------|--------|
A#|--------|--------|--------|--------|--------|--------|--------|--------|--------|
F#|--------|--------|--------|--------|--------|--------|--------|--------|--------|
C#|--------|--------|--------|--------|--------|--------|--------|--------|--------|
G#|--------|--------|--------|--------|--------|--------|--------|--------|--------|
D#|--------|--------|--------|--------|--------|--------|--------|--------|--------|


D#|--------|--------|--------|--------|--------|--------|--------|--------|--------|
A#|--------|--------|--------|--------|--------|--------|--------|--------|--------|
F#|--------|--------|--------|--------|--------|--------|--------|--------|--------|
C#|--------|--------|--------|--------|--------|--------|--------|--------|--------|
G#|--------|--------|--------|--------|--------|--------|--------|--------|--------|
D#|--------|--------|--------|--------|--------|--------|--------|--------|--------|


D#|--------|--------|--------|--------|--------|--------|--------|--------|--------|
A#|--------|--------|--------|--------|--------|--------|--------|--------|--------|
F#|--------|--------|--------|--------|--------|--------|--------|--------|--------|
C#|--------|--------|--------|--------|--------|--------|--------|--------|--------|
G#|--------|--------|--------|--------|--------|--------|--------|--------|--------|
D#|--------|--------|--------|--------|--------|--------|--------|--------|--------|


D#|--------|--------|--------|--------|--------|--------|--------|--------|--------|
A#|--------|--------|--------|--------|--------|--------|--------|--------|--------|
F#|--------|--------|--------|--------|--------|--------|--------|--------|--------|
C#|--------|--------|--------|--------|--------|--------|--------|--------|--------|
G#|--------|--------|--------|--------|--------|--------|--------|--------|--------|
D#|--------|--------|--------|--------|--------|--------|--------|--------|--------|


D#|--------|--------|--------|--------|--------|--------|--------|--------|--------|
A#|--------|--------|--------|--------|--------|--------|--------|--------|--------|
F#|--------|--------|--------|--------|--------|--------|--------|--------|--------|
C#|--------|--------|--------|--------|--------|--------|--------|--------|--------|
G#|--------|--------|--------|--------|--------|--------|--------|--------|--------|
D#|--------|--------|--------|--------|--------|--------|--------|--------|--------|


D#|--------|--------|--------|--------|-------------------------------------------------|
A#|--------|--------|--------|--------|-0-----------0-----------0-----------0-----------|
F#|--------|--------|--------|--------|-----2-----------2-----------0-----------0-------|
C#|--------|--------|--------|--------|---------2-----------2-----------2-----------2---|
G#|--------|--------|--------|--------|-------------------------------------------------|
D#|--------|--------|--------|--------|-------------------------------------------------|


D#|-------------------------------------------------|-------------------------------------------------|
A#|-0-----------0-----------0-----------0-----------|-1-----------1-----------0-----------1-----------|
F#|-----------------------------0-----------0-------|-----2-----------2-----------2-----------2-------|
C#|-----4---2-------4---2-----------2-----------2---|---------2-----------2-----------2-----------2---|
G#|-------------------------------------------------|-------------------------------------------------|
D#|-------------------------------------------------|-------------------------------------------------|


D#|-------------------------------------------------|-------------------------------------------------|
A#|-------------------------------------1---0-------|-0-----------0-----------0-----------0-----------|
F#|-2-----------2-----------2-------------------2---|-----2-----------2-----------0-----------0-------|
C#|-----4-----------4-----------4-------------------|---------2-----------2-----------2-----------2---|
G#|---------2-----------2-----------2---------------|-------------------------------------------------|
D#|-------------------------------------------------|-------------------------------------------------|


D#|-------------------------------------------------|-------------------------------------------------|
A#|-0-----------0-----------0-----------0-----------|-1-----------1-----------0-----------1-----------|
F#|-----------------------------0-----------0-------|-----2-----------2-----------2-----------2-------|
C#|-----4---2-------4---2-----------2-----------2---|---------2-----------2-----------2-----------2---|
G#|-------------------------------------------------|-------------------------------------------------|
D#|-------------------------------------------------|-------------------------------------------------|


D#|-------------------------------------------------|-------------------------------------------------|
A#|-------------------------------------1---0-------|-0-----------0-----------0-----------0-----------|
F#|-2-----------2-----------2-------------------2---|-----2-----------2-----------0-----------0-------|
C#|-----4-----------4-----------4-------------------|---------2-----------2-----------2-----------2---|
G#|---------2-----------2-----------2---------------|-------------------------------------------------|
D#|-------------------------------------------------|-------------------------------------------------|


D#|-------------------------------------------------|-------------------------------------------------|
A#|-0-----------0-----------0-----------0-----------|-1-----------1-----------0-----------1-----------|
F#|-----------------------------0-----------0-------|-----2-----------2-----------2-----------2-------|
C#|-----4---2-------4---2-----------2-----------2---|---------2-----------2-----------2-----------2---|
G#|-------------------------------------------------|-------------------------------------------------|
D#|-------------------------------------------------|-------------------------------------------------|


D#|-------------------------------------------------|-------------------------------------------------|
A#|-------------------------------------1---0-------|-0-----------0-----------0-----------0-----------|
F#|-2-----------2-----------2-------------------2---|-----2-----------2-----------0-----------0-------|
C#|-----4-----------4-----------4-------------------|---------2-----------2-----------2-----------2---|
G#|---------2-----------2-----------2---------------|-------------------------------------------------|
D#|-------------------------------------------------|-------------------------------------------------|


D#|-------------------------------------------------|-------------------------------------------------|
A#|-0-----------0-----------0-----------0-----------|-1-----------1-----------0-----------1-----------|
F#|-----------------------------0-----------0-------|-----2-----------2-----------2-----------2-------|
C#|-----4---2-------4---2-----------2-----------2---|---------2-----------2-----------2-----------2---|
G#|-------------------------------------------------|-------------------------------------------------|
D#|-------------------------------------------------|-------------------------------------------------|


D#|-------------------------------------------------|--------|--------|--------|--------|
A#|-------------------------------------------------|--------|--------|--------|--------|
F#|-2-----------2-----------2-----------2-----------|--------|--------|--------|--------|
C#|-----4-----------4-----------4-----------4-------|--------|--------|--------|--------|
G#|---------2-----------2-----------2-----------2---|--------|--------|--------|--------|
D#|-------------------------------------------------|--------|--------|--------|--------|


D#|--------|--------|--------|--------|--------|--------|--------|--------|--------|
A#|--------|--------|--------|--------|--------|--------|--------|--------|--------|
F#|--------|--------|--------|--------|--------|--------|--------|--------|--------|
C#|--------|--------|--------|--------|--------|--------|--------|--------|--------|
G#|--------|--------|--------|--------|--------|--------|--------|--------|--------|
D#|--------|--------|--------|--------|--------|--------|--------|--------|--------|


D#|--------|--------|--------|--------|--------|--------|--------|--------|--------|
A#|--------|--------|--------|--------|--------|--------|--------|--------|--------|
F#|--------|--------|--------|--------|--------|--------|--------|--------|--------|
C#|--------|--------|--------|--------|--------|--------|--------|--------|--------|
G#|--------|--------|--------|--------|--------|--------|--------|--------|--------|
D#|--------|--------|--------|--------|--------|--------|--------|--------|--------|


D#|--------|--------|--------|--------|--------|--------|--------|--------|--------|
A#|--------|--------|--------|--------|--------|--------|--------|--------|--------|
F#|--------|--------|--------|--------|--------|--------|--------|--------|--------|
C#|--------|--------|--------|--------|--------|--------|--------|--------|--------|
G#|--------|--------|--------|--------|--------|--------|--------|--------|--------|
D#|--------|--------|--------|--------|--------|--------|--------|--------|--------|


D#|--------|--------|
A#|--------|--------|
F#|--------|--------|
C#|--------|--------|
G#|--------|--------|
D#|--------|--------|





Track 3: Honky Tonk Piano

D#|--------|--------|--------|--------|--------|--------|--------|--------|--------|
A#|--------|--------|--------|--------|--------|--------|--------|--------|--------|
F#|--------|--------|--------|--------|--------|--------|--------|--------|--------|
C#|-2------|-2------|-2------|-2------|-2------|-2------|-2------|-2------|--------|
G#|--------|--------|--------|--------|--------|--------|--------|--------|--------|
D#|-0------|-0------|-0------|-0------|-0------|-0------|-0------|-0------|--------|


D#|--------|--------|--------|--------|--------|--------|--------|--------|--------|
A#|--------|--------|--------|--------|--------|--------|--------|--------|--------|
F#|--------|--------|--------|--------|--------|--------|--------|--------|--------|
C#|--------|--------|--------|--------|--------|--------|--------|--------|--------|
G#|--------|--------|--------|--------|--------|--------|--------|--------|--------|
D#|--------|--------|--------|--------|--------|--------|--------|--------|--------|


D#|--------|--------|--------|--------|--------|--------|--------|--------|--------|
A#|--------|--------|--------|--------|--------|--------|--------|--------|--------|
F#|--------|--------|--------|--------|--------|--------|--------|--------|--------|
C#|--------|--------|--------|--------|--------|--------|--------|--------|--------|
G#|--------|--------|--------|--------|--------|--------|--------|--------|--------|
D#|--------|--------|--------|--------|--------|--------|--------|--------|--------|


D#|--------|--------|--------|--------|--------|--------|--------|--------|--------|
A#|--------|--------|--------|--------|--------|--------|--------|--------|--------|
F#|--------|--------|--------|--------|--------|--------|--------|--------|--------|
C#|--------|--------|--------|--------|--------|--------|--------|--------|--------|
G#|--------|--------|--------|--------|--------|--------|--------|--------|--------|
D#|--------|--------|--------|--------|--------|--------|--------|--------|--------|


D#|--------|--------|--------|--------|--------|--------|--------|--------|--------|
A#|--------|--------|--------|--------|--------|--------|--------|--------|--------|
F#|--------|--------|--------|--------|--------|--------|--------|--------|--------|
C#|--------|--------|--------|--------|--------|--------|--------|--------|--------|
G#|--------|--------|--------|--------|--------|--------|--------|--------|--------|
D#|--------|--------|--------|--------|--------|--------|--------|--------|--------|


D#|--------|--------|--------|--------|--------|--------|--------|--------|--------|
A#|--------|--------|--------|--------|--------|--------|--------|--------|--------|
F#|--------|--------|--------|--------|--------|--------|--------|--------|--------|
C#|--------|--------|--------|--------|--------|--------|--------|--------|--------|
G#|--------|--------|--------|--------|--------|--------|--------|--------|--------|
D#|--------|--------|--------|--------|--------|--------|--------|--------|--------|


D#|--------|--------|--------|--------|--------|--------|--------|--------|--------|
A#|--------|--------|--------|--------|--------|--------|--------|--------|--------|
F#|--------|--------|--------|--------|--------|--------|--------|--------|--------|
C#|--------|--------|--------|--------|--------|--------|--------|--------|--------|
G#|--------|--------|--------|--------|--------|--------|--------|--------|--------|
D#|--------|--------|--------|--------|--------|--------|--------|--------|--------|


D#|--------|-------------------------------------------------|-------------------------------------------------|
A#|--------|---------------------------------8-------8-------|---------------------------------8---6-----------|
F#|--------|---------4-------4-------4---5-------5-------5---|-4-------7-------7-----------5-----------5-------|
C#|--------|-2---5-------7-------7---------------------------|-----7-------7-------2---3-------------------3---|
G#|--------|-------------------------------------------------|-------------------------------------------------|
D#|--------|-------------------------------------------------|-------------------------------------------------|


D#|-------------------------------------------------|-------------------------------------------------|
A#|---------------------------------8-------8-------|-----7---10------10------8---12--8---12--8-------|
F#|---------4-------4-------4---5-------5-------5---|-7-----------7-------7-----------------------4---|
C#|-----5-------7-------7---------------------------|-------------------------------------------------|
G#|-7-----------------------------------------------|-------------------------------------------------|
D#|-------------------------------------------------|-------------------------------------------------|


D#|-------------------------------------------------|-------------------------------------------------|
A#|---------------------------------8-------8-------|---------------------------------8---6-----------|
F#|---------4-------4-------4---5-------5-------5---|-4-------7-------7-----------5-----------5-------|
C#|-2---5-------7-------7---------------------------|-----7-------7-------2---3-------------------3---|
G#|-------------------------------------------------|-------------------------------------------------|
D#|-------------------------------------------------|-------------------------------------------------|


D#|-------------------------------------------------|-------------------------------------------------|
A#|---------------------------------8-------8-------|-----7---10------10------8---12--8---12--8-------|
F#|---------4-------4-------4---5-------5-------5---|-7-----------7-------7-----------------------4---|
C#|-----5-------7-------7---------------------------|-------------------------------------------------|
G#|-7-----------------------------------------------|-------------------------------------------------|
D#|-------------------------------------------------|-------------------------------------------------|


D#|-------------------------------------------------|-------------------------------------------------|
A#|---------------------------------8-------8-------|---------------------------------8---6-----------|
F#|---------4-------4-------4---5-------5-------5---|-4-------7-------7-----------5-----------5-------|
C#|-2---5-------7-------7---------------------------|-----7-------7-------2---3-------------------3---|
G#|-------------------------------------------------|-------------------------------------------------|
D#|-------------------------------------------------|-------------------------------------------------|


D#|-------------------------------------------------|-------------------------------------------------|
A#|---------------------------------8-------8-------|-----7---10------10------8---12--8---12--8-------|
F#|---------4-------4-------4---5-------5-------5---|-7-----------7-------7-----------------------4---|
C#|-----5-------7-------7---------------------------|-------------------------------------------------|
G#|-7-----------------------------------------------|-------------------------------------------------|
D#|-------------------------------------------------|-------------------------------------------------|


D#|-------------------------------------------------|-------------------------------------------------|
A#|---------------------------------8-------8-------|---------------------------------8---6-----------|
F#|---------4-------4-------4---5-------5-------5---|-4-------7-------7-----------5-----------5-------|
C#|-2---5-------7-------7---------------------------|-----7-------7-------2---3-------------------3---|
G#|-------------------------------------------------|-------------------------------------------------|
D#|-------------------------------------------------|-------------------------------------------------|


D#|-------------------------------------------------|-------------------------------------------------|
A#|---------------------------------8-------8-------|-----7---10------10------8---12--8---12--8-------|
F#|---------4-------4-------4---5-------5-------5---|-7-----------7-------7-----------------------4---|
C#|-----5-------7-------7---------------------------|-------------------------------------------------|
G#|-7-----------------------------------------------|-------------------------------------------------|
D#|-------------------------------------------------|-------------------------------------------------|


D#|--------|--------|--------|--------|--------|--------|--------|--------|--------|
A#|--------|--------|--------|--------|--------|--------|--------|--------|--------|
F#|--------|--------|--------|--------|--------|--------|--------|--------|--------|
C#|--------|--------|--------|--------|--------|--------|--------|--------|--------|
G#|--------|--------|--------|--------|--------|--------|--------|--------|--------|
D#|--------|--------|--------|--------|--------|--------|--------|--------|--------|


D#|--------|--------|--------|--------|--------|--------|--------|--------|--------|
A#|--------|--------|--------|--------|--------|--------|--------|--------|--------|
F#|--------|--------|--------|--------|--------|--------|--------|--------|--------|
C#|--------|--------|--------|--------|--------|--------|--------|--------|--------|
G#|--------|--------|--------|--------|--------|--------|--------|--------|--------|
D#|--------|--------|--------|--------|--------|--------|--------|--------|--------|


D#|--------|--------|--------|--------|--------|--------|-------------------------------------------------|
A#|--------|--------|--------|--------|--------|--------|-------------------------10--0---7---0---10--0---|
F#|--------|--------|--------|--------|--------|--------|-12--9-------9---11--12--------------------------|
C#|--------|--------|--------|--------|--------|--------|---------9---------------------------------------|
G#|--------|--------|--------|--------|--------|--------|-------------------------------------------------|
D#|--------|--------|--------|--------|--------|--------|-------------------------------------------------|


D#|-------------------------------------------------|-------------------------------------------------|
A#|-12--0---8---0---12--0---10--0---7---0---10--0---|-------------------------10--0---7---0---10--0---|
F#|-------------------------------------------------|-12--9-------9---11--12--------------------------|
C#|-------------------------------------------------|---------9---------------------------------------|
G#|-------------------------------------------------|-------------------------------------------------|
D#|-------------------------------------------------|-------------------------------------------------|


D#|-------------------------------------------------|-------------------------------------------------|
A#|-12--8-------8---10--12--10--6-------6---8---10--|-------------------------10--0---7---0---10--0---|
F#|---------9-----------------------7---------------|-12--9-------9---11--12--------------------------|
C#|-------------------------------------------------|---------9---------------------------------------|
G#|-------------------------------------------------|-------------------------------------------------|
D#|-------------------------------------------------|-------------------------------------------------|


D#|-------------------------------------------------|-------------------------------------------------|
A#|-12--0---8---0---12--0---10--0---7---0---10--0---|-------------------------10--0---7---0---10--0---|
F#|-------------------------------------------------|-12--9-------9---11--12--------------------------|
C#|-------------------------------------------------|---------9---------------------------------------|
G#|-------------------------------------------------|-------------------------------------------------|
D#|-------------------------------------------------|-------------------------------------------------|


D#|-------------------------------------------------|-------------------------------------------------|
A#|-12--8-------8---10--12--10--6-------6---8---10--|-------------------------10--0---7---0---10--0---|
F#|---------9-----------------------7---------------|-12--9-------9---11--12--------------------------|
C#|-------------------------------------------------|---------9---------------------------------------|
G#|-------------------------------------------------|-------------------------------------------------|
D#|-------------------------------------------------|-------------------------------------------------|


D#|-------------------------------------------------|-------------------------------------------------|
A#|-12--0---8---0---12--0---10--0---7---0---10--0---|-------------------------10--0---7---0---10--0---|
F#|-------------------------------------------------|-12--9-------9---11--12--------------------------|
C#|-------------------------------------------------|---------9---------------------------------------|
G#|-------------------------------------------------|-------------------------------------------------|
D#|-------------------------------------------------|-------------------------------------------------|


D#|-------------------------------------------------|-------------------------------------------------|
A#|-12--8-------8---10--12--10--6-------6---8---10--|-------------------------10--0---7---0---10--0---|
F#|---------9-----------------------7---------------|-12--9-------9---11--12--------------------------|
C#|-------------------------------------------------|---------9---------------------------------------|
G#|-------------------------------------------------|-------------------------------------------------|
D#|-------------------------------------------------|-------------------------------------------------|


D#|-------------------------------------------------|-------------------------------------------------|
A#|-12--0---8---0---12--0---10--0---7---0---10--0---|-------------------------10--0---7---0---10--0---|
F#|-------------------------------------------------|-12--9-------9---11--12--------------------------|
C#|-------------------------------------------------|---------9---------------------------------------|
G#|-------------------------------------------------|-------------------------------------------------|
D#|-------------------------------------------------|-------------------------------------------------|


D#|-------------------------------------------------|--------|--------|--------|--------|
A#|-12--8-------8---10--12--10--6-------6---8---10--|--------|--------|--------|--------|
F#|---------9-----------------------7---------------|--------|--------|--------|--------|
C#|-------------------------------------------------|-2------|-2------|-2------|-2------|
G#|-------------------------------------------------|--------|--------|--------|--------|
D#|-------------------------------------------------|-0------|-0------|-0------|-0------|


D#|--------|--------|--------|--------|--------|--------|--------|--------|--------|
A#|--------|--------|--------|--------|--------|--------|--------|--------|--------|
F#|--------|--------|--------|--------|--------|--------|--------|--------|--------|
C#|-2------|-2------|-2------|-2------|-2------|-2------|-2------|-2------|-2------|
G#|--------|--------|--------|--------|--------|--------|--------|--------|--------|
D#|-0------|-0------|-0------|-0------|-0------|-0------|-0------|-0------|-0------|


D#|--------|--------|--------|--------|--------|--------|--------|--------|--------|
A#|--------|--------|--------|--------|--------|--------|--------|--------|--------|
F#|--------|--------|--------|--------|--------|--------|--------|--------|--------|
C#|-2------|-2------|-2------|--------|--------|--------|--------|--------|--------|
G#|--------|--------|--------|--------|--------|--------|--------|--------|--------|
D#|-0------|-0------|-0------|--------|--------|--------|--------|--------|--------|


D#|--------|--------|--------|--------|--------|--------|--------|--------|--------|
A#|--------|--------|--------|--------|--------|--------|--------|--------|--------|
F#|--------|--------|--------|--------|--------|--------|--------|--------|--------|
C#|--------|--------|--------|--------|--------|--------|--------|--------|--------|
G#|--------|--------|--------|--------|--------|--------|--------|--------|--------|
D#|--------|--------|--------|--------|--------|--------|--------|--------|--------|


D#|--------|--------|--------|--------|--------|--------|--------|--------|--------|
A#|--------|--------|--------|--------|--------|--------|--------|--------|--------|
F#|--------|--------|--------|--------|--------|--------|--------|--------|--------|
C#|--------|--------|--------|--------|--------|--------|--------|--------|--------|
G#|--------|--------|--------|--------|--------|--------|--------|--------|--------|
D#|--------|--------|--------|--------|--------|--------|--------|--------|--------|


D#|--------|--------|--------|--------|--------|--------|--------|--------|--------|
A#|--------|--------|--------|--------|--------|--------|--------|--------|--------|
F#|--------|--------|--------|--------|--------|--------|--------|--------|--------|
C#|--------|--------|--------|--------|--------|--------|--------|--------|--------|
G#|--------|--------|--------|--------|--------|--------|--------|--------|--------|
D#|--------|--------|--------|--------|--------|--------|--------|--------|--------|





Track 4: Distortion Guitar 1

D#|--------|--------|--------|--------|--------|--------|--------|--------------------|
A#|--------|--------|--------|--------|--------|--------|--------|--------------------|
F#|--------|--------|--------|--------|--------|--------|--------|--------------------|
C#|--------|--------|--------|--------|--------|--------|--------|--------------------|
G#|--------|--------|--------|--------|--------|--------|--------|--------2---2---2---|
D#|--------|--------|--------|--------|--------|--------|--------|--------0---0---0---|


D#|--------|--------|--------|------------------------|--------|--------|--------|
A#|--------|--------|--------|------------------------|--------|--------|--------|
F#|--------|--------|--------|------------------------|--------|--------|--------|
C#|-2------|-2------|--------|------------------------|-2------|-2------|--------|
G#|-2------|-2------|-2------|-2-----2----2---2---2---|-2------|-2------|-2------|
D#|-0------|-0------|-0------|-0-----0----0---0---0---|-0------|-0------|-0------|


D#|-------------------------------------------------|-------------------------7-------7---5-----------|
A#|-------------------------------------------------|-5---0---5---8---5---8-------8-----------7---7---|
F#|-------------------------------------------------|-------------------------------------------------|
C#|-------------------------------------------------|-------------------------------------------------|
G#|-0---0---0---0---0---0---0---0---0---0---0---0---|-------------------------------------------------|
D#|-2---2---2---2---2---2---2---2---2---2---2---2---|-------------------------------------------------|


D#|-------------------------8---5---8---------------|-------------------------7-------7---5-----------|
A#|-5---0---5---8---5---8---------------7-------7---|-5---0---5---8---5---8-------8-----------7---7---|
F#|-----------------------------------------7-------|-------------------------------------------------|
C#|-------------------------------------------------|-------------------------------------------------|
G#|-------------------------------------------------|-------------------------------------------------|
D#|-------------------------------------------------|-------------------------------------------------|


D#|-------------------------------------------------|-------------------------7-------7---5-----------|
A#|-5---0---5---8---5---8---7---0---7---5---0---4---|-5---0---5---8---5---8-------8-----------7---7---|
F#|-------------------------------------------------|-------------------------------------------------|
C#|-------------------------------------------------|-------------------------------------------------|
G#|-------------------------------------------------|-------------------------------------------------|
D#|-------------------------------------------------|-------------------------------------------------|


D#|-------------------------8---5---8---------------|-------------------------7-------7---5-----------|
A#|-5---0---5---8---5---8---------------7-------7---|-5---0---5---8---5---8-------8-----------7---7---|
F#|-----------------------------------------7-------|-------------------------------------------------|
C#|-------------------------------------------------|-------------------------------------------------|
G#|-------------------------------------------------|-------------------------------------------------|
D#|-------------------------------------------------|-------------------------------------------------|


D#|-------------------------------------------------|-3---0---3---7---0---7---3---0---3---7---0---3---|
A#|-5---0---5---8---5---8---7---0---7---5---0---4---|-------------------------------------------------|
F#|-------------------------------------------------|-------------------------------------------------|
C#|-------------------------------------------------|-------------------------------------------------|
G#|-------------------------------------------------|-------------------------------------------------|
D#|-------------------------------------------------|-------------------------------------------------|


D#|-------------------------------------8---7---5---|-3---0---3---7---0---7---3---0---3---7---0---3---|
A#|-7---0---7---10--0---10--7---0---7---------------|-------------------------------------------------|
F#|-------------------------------------------------|-------------------------------------------------|
C#|-------------------------------------------------|-------------------------------------------------|
G#|-------------------------------------------------|-------------------------------------------------|
D#|-------------------------------------------------|-------------------------------------------------|


D#|------------------------------------------|-3---0---3---7---0---7---3---0---3---7---0---3---|
A#|-7---0---7---10--0---10--10--8---7---5----|-------------------------------------------------|
F#|------------------------------------------|-------------------------------------------------|
C#|------------------------------------------|-------------------------------------------------|
G#|------------------------------------------|-------------------------------------------------|
D#|------------------------------------------|-------------------------------------------------|


D#|-------------------------------------8---7---5---|-3---0---3---7---0---7---3---0---3---7---0---3---|
A#|-7---0---7---10--0---10--7---0---7---------------|-------------------------------------------------|
F#|-------------------------------------------------|-------------------------------------------------|
C#|-------------------------------------------------|-------------------------------------------------|
G#|-------------------------------------------------|-------------------------------------------------|
D#|-------------------------------------------------|-------------------------------------------------|


D#|------------------------------------------|-------------------------7-------7---5-----------|
A#|-7---0---7---10--0---10--10--8---7---5----|-5---0---5---8---5---8-------8-----------7---7---|
F#|------------------------------------------|-------------------------------------------------|
C#|------------------------------------------|-------------------------------------------------|
G#|------------------------------------------|-------------------------------------------------|
D#|------------------------------------------|-------------------------------------------------|


D#|-------------------------8---5---8---------------|-------------------------7-------7---5-----------|
A#|-5---0---5---8---5---8---------------7-------7---|-5---0---5---8---5---8-------8-----------7---7---|
F#|-----------------------------------------7-------|-------------------------------------------------|
C#|-------------------------------------------------|-------------------------------------------------|
G#|-------------------------------------------------|-------------------------------------------------|
D#|-------------------------------------------------|-------------------------------------------------|


D#|-------------------------------------------------|-------------------------7-------7---5-----------|
A#|-5---0---5---8---5---8---7---0---7---5---0---4---|-5---0---5---8---5---8-------8-----------7---7---|
F#|-------------------------------------------------|-------------------------------------------------|
C#|-------------------------------------------------|-------------------------------------------------|
G#|-------------------------------------------------|-------------------------------------------------|
D#|-------------------------------------------------|-------------------------------------------------|


D#|-------------------------8---5---8---------------|-------------------------7-------7---5-----------|
A#|-5---0---5---8---5---8---------------7-------7---|-5---0---5---8---5---8-------8-----------7---7---|
F#|-----------------------------------------7-------|-------------------------------------------------|
C#|-------------------------------------------------|-------------------------------------------------|
G#|-------------------------------------------------|-------------------------------------------------|
D#|-------------------------------------------------|-------------------------------------------------|


D#|-------------------------------------------------|-3---0---3---7---0---7---3---0---3---7---0---3---|
A#|-5---0---5---8---5---8---7---0---7---5---0---4---|-------------------------------------------------|
F#|-------------------------------------------------|-------------------------------------------------|
C#|-------------------------------------------------|-------------------------------------------------|
G#|-------------------------------------------------|-------------------------------------------------|
D#|-------------------------------------------------|-------------------------------------------------|


D#|-------------------------------------8---7---5---|-3---0---3---7---0---7---3---0---3---7---0---3---|
A#|-7---0---7---10--0---10--7---0---7---------------|-------------------------------------------------|
F#|-------------------------------------------------|-------------------------------------------------|
C#|-------------------------------------------------|-------------------------------------------------|
G#|-------------------------------------------------|-------------------------------------------------|
D#|-------------------------------------------------|-------------------------------------------------|


D#|------------------------------------------|-3---0---3---7---0---7---3---0---3---7---0---3---|
A#|-7---0---7---10--0---10--10--8---7---5----|-------------------------------------------------|
F#|------------------------------------------|-------------------------------------------------|
C#|------------------------------------------|-------------------------------------------------|
G#|------------------------------------------|-------------------------------------------------|
D#|------------------------------------------|-------------------------------------------------|


D#|-------------------------------------8---7---5---|-3---0---3---7---0---7---3---0---3---7---0---3---|
A#|-7---0---7---10--0---10--7---0---7---------------|-------------------------------------------------|
F#|-------------------------------------------------|-------------------------------------------------|
C#|-------------------------------------------------|-------------------------------------------------|
G#|-------------------------------------------------|-------------------------------------------------|
D#|-------------------------------------------------|-------------------------------------------------|


D#|------------------------------------------|------------------------------------------|
A#|-7---0---7---10--0---10--10--8---7---5----|-8---0---8---8---7---5---7----10--0---0---|
F#|------------------------------------------|------------------------------------------|
C#|------------------------------------------|------------------------------------------|
G#|------------------------------------------|------------------------------------------|
D#|------------------------------------------|------------------------------------------|


D#|-------------------------------------------------|-------------------------------------------------|
A#|-10--0---10--10--8---7---12--0---12--12--10--8---|-13--0---13--13--12--10--12--12--12--12--10--8---|
F#|-------------------------------------------------|-------------------------------------------------|
C#|-------------------------------------------------|-------------------------------------------------|
G#|-------------------------------------------------|-------------------------------------------------|
D#|-------------------------------------------------|-------------------------------------------------|


D#|------------------------------------------|------------------------------------------|
A#|-10--10--10--10--8---7---7----0---3---7---|-8---0---8---8---7---5---7----10--0---0---|
F#|------------------------------------------|------------------------------------------|
C#|------------------------------------------|------------------------------------------|
G#|------------------------------------------|------------------------------------------|
D#|------------------------------------------|------------------------------------------|


D#|-------------------------------------------------|-------------------------------------------------|
A#|-10--0---10--10--8---7---12--0---12--12--10--8---|-13--0---13--13--12--10--12--12--12--12--10--8---|
F#|-------------------------------------------------|-------------------------------------------------|
C#|-------------------------------------------------|-------------------------------------------------|
G#|-------------------------------------------------|-------------------------------------------------|
D#|-------------------------------------------------|-------------------------------------------------|


D#|------------------------------------------|------------------------------------------|
A#|-10--10--10--10--8---7---7----0---3---7---|-8---0---8---8---7---5---7----10--0---0---|
F#|------------------------------------------|------------------------------------------|
C#|------------------------------------------|------------------------------------------|
G#|------------------------------------------|------------------------------------------|
D#|------------------------------------------|------------------------------------------|


D#|-------------------------------------------------|-------------------------------------------------|
A#|-10--0---10--10--8---7---12--0---12--12--10--8---|-13--0---13--13--12--10--12--12--12--12--10--8---|
F#|-------------------------------------------------|-------------------------------------------------|
C#|-------------------------------------------------|-------------------------------------------------|
G#|-------------------------------------------------|-------------------------------------------------|
D#|-------------------------------------------------|-------------------------------------------------|


D#|------------------------------------------|------------------------------------------|
A#|-10--10--10--10--8---7---7----0---3---7---|-8---0---8---8---7---5---7----10--0---0---|
F#|------------------------------------------|------------------------------------------|
C#|------------------------------------------|------------------------------------------|
G#|------------------------------------------|------------------------------------------|
D#|------------------------------------------|------------------------------------------|


D#|-------------------------------------------------|-------------------------------------------------|
A#|-10--0---10--10--8---7---12--0---12--12--10--8---|-13--0---13--13--12--10--12--12--12--12--10--8---|
F#|-------------------------------------------------|-------------------------------------------------|
C#|-------------------------------------------------|-------------------------------------------------|
G#|-------------------------------------------------|-------------------------------------------------|
D#|-------------------------------------------------|-------------------------------------------------|


D#|------------------------------------------|------------------------|--------|------------------------|
A#|-10--10--10--10--8---7---7----------------|------------------------|--------|------------------------|
F#|------------------------------------------|------------------------|--------|------------------------|
C#|------------------------------7---5---4---|------------------------|--------|------------------------|
G#|------------------------------------------|-2---2---2--------------|--------|-2---2---2--------------|
D#|------------------------------------------|-0---0---0--------------|--------|-0---0---0--------------|


D#|--------|------------------------|--------|------------------------|--------|----------------7----|
A#|--------|------------------------|--------|------------------------|--------|-5---------5---------|
F#|--------|------------------------|--------|------------------------|--------|------4--------------|
C#|--------|------------------------|--------|------------------------|--------|---------------------|
G#|--------|-2---2---2--------------|--------|-2---2---2--------------|--------|---------------------|
D#|--------|-0---0---0--------------|--------|-0---0---0--------------|--------|---------------------|


D#|-5-------------------|----------------7----|------------------------|----------------7----|
A#|------7----8---------|-5---------5---------|-10---8---10--10--8-----|-5---------5---------|
F#|----------------5----|------4--------------|------------------------|------4--------------|
C#|---------------------|---------------------|------------------------|---------------------|
G#|---------------------|---------------------|------------------------|---------------------|
D#|---------------------|---------------------|------------------------|---------------------|


D#|-5-------------------|----------------7----|------------------------|----------------7----|
A#|------7----8---------|-5---------5---------|-10---8---10--10--8-----|-5---------5---------|
F#|----------------5----|------4--------------|------------------------|------4--------------|
C#|---------------------|---------------------|------------------------|---------------------|
G#|---------------------|---------------------|------------------------|---------------------|
D#|---------------------|---------------------|------------------------|---------------------|


D#|-5-------------------|----------------7----|------------------------|----------------7----|
A#|------7----8---------|-5---------5---------|-10---8---10--10--8-----|-5---------5---------|
F#|----------------5----|------4--------------|------------------------|------4--------------|
C#|---------------------|---------------------|------------------------|---------------------|
G#|---------------------|---------------------|------------------------|---------------------|
D#|---------------------|---------------------|------------------------|---------------------|


D#|-5-------------------|----------------7----|------------------------|----------12--14--15------12--15--14--12--|
A#|------7----8---------|-5---------5---------|-10---8---10--10--8-----|-12---12--------------13------------------|
F#|----------------5----|------4--------------|------------------------|------------------------------------------|
C#|---------------------|---------------------|------------------------|------------------------------------------|
G#|---------------------|---------------------|------------------------|------------------------------------------|
D#|---------------------|---------------------|------------------------|------------------------------------------|


D#|----------------------------------------------|-------------------------------------------------|
A#|-15---15--15--13--12--------------------------|-------------------------------------------------|
F#|----------------------14--12--11--11--12--14--|-----12--12--12--11--11--11--14--14--14--12--12--|
C#|----------------------------------------------|-14----------------------------------------------|
G#|----------------------------------------------|-------------------------------------------------|
D#|----------------------------------------------|-------------------------------------------------|


D#|-------------------------------------------------|---------------------------------------------------|
A#|-------------------------------------------------|-----------------12--10--8--10-8---7---8---7---5---|
F#|-12--11--11--11--9---9---9---8---8---8-----------|-------------9-------------------------------------|
C#|-----------------------------------------9---9---|-9---9---9-----------------------------------------|
G#|-------------------------------------------------|---------------------------------------------------|
D#|-------------------------------------------------|---------------------------------------------------|


D#|-----------------------------------------------------------------|-----------------------------------------------------------------|
A#|-5--7--8--7--5---7--8--10-8--7---8--10-12-10-8---8--10-12-10-8---|-7--8--10-8--7---8--10-12-10-8---10-12-13-12-10--12-13-15-13-12--|
F#|-----------------------------------------------------------------|-----------------------------------------------------------------|
C#|-----------------------------------------------------------------|-----------------------------------------------------------------|
G#|-----------------------------------------------------------------|-----------------------------------------------------------------|
D#|-----------------------------------------------------------------|-----------------------------------------------------------------|


D#|------------------------------------------------------|-12-------12--14--15------12--15--14--12--|
A#|-10-12-13-12-10--12-13-15-13-12--10-12-13-12-10--12---|------12--------------13------------------|
F#|------------------------------------------------------|------------------------------------------|
C#|------------------------------------------------------|------------------------------------------|
G#|------------------------------------------------------|------------------------------------------|
D#|------------------------------------------------------|------------------------------------------|


D#|----------12--14--15------12--15--14--12--|-20--20--19--20--17--20--19--20--17--20--19--20--|
A#|-15---12--------------13------------------|-------------------------------------------------|
F#|------------------------------------------|-------------------------------------------------|
C#|------------------------------------------|-------------------------------------------------|
G#|------------------------------------------|-------------------------------------------------|
D#|------------------------------------------|-------------------------------------------------|


D#|-19--19--17--19--15--19--17--19--15--19--17--19--|-12-------12--14--15------12--15--14--12--|
A#|-------------------------------------------------|------12--------------13------------------|
F#|-------------------------------------------------|------------------------------------------|
C#|-------------------------------------------------|------------------------------------------|
G#|-------------------------------------------------|------------------------------------------|
D#|-------------------------------------------------|------------------------------------------|


D#|----------12--14--15------12--15--14--12--|-20--20--19--20--17--20--19--20--17--20--19--20--|
A#|-15---12--------------13------------------|-------------------------------------------------|
F#|------------------------------------------|-------------------------------------------------|
C#|------------------------------------------|-------------------------------------------------|
G#|------------------------------------------|-------------------------------------------------|
D#|------------------------------------------|-------------------------------------------------|


D#|-19--19--17--19--15--19--17--19--15--19--17--19--|-------------------------------------------------|
A#|-------------------------------------------------|-------------------------10--0---7---0---10--0---|
F#|-------------------------------------------------|-12--9-------9---11--12--------------------------|
C#|-------------------------------------------------|---------9---------------------------------------|
G#|-------------------------------------------------|-------------------------------------------------|
D#|-------------------------------------------------|-------------------------------------------------|


D#|-------------------------------------------------|-------------------------------------------------|
A#|-12--0---8---0---12--0---10--0---7---0---10--0---|-------------------------10--0---7---0---10--0---|
F#|-------------------------------------------------|-12--9-------9---11--12--------------------------|
C#|-------------------------------------------------|---------9---------------------------------------|
G#|-------------------------------------------------|-------------------------------------------------|
D#|-------------------------------------------------|-------------------------------------------------|


D#|-------------------------------------------------|-------------------------------------------------|
A#|-15--12------12--13--15--13--10------10--12--13--|-------------------------10--0---7---0---10--0---|
F#|---------12----------------------10--------------|-12--9-------9---11--12--------------------------|
C#|-------------------------------------------------|---------9---------------------------------------|
G#|-------------------------------------------------|-------------------------------------------------|
D#|-------------------------------------------------|-------------------------------------------------|


D#|-------------------------------------------------|-------------------------------------------------|
A#|-12--0---8---0---12--0---10--0---7---0---10--0---|-------------------------10--0---7---0---10--0---|
F#|-------------------------------------------------|-12--9-------9---11--12--------------------------|
C#|-------------------------------------------------|---------9---------------------------------------|
G#|-------------------------------------------------|-------------------------------------------------|
D#|-------------------------------------------------|-------------------------------------------------|


D#|-------------------------------------------------|-------------------------------------------------|
A#|-15--12------12--13--15--13--10------10--12--13--|-------------------------10--0---7---0---10--0---|
F#|---------12----------------------10--------------|-12--9-------9---11--12--------------------------|
C#|-------------------------------------------------|---------9---------------------------------------|
G#|-------------------------------------------------|-------------------------------------------------|
D#|-------------------------------------------------|-------------------------------------------------|


D#|-------------------------------------------------|-------------------------------------------------|
A#|-12--0---8---0---12--0---10--0---7---0---10--0---|-------------------------10--0---7---0---10--0---|
F#|-------------------------------------------------|-12--9-------9---11--12--------------------------|
C#|-------------------------------------------------|---------9---------------------------------------|
G#|-------------------------------------------------|-------------------------------------------------|
D#|-------------------------------------------------|-------------------------------------------------|


D#|-------------------------------------------------|-------------------------------------------------|
A#|-15--12------12--13--15--13--10------10--12--13--|-------------------------10--0---7---0---10--0---|
F#|---------12----------------------10--------------|-12--9-------9---11--12--------------------------|
C#|-------------------------------------------------|---------9---------------------------------------|
G#|-------------------------------------------------|-------------------------------------------------|
D#|-------------------------------------------------|-------------------------------------------------|


D#|-------------------------------------------------|-------------------------------------------------|
A#|-12--0---8---0---12--0---10--0---7---0---10--0---|-------------------------10--0---7---0---10--0---|
F#|-------------------------------------------------|-12--9-------9---11--12--------------------------|
C#|-------------------------------------------------|---------9---------------------------------------|
G#|-------------------------------------------------|-------------------------------------------------|
D#|-------------------------------------------------|-------------------------------------------------|


D#|-------------------------------------------------|-12-----|-12-----15---|-15-----15--15--12--|
A#|-15--12------12--13--15--13--10------10--12--13--|--------|-------------|--------------------|
F#|---------12----------------------10--------------|--------|-------------|--------------------|
C#|-------------------------------------------------|--------|-------------|--------------------|
G#|-------------------------------------------------|--------|-------------|--------------------|
D#|-------------------------------------------------|--------|-------------|--------------------|


D#|-12----12--11--11--11-------|--------|-------------------------------|------------------|
A#|-----------------------12---|-12-----|-------------------------------|------------------|
F#|----------------------------|--------|-12--11--11--11----11--11--12--|-14----16----14---|
C#|----------------------------|--------|-------------------------------|------------------|
G#|----------------------------|--------|-------------------------------|------------------|
D#|----------------------------|--------|-------------------------------|------------------|


D#|--------------------|-------------------------------------------------|-------------------------------------------------|
A#|--------------------|-------------------------------------------------|-------------------------------------------------|
F#|-12--11--11--11-----|-------------------------------------------------|-------------------------------------------------|
C#|--------------------|-------------5-----------5-----------5-----------|-5-----------5-----------5-----------5-----------|
G#|--------------------|-------------7-----------7-----------7-----------|-7-----------7-----------7-----------7-----------|
D#|--------------------|-0---0---7-------0---7-------0---7-------0---7---|-----0---7-------0---7-------0---7-------0---7---|


D#|-------------------------------------------------|-------------------------------------------------|
A#|-------------------------------------------------|-------------------------------------------------|
F#|-------------------------------------------------|-------------------------------------------------|
C#|-------------5-----------5-----------5-----------|-------------4-----------4-----------4-----------|
G#|-------------7-----------7-----------7-----------|-------------5-----------5-----------5-----------|
D#|-8---0---8-------0---8-------0---8-------0---8---|-7---0---7-------0---7-------0---7-------0---7---|


D#|-------------------------------------------------|-------------------------------------------------|
A#|-------------------------------------------------|-------------------------------------------------|
F#|-------------------------------------------------|-------------------------------------------------|
C#|-------------5-----------5-----------5-----------|-5-----------5-----------5-----------5-----------|
G#|-------------7-----------7-----------7-----------|-7-----------7-----------7-----------7-----------|
D#|-0---0---7-------0---7-------0---7-------0---7---|-----0---7-------0---7-------0---7-------0---7---|


D#|-------------------------------------------------|-------------------------------------------------|
A#|-------------------------------------------------|-------------------------------------------------|
F#|-------------------------------------------------|-------------------------------------------------|
C#|-------------5-----------5-----------5-----------|-------------4-----------4-----------4-----------|
G#|-------------7-----------7-----------7-----------|-------------5-----------5-----------5-----------|
D#|-8---0---8-------0---8-------0---8-------0---8---|-7---0---7-------0---7-------0---7-------0---7---|


D#|-------------------------7-------7---5-----------|-------------------------8---5---8---------------|
A#|-5---0---5---8---5---8-------8-----------7---7---|-5---0---5---8---5---8---------------7-------7---|
F#|-------------------------------------------------|-----------------------------------------7-------|
C#|-------------------------------------------------|-------------------------------------------------|
G#|-------------------------------------------------|-------------------------------------------------|
D#|-------------------------------------------------|-------------------------------------------------|


D#|-------------------------7-------7---5-----------|-------------------------------------------------|
A#|-5---0---5---8---5---8-------8-----------7---7---|-5---0---5---8---5---8---7---0---7---5---0---4---|
F#|-------------------------------------------------|-------------------------------------------------|
C#|-------------------------------------------------|-------------------------------------------------|
G#|-------------------------------------------------|-------------------------------------------------|
D#|-------------------------------------------------|-------------------------------------------------|


D#|-------------------------7-------7---5-----------|-------------------------8---5---8---------------|
A#|-5---0---5---8---5---8-------8-----------7---7---|-5---0---5---8---5---8---------------7-------7---|
F#|-------------------------------------------------|-----------------------------------------7-------|
C#|-------------------------------------------------|-------------------------------------------------|
G#|-------------------------------------------------|-------------------------------------------------|
D#|-------------------------------------------------|-------------------------------------------------|


D#|-------------------------7-------7---5-----------|-------------------------------------------------|
A#|-5---0---5---8---5---8-------8-----------7---7---|-5---0---5---8---5---8---7---0---7---5---0---4---|
F#|-------------------------------------------------|-------------------------------------------------|
C#|-------------------------------------------------|-------------------------------------------------|
G#|-------------------------------------------------|-------------------------------------------------|
D#|-------------------------------------------------|-------------------------------------------------|


D#|-3---0---3---7---0---7---3---0---3---7---0---3---|-------------------------------------8---7---5---|
A#|-------------------------------------------------|-7---0---7---10--0---10--7---0---7---------------|
F#|-------------------------------------------------|-------------------------------------------------|
C#|-------------------------------------------------|-------------------------------------------------|
G#|-------------------------------------------------|-------------------------------------------------|
D#|-------------------------------------------------|-------------------------------------------------|


D#|-3---0---3---7---0---7---3---0---3---7---0---3---|------------------------------------------|
A#|-------------------------------------------------|-7---0---7---10--0---10--10--8---7---5----|
F#|-------------------------------------------------|------------------------------------------|
C#|-------------------------------------------------|------------------------------------------|
G#|-------------------------------------------------|------------------------------------------|
D#|-------------------------------------------------|------------------------------------------|


D#|-3---0---3---7---0---7---3---0---3---7---0---3---|-------------------------------------8---7---5---|
A#|-------------------------------------------------|-7---0---7---10--0---10--7---0---7---------------|
F#|-------------------------------------------------|-------------------------------------------------|
C#|-------------------------------------------------|-------------------------------------------------|
G#|-------------------------------------------------|-------------------------------------------------|
D#|-------------------------------------------------|-------------------------------------------------|


D#|-3---0---3---7---0---7---3---0---3---7---0---3---|------------------------------------------|
A#|-------------------------------------------------|-7---0---7---10--0---10--10--8---7---5----|
F#|-------------------------------------------------|------------------------------------------|
C#|-------------------------------------------------|------------------------------------------|
G#|-------------------------------------------------|------------------------------------------|
D#|-------------------------------------------------|------------------------------------------|


D#|------------------------------------------|-------------------------------------------------|
A#|-8---0---8---8---7---5---7----10--0---0---|-10--0---10--10--8---7---12--0---12--12--10--8---|
F#|------------------------------------------|-------------------------------------------------|
C#|------------------------------------------|-------------------------------------------------|
G#|------------------------------------------|-------------------------------------------------|
D#|------------------------------------------|-------------------------------------------------|


D#|-------------------------------------------------|------------------------------------------|
A#|-13--0---13--13--12--10--12--12--12--12--10--8---|-10--10--10--10--8---7---7----0---3---7---|
F#|-------------------------------------------------|------------------------------------------|
C#|-------------------------------------------------|------------------------------------------|
G#|-------------------------------------------------|------------------------------------------|
D#|-------------------------------------------------|------------------------------------------|


D#|------------------------------------------|-------------------------------------------------|
A#|-8---0---8---8---7---5---7----10--0---0---|-10--0---10--10--8---7---12--0---12--12--10--8---|
F#|------------------------------------------|-------------------------------------------------|
C#|------------------------------------------|-------------------------------------------------|
G#|------------------------------------------|-------------------------------------------------|
D#|------------------------------------------|-------------------------------------------------|


D#|-------------------------------------------------|------------------------------------------|
A#|-13--0---13--13--12--10--12--12--12--12--10--8---|-10--10--10--10--8---7---7----0---3---7---|
F#|-------------------------------------------------|------------------------------------------|
C#|-------------------------------------------------|------------------------------------------|
G#|-------------------------------------------------|------------------------------------------|
D#|-------------------------------------------------|------------------------------------------|


D#|------------------------------------------|-------------------------------------------------|
A#|-8---0---8---8---7---5---7----10--0---0---|-10--0---10--10--8---7---12--0---12--12--10--8---|
F#|------------------------------------------|-------------------------------------------------|
C#|------------------------------------------|-------------------------------------------------|
G#|------------------------------------------|-------------------------------------------------|
D#|------------------------------------------|-------------------------------------------------|


D#|-------------------------------------------------|------------------------------------------|
A#|-13--0---13--13--12--10--12--12--12--12--10--8---|-10--10--10--10--8---7---7----0---3---7---|
F#|-------------------------------------------------|------------------------------------------|
C#|-------------------------------------------------|------------------------------------------|
G#|-------------------------------------------------|------------------------------------------|
D#|-------------------------------------------------|------------------------------------------|


D#|------------------------------------------|-------------------------------------------------|
A#|-8---0---8---8---7---5---7----10--0---0---|-10--0---10--10--8---7---12--0---12--12--10--8---|
F#|------------------------------------------|-------------------------------------------------|
C#|------------------------------------------|-------------------------------------------------|
G#|------------------------------------------|-------------------------------------------------|
D#|------------------------------------------|-------------------------------------------------|


D#|-------------------------------------------------|-------------------------------------------------|
A#|-13--0---13--13--12--10--12--12--12--12--10--8---|-10--10--10--10--8---7---7-----------------------|
F#|-------------------------------------------------|-------------------------------------------------|
C#|-------------------------------------------------|-----------------------------5---4---------------|
G#|-------------------------------------------------|-------------------------------------------------|
D#|-------------------------------------------------|-------------------------------------5---3---2---|


D#|------------------------|
A#|------------------------|
F#|------------------------|
C#|------------------------|
G#|-2---2---2--------------|
D#|-0---0---0--------------|





Track 5: Distortion Guitar 1

D#|--------|--------|--------|--------|--------|--------|--------|--------------------|
A#|--------|--------|--------|--------|--------|--------|--------|--------1---0-------|
F#|--------|--------|--------|--------|--------|--------|--------|----------------2---|
C#|--------|--------|--------|--------|--------|--------|--------|--------------------|
G#|--------|--------|--------|--------|--------|--------|--------|--------------------|
D#|--------|--------|--------|--------|--------|--------|--------|--------------------|


D#|-------------------------------------------------|-------------------------------------------------|
A#|-0-----------0-----------0-----------0-----------|-0-----------0-----------0-----------0-----------|
F#|-----2-----------2-----------0-----------0-------|-----------------------------0-----------0-------|
C#|---------2-----------2-----------2-----------2---|-----4---2-------4---2-----------2-----------2---|
G#|-------------------------------------------------|-------------------------------------------------|
D#|-------------------------------------------------|-------------------------------------------------|


D#|-------------------------------------------------|-------------------------------------------------|
A#|-1-----------1-----------0-----------1-----------|-------------------------------------1---0-------|
F#|-----2-----------2-----------2-----------2-------|-2-----------2-----------2-------------------2---|
C#|---------2-----------2-----------2-----------2---|-----4-----------4-----------4-------------------|
G#|-------------------------------------------------|---------2-----------2-----------2---------------|
D#|-------------------------------------------------|-------------------------------------------------|


D#|-------------------------------------------------|-------------------------------------------------|
A#|-0-----------0-----------0-----------0-----------|-0-----------0-----------0-----------0-----------|
F#|-----2-----------2-----------0-----------0-------|-----------------------------0-----------0-------|
C#|---------2-----------2-----------2-----------2---|-----4---2-------4---2-----------2-----------2---|
G#|-------------------------------------------------|-------------------------------------------------|
D#|-------------------------------------------------|-------------------------------------------------|


D#|-------------------------------------------------|-------------------------------------------------|
A#|-1-----------1-----------0-----------1-----------|-------------------------------------------------|
F#|-----2-----------2-----------2-----------2-------|-2-----------2-----------2-----------2-----------|
C#|---------2-----------2-----------2-----------2---|-----4-----------4-----------4-----------4-------|
G#|-------------------------------------------------|---------2-----------2-----------2-----------2---|
D#|-------------------------------------------------|-------------------------------------------------|


D#|--------|--------|--------|--------|--------|--------|--------|--------|--------|
A#|--------|--------|--------|--------|--------|--------|--------|--------|--------|
F#|--------|--------|--------|--------|--------|--------|--------|--------|--------|
C#|--------|--------|--------|--------|--------|--------|--------|--------|--------|
G#|--------|--------|--------|--------|--------|--------|--------|--------|--------|
D#|--------|--------|--------|--------|--------|--------|--------|--------|--------|


D#|--------|--------|--------|--------|--------|--------|--------|--------|--------|
A#|--------|--------|--------|--------|--------|--------|--------|--------|--------|
F#|--------|--------|--------|--------|--------|--------|--------|--------|--------|
C#|--------|--------|--------|--------|--------|--------|--------|--------|--------|
G#|--------|--------|--------|--------|--------|--------|--------|--------|--------|
D#|--------|--------|--------|--------|--------|--------|--------|--------|--------|


D#|--------|--------|--------|--------|--------|--------|--------|--------|--------|
A#|--------|--------|--------|--------|--------|--------|--------|--------|--------|
F#|--------|--------|--------|--------|--------|--------|--------|--------|--------|
C#|--------|--------|--------|--------|--------|--------|--------|--------|--------|
G#|--------|--------|--------|--------|--------|--------|--------|--------|--------|
D#|--------|--------|--------|--------|--------|--------|--------|--------|--------|


D#|--------|--------|--------|--------|--------|--------|--------|--------|--------|
A#|--------|--------|--------|--------|--------|--------|--------|--------|--------|
F#|--------|--------|--------|--------|--------|--------|--------|--------|--------|
C#|--------|--------|--------|--------|--------|--------|--------|--------|--------|
G#|--------|--------|--------|--------|--------|--------|--------|--------|--------|
D#|--------|--------|--------|--------|--------|--------|--------|--------|--------|


D#|--------|--------|--------|--------|--------|--------|--------|--------|--------|
A#|--------|--------|--------|--------|--------|--------|--------|--------|--------|
F#|--------|--------|--------|--------|--------|--------|--------|--------|--------|
C#|--------|--------|--------|--------|--------|--------|--------|--------|--------|
G#|--------|--------|--------|--------|--------|--------|--------|--------|--------|
D#|--------|--------|--------|--------|--------|--------|--------|--------|--------|


D#|--------|--------|--------|--------|--------|--------|--------|--------|--------|
A#|--------|--------|--------|--------|--------|--------|--------|--------|--------|
F#|--------|--------|--------|--------|--------|--------|--------|--------|--------|
C#|--------|--------|--------|--------|--------|--------|--------|--------|--------|
G#|--------|--------|--------|--------|--------|--------|--------|--------|--------|
D#|--------|--------|--------|--------|--------|--------|--------|--------|--------|


D#|--------|--------|--------|--------|--------|--------|--------|--------|--------|
A#|--------|--------|--------|--------|--------|--------|--------|--------|--------|
F#|--------|--------|--------|--------|--------|--------|--------|--------|--------|
C#|--------|--------|--------|--------|--------|--------|--------|--------|--------|
G#|--------|--------|--------|--------|--------|--------|--------|--------|--------|
D#|--------|--------|--------|--------|--------|--------|--------|--------|--------|


D#|--------|--------|--------|--------|--------|--------|--------|--------|--------|
A#|--------|--------|--------|--------|--------|--------|--------|--------|--------|
F#|--------|--------|--------|--------|--------|--------|--------|--------|--------|
C#|--------|--------|--------|--------|--------|--------|--------|--------|--------|
G#|--------|--------|--------|--------|--------|--------|--------|--------|--------|
D#|--------|--------|--------|--------|--------|--------|--------|--------|--------|


D#|--------|--------|--------|--------|--------|--------|--------|--------|--------|
A#|--------|--------|--------|--------|--------|--------|--------|--------|--------|
F#|--------|--------|--------|--------|--------|--------|--------|--------|--------|
C#|--------|--------|--------|--------|--------|--------|--------|--------|--------|
G#|--------|--------|--------|--------|--------|--------|--------|--------|--------|
D#|--------|--------|--------|--------|--------|--------|--------|--------|--------|


D#|--------|--------|--------|--------|--------|--------|--------|--------|--------|
A#|--------|--------|--------|--------|--------|--------|--------|--------|--------|
F#|--------|--------|--------|--------|--------|--------|--------|--------|--------|
C#|--------|--------|--------|--------|--------|--------|--------|--------|--------|
G#|--------|--------|--------|--------|--------|--------|--------|--------|--------|
D#|--------|--------|--------|--------|--------|--------|--------|--------|--------|


D#|--------|--------|--------|--------|--------|--------|--------|--------|--------|
A#|--------|--------|--------|--------|--------|--------|--------|--------|--------|
F#|--------|--------|--------|--------|--------|--------|--------|--------|--------|
C#|--------|--------|--------|--------|--------|--------|--------|--------|--------|
G#|--------|--------|--------|--------|--------|--------|--------|--------|--------|
D#|--------|--------|--------|--------|--------|--------|--------|--------|--------|


D#|--------|--------|--------|--------|--------|--------|--------|--------|--------|
A#|--------|--------|--------|--------|--------|--------|--------|--------|--------|
F#|--------|--------|--------|--------|--------|--------|--------|--------|--------|
C#|--------|--------|--------|--------|--------|--------|--------|--------|--------|
G#|--------|--------|--------|--------|--------|--------|--------|--------|--------|
D#|--------|--------|--------|--------|--------|--------|--------|--------|--------|


D#|--------|--------|--------|--------|--------|--------|--------|--------|--------|
A#|--------|--------|--------|--------|--------|--------|--------|--------|--------|
F#|--------|--------|--------|--------|--------|--------|--------|--------|--------|
C#|--------|--------|--------|--------|--------|--------|--------|--------|--------|
G#|--------|--------|--------|--------|--------|--------|--------|--------|--------|
D#|--------|--------|--------|--------|--------|--------|--------|--------|--------|


D#|--------|--------|--------|--------|--------|--------|--------|--------|--------|
A#|--------|--------|--------|--------|--------|--------|--------|--------|--------|
F#|--------|--------|--------|--------|--------|--------|--------|--------|--------|
C#|--------|--------|--------|--------|--------|--------|--------|--------|--------|
G#|--------|--------|--------|--------|--------|--------|--------|--------|--------|
D#|--------|--------|--------|--------|--------|--------|--------|--------|--------|


D#|--------|--------|--------|--------|--------|--------|--------|--------|--------|
A#|--------|--------|--------|--------|--------|--------|--------|--------|--------|
F#|--------|--------|--------|--------|--------|--------|--------|--------|--------|
C#|--------|--------|--------|--------|--------|--------|--------|--------|--------|
G#|--------|--------|--------|--------|--------|--------|--------|--------|--------|
D#|--------|--------|--------|--------|--------|--------|--------|--------|--------|


D#|--------|--------|--------|--------|--------|--------|--------|--------|--------|
A#|--------|--------|--------|--------|--------|--------|--------|--------|--------|
F#|--------|--------|--------|--------|--------|--------|--------|--------|--------|
C#|--------|--------|--------|--------|--------|--------|--------|--------|--------|
G#|--------|--------|--------|--------|--------|--------|--------|--------|--------|
D#|--------|--------|--------|--------|--------|--------|--------|--------|--------|


D#|--------|--------|--------|--------|--------|--------|--------|--------|--------|
A#|--------|--------|--------|--------|--------|--------|--------|--------|--------|
F#|--------|--------|--------|--------|--------|--------|--------|--------|--------|
C#|--------|--------|--------|--------|--------|--------|--------|--------|--------|
G#|--------|--------|--------|--------|--------|--------|--------|--------|--------|
D#|--------|--------|--------|--------|--------|--------|--------|--------|--------|





Track 6: Distortion Guitar 1

D#|--------|--------|--------|--------|--------|--------|--------|--------|--------|
A#|--------|--------|--------|--------|--------|--------|--------|--------|--------|
F#|--------|--------|--------|--------|--------|--------|--------|--------|--------|
C#|--------|--------|--------|--------|--------|--------|--------|--------|-2------|
G#|--------|--------|--------|--------|--------|--------|--------|--------|--------|
D#|--------|--------|--------|--------|--------|--------|--------|--------|-0------|


D#|--------|--------|--------|--------|--------|--------|--------|--------|--------|
A#|--------|--------|--------|--------|--------|--------|--------|--------|--------|
F#|--------|--------|--------|--------|--------|--------|--------|--------|--------|
C#|-2------|-2------|-2------|-2------|-2------|-2------|-2------|--------|--------|
G#|--------|--------|--------|--------|--------|--------|--------|--------|--------|
D#|-0------|-0------|-0------|-0------|-0------|-0------|-0------|--------|--------|


D#|--------|--------|--------|--------|--------|--------|--------|--------|--------|
A#|--------|--------|--------|--------|--------|--------|--------|--------|--------|
F#|--------|--------|--------|--------|--------|--------|--------|--------|--------|
C#|--------|--------|--------|--------|--------|--------|--------|--------|--------|
G#|--------|--------|--------|--------|--------|--------|--------|--------|--------|
D#|--------|--------|--------|--------|--------|--------|--------|--------|--------|


D#|--------|--------|--------|--------|--------|--------|--------|--------|--------|
A#|--------|--------|--------|--------|--------|--------|--------|--------|--------|
F#|--------|--------|--------|--------|--------|--------|--------|--------|--------|
C#|--------|--------|--------|--------|--------|--------|--------|--------|--------|
G#|--------|--------|--------|--------|--------|--------|--------|--------|--------|
D#|--------|--------|--------|--------|--------|--------|--------|--------|--------|


D#|--------|--------|--------|--------|--------|--------|--------|--------|--------|
A#|--------|--------|--------|--------|--------|--------|--------|--------|--------|
F#|--------|--------|--------|--------|--------|--------|--------|--------|--------|
C#|--------|--------|--------|--------|--------|--------|--------|--------|--------|
G#|--------|--------|--------|--------|--------|--------|--------|--------|--------|
D#|--------|--------|--------|--------|--------|--------|--------|--------|--------|


D#|--------|--------|--------|--------|--------|--------|--------|--------|--------|
A#|--------|--------|--------|--------|--------|--------|--------|--------|--------|
F#|--------|--------|--------|--------|--------|--------|--------|--------|--------|
C#|--------|--------|--------|--------|--------|--------|--------|--------|--------|
G#|--------|--------|--------|--------|--------|--------|--------|--------|--------|
D#|--------|--------|--------|--------|--------|--------|--------|--------|--------|


D#|--------|--------|--------|--------|--------|--------|--------|--------|--------|
A#|--------|--------|--------|--------|--------|--------|--------|--------|--------|
F#|--------|--------|--------|--------|--------|--------|--------|--------|--------|
C#|--------|--------|--------|--------|--------|--------|--------|--------|--------|
G#|--------|--------|--------|--------|--------|--------|--------|--------|--------|
D#|--------|--------|--------|--------|--------|--------|--------|--------|--------|


D#|--------|--------|--------|--------|--------|--------|--------|--------|--------|
A#|--------|--------|--------|--------|--------|--------|--------|--------|--------|
F#|--------|--------|--------|--------|--------|--------|--------|--------|--------|
C#|--------|--------|--------|--------|--------|--------|--------|--------|--------|
G#|--------|--------|--------|--------|--------|--------|--------|--------|--------|
D#|--------|--------|--------|--------|--------|--------|--------|--------|--------|


D#|--------|--------|--------|--------|--------|--------|--------|--------|--------|
A#|--------|--------|--------|--------|--------|--------|--------|--------|--------|
F#|--------|--------|--------|--------|--------|--------|--------|--------|--------|
C#|--------|--------|--------|--------|--------|--------|--------|--------|--------|
G#|--------|--------|--------|--------|--------|--------|--------|--------|--------|
D#|--------|--------|--------|--------|--------|--------|--------|--------|--------|


D#|--------|--------|--------|--------|--------|--------|--------|--------|--------|
A#|--------|--------|--------|--------|--------|--------|--------|--------|--------|
F#|--------|--------|--------|--------|--------|--------|--------|--------|--------|
C#|--------|--------|--------|--------|--------|--------|--------|--------|--------|
G#|--------|--------|--------|--------|--------|--------|--------|--------|--------|
D#|--------|--------|--------|--------|--------|--------|--------|--------|--------|


D#|--------|--------|--------|--------|--------|--------|--------|--------|--------|
A#|--------|--------|--------|--------|--------|--------|--------|--------|--------|
F#|--------|--------|--------|--------|--------|--------|--------|--------|--------|
C#|--------|--------|--------|--------|--------|--------|--------|--------|--------|
G#|--------|--------|--------|--------|--------|--------|--------|--------|--------|
D#|--------|--------|--------|--------|--------|--------|--------|--------|--------|


D#|--------|--------|--------|--------|--------|--------|--------|--------|--------|
A#|--------|--------|--------|--------|--------|--------|--------|--------|--------|
F#|--------|--------|--------|--------|--------|--------|--------|--------|--------|
C#|--------|--------|--------|--------|--------|--------|--------|--------|--------|
G#|--------|--------|--------|--------|--------|--------|--------|--------|--------|
D#|--------|--------|--------|--------|--------|--------|--------|--------|--------|


D#|--------|--------|--------|--------|--------|--------|--------|--------|--------|
A#|--------|--------|--------|--------|--------|--------|--------|--------|--------|
F#|--------|--------|--------|--------|--------|--------|--------|--------|--------|
C#|--------|--------|--------|--------|--------|--------|--------|--------|--------|
G#|--------|--------|--------|--------|--------|--------|--------|--------|--------|
D#|--------|--------|--------|--------|--------|--------|--------|--------|--------|


D#|--------|--------|--------|--------|--------|--------|--------|--------|--------|
A#|--------|--------|--------|--------|--------|--------|--------|--------|--------|
F#|--------|--------|--------|--------|--------|--------|--------|--------|--------|
C#|--------|--------|--------|--------|--------|--------|--------|--------|--------|
G#|--------|--------|--------|--------|--------|--------|--------|--------|--------|
D#|--------|--------|--------|--------|--------|--------|--------|--------|--------|


D#|--------|--------|--------|--------|--------|--------|--------|--------|--------|
A#|--------|--------|--------|--------|--------|--------|--------|--------|--------|
F#|--------|--------|--------|--------|--------|--------|--------|--------|--------|
C#|--------|--------|--------|--------|--------|--------|--------|--------|--------|
G#|--------|--------|--------|--------|--------|--------|--------|--------|--------|
D#|--------|--------|--------|--------|--------|--------|--------|--------|--------|


D#|--------|--------|--------|--------|--------|--------|--------|--------|--------|
A#|--------|--------|--------|--------|--------|--------|--------|--------|--------|
F#|--------|--------|--------|--------|--------|--------|--------|--------|--------|
C#|--------|--------|--------|--------|--------|--------|--------|--------|--------|
G#|--------|--------|--------|--------|--------|--------|--------|--------|--------|
D#|--------|--------|--------|--------|--------|--------|--------|--------|--------|


D#|--------|--------|--------|--------|--------|--------|--------|--------|--------|
A#|--------|--------|--------|--------|--------|--------|--------|--------|--------|
F#|--------|--------|--------|--------|--------|--------|--------|--------|--------|
C#|--------|--------|--------|--------|--------|--------|--------|--------|--------|
G#|--------|--------|--------|--------|--------|--------|--------|--------|--------|
D#|--------|--------|--------|--------|--------|--------|--------|--------|--------|


D#|--------|--------|--------|--------|--------|--------|--------|--------|--------|
A#|--------|--------|--------|--------|--------|--------|--------|--------|--------|
F#|--------|--------|--------|--------|--------|--------|--------|--------|--------|
C#|--------|--------|--------|--------|--------|--------|--------|--------|--------|
G#|--------|--------|--------|--------|--------|--------|--------|--------|--------|
D#|--------|--------|--------|--------|--------|--------|--------|--------|--------|


D#|--------|--------|--------|--------|--------|--------|--------|
A#|--------|--------|--------|--------|--------|--------|--------|
F#|--------|--------|--------|--------|--------|--------|--------|
C#|--------|--------|--------|--------|--------|--------|--------|
G#|--------|--------|--------|--------|--------|--------|--------|
D#|--------|--------|--------|--------|--------|--------|--------|





Track 7: Distortion guitar 2

D#|--------|--------|--------|--------|--------|--------|--------|--------|--------|
A#|--------|--------|--------|--------|--------|--------|--------|--------|--------|
F#|--------|--------|--------|--------|--------|--------|--------|--------|--------|
C#|--------|--------|--------|--------|--------|--------|--------|--------|--------|
G#|--------|--------|--------|--------|--------|--------|--------|--------|--------|
D#|--------|--------|--------|--------|--------|--------|--------|--------|--------|


D#|--------|--------|--------|--------|--------|--------|--------|-------------------------------------------------|
A#|--------|--------|--------|--------|--------|--------|--------|-------------------------------------------------|
F#|--------|--------|--------|--------|--------|--------|--------|-------------------------------------------------|
C#|--------|--------|--------|--------|--------|--------|--------|-------------5-------------------9---7-----------|
G#|--------|--------|--------|--------|--------|--------|--------|-2-----------7-----------7-------7-------5---5---|
D#|--------|--------|--------|--------|--------|--------|--------|-3---0---0-------0---0---0---0---0---------------|


D#|-------------------------------------------------|-------------------------------------------------|
A#|-------------------------------------------------|-------------------------------------------------|
F#|-------------------------5-------5---------------|-------------4-----------------------------------|
C#|-2---------------------------7-------4-------4---|-------------5-------------------9---7-----------|
G#|-2-----------2---------------------------5-------|-2-----------7-----------7-------7-------5---5---|
D#|-0---0---0---3---0---0---------------------------|-3---0---0-------0---0---0---0---0---------------|


D#|---------------------------------------------------|-------------------------------------------------|
A#|---------------------------------------------------|-------------------------------------------------|
F#|---------------------------------------------------|-------------------------------------------------|
C#|-2-----------------------2-------------------------|-------------5-------------------9---7-----------|
G#|-2-----------2-----------2---------2---0---0---0---|-2-----------7-----------7-------7-------5---5---|
D#|-0---0---0---3---0---0---3---3--3--3---2---2---2---|-3---0---0-------0---0---0---0---0---------------|


D#|-------------------------------------------------|-------------------------------------------------|
A#|-------------------------------------------------|-------------------------------------------------|
F#|-------------------------5-------5---------------|-------------4-----------------------------------|
C#|-2---------------------------7-------4-------4---|-------------5-------------------9---7-----------|
G#|-2-----------2---------------------------5-------|-2-----------7-----------7-------7-------5---5---|
D#|-0---0---0---3---0---0---------------------------|-3---0---0-------0---0---0---0---0---------------|


D#|---------------------------------------------------|-------------------------------------------------|
A#|---------------------------------------------------|-------------------------------------------------|
F#|---------------------------------------------------|-------------------------------------------------|
C#|-2-----------------------2-------------------------|-2-----------------------2-----------------------|
G#|-2-----------2-----------2---------2---0---0---0---|-2---2---2---------------2---2---2---------------|
D#|-0---0---0---3---0---0---3---3--3--3---2---2---2---|-0---0---0---0---0---0---0---0---0---0---0---0---|


D#|-------------------------------------------------|-------------------------------------------------|
A#|-------------------------------------------------|-------------------------------------------------|
F#|-------------------------------------------------|-------------------------------------------------|
C#|-------------------------------------------------|-2-----------------------2-----------------------|
G#|-6---6---6---------------6---6---6---------------|-2---2---2---------------2---2---2---------------|
D#|-7---7---7---7---7---7---7---7---7---7---7---7---|-0---0---0---0---0---0---0---0---0---0---0---0---|


D#|-------------------------------------------------|-------------------------------------------------|
A#|-------------------------------------------------|-------------------------------------------------|
F#|-------------------------------------------------|-------------------------------------------------|
C#|-------------------------------------------------|-2-----------------------2-----------------------|
G#|-6---6---6---------------6---6---6---------------|-2---2---2---------------2---2---2---------------|
D#|-7---7---7---7---7---7---7---7---7---7---7---7---|-0---0---0---0---0---0---0---0---0---0---0---0---|


D#|-------------------------------------------------|-------------------------------------------------|
A#|-------------------------------------------------|-------------------------------------------------|
F#|-------------------------------------------------|-------------------------------------------------|
C#|-------------------------------------------------|-2-----------------------2-----------------------|
G#|-6---6---6---------------6---6---6---------------|-2---2---2---------------2---2---2---------------|
D#|-7---7---7---7---7---7---7---7---7---7---7---7---|-0---0---0---0---0---0---0---0---0---0---0---0---|


D#|-------------------------------------------------|-------------------------------------------------|
A#|-------------------------------------------------|-------------------------------------------------|
F#|-------------------------------------------------|-------------------------------------------------|
C#|-------------------------------------------------|-------------5-------------------9---7-----------|
G#|-6---6---6---------------6---6---6---------------|-2-----------7-----------7-------7-------5---5---|
D#|-7---7---7---7---7---7---7---7---7---7---7---7---|-3---0---0-------0---0---0---0---0---------------|


D#|-------------------------------------------------|-------------------------------------------------|
A#|-------------------------------------------------|-------------------------------------------------|
F#|-------------------------5-------5---------------|-------------4-----------------------------------|
C#|-2---------------------------7-------4-------4---|-------------5-------------------9---7-----------|
G#|-2-----------2---------------------------5-------|-2-----------7-----------7-------7-------5---5---|
D#|-0---0---0---3---0---0---------------------------|-3---0---0-------0---0---0---0---0---------------|


D#|---------------------------------------------------|-------------------------------------------------|
A#|---------------------------------------------------|-------------------------------------------------|
F#|---------------------------------------------------|-------------------------------------------------|
C#|-2-----------------------2-------------------------|-------------5-------------------9---7-----------|
G#|-2-----------2-----------2---------2---0---0---0---|-2-----------7-----------7-------7-------5---5---|
D#|-0---0---0---3---0---0---3---3--3--3---2---2---2---|-3---0---0-------0---0---0---0---0---------------|


D#|-------------------------------------------------|-------------------------------------------------|
A#|-------------------------------------------------|-------------------------------------------------|
F#|-------------------------5-------5---------------|-------------4-----------------------------------|
C#|-2---------------------------7-------4-------4---|-------------5-------------------9---7-----------|
G#|-2-----------2---------------------------5-------|-2-----------7-----------7-------7-------5---5---|
D#|-0---0---0---3---0---0---------------------------|-3---0---0-------0---0---0---0---0---------------|


D#|---------------------------------------------------|-------------------------------------------------|
A#|---------------------------------------------------|-------------------------------------------------|
F#|---------------------------------------------------|-------------------------------------------------|
C#|-2-----------------------2-------------------------|-2-----------------------2-----------------------|
G#|-2-----------2-----------2---------2---0---0---0---|-2---2---2---------------2---2---2---------------|
D#|-0---0---0---3---0---0---3---3--3--3---2---2---2---|-0---0---0---0---0---0---0---0---0---0---0---0---|


D#|-------------------------------------------------|-------------------------------------------------|
A#|-------------------------------------------------|-------------------------------------------------|
F#|-------------------------------------------------|-------------------------------------------------|
C#|-------------------------------------------------|-2-----------------------2-----------------------|
G#|-6---6---6---------------6---6---6---------------|-2---2---2---------------2---2---2---------------|
D#|-7---7---7---7---7---7---7---7---7---7---7---7---|-0---0---0---0---0---0---0---0---0---0---0---0---|


D#|-------------------------------------------------|-------------------------------------------------|
A#|-------------------------------------------------|-------------------------------------------------|
F#|-------------------------------------------------|-------------------------------------------------|
C#|-------------------------------------------------|-2-----------------------2-----------------------|
G#|-6---6---6---------------6---6---6---------------|-2---2---2---------------2---2---2---------------|
D#|-7---7---7---7---7---7---7---7---7---7---7---7---|-0---0---0---0---0---0---0---0---0---0---0---0---|


D#|-------------------------------------------------|-------------------------------------------------|
A#|-------------------------------------------------|-------------------------------------------------|
F#|-------------------------------------------------|-------------------------------------------------|
C#|-------------------------------------------------|-2-----------------------2-----------------------|
G#|-6---6---6---------------6---6---6---------------|-2---2---2---------------2---2---2---------------|
D#|-7---7---7---7---7---7---7---7---7---7---7---7---|-0---0---0---0---0---0---0---0---0---0---0---0---|


D#|-------------------------------------------------|------------------------------------------|
A#|-------------------------------------------------|------------------------------------------|
F#|-------------------------------------------------|------------------------------------------|
C#|-------------------------------------------------|------------------------------------------|
G#|-6---6---6---------------6---6---6---------------|-7---7---7---7---5---3---5----5-----------|
D#|-7---7---7---7---7---7---7---7---7---7---7---7---|----------------------------------0---0---|


D#|-------------------------------------------------|------------------------------------------|
A#|-------------------------------------------------|------------------------------------------|
F#|-------------------------------------------------|------------------------------------------|
C#|-2-----------------------------------------------|-7-------7---7---5---4---5----------------|
G#|-2-----------2-------2---0-----------2-----------|------------------------------------------|
D#|-0---0---0---0---0---0---2---2---2---3---3---3---|-----7------------------------8---8---8---|


D#|-------------------------------------------------|------------------------------------------|
A#|-------------------------------------------------|------------------------------------------|
F#|-------------------------------------------------|------------------------------------------|
C#|-------------------------------------------------|------------------------------------------|
G#|-10----------9-----------6-----------9-----------|-7---7---7---7---5---3---5----5-----------|
D#|-----8---8-------8---8-------7---7-------7---7---|----------------------------------0---0---|


D#|-------------------------------------------------|------------------------------------------|
A#|-------------------------------------------------|------------------------------------------|
F#|-------------------------------------------------|------------------------------------------|
C#|-2-----------------------------------------------|-7-------7---7---5---4---5----------------|
G#|-2-----------2-------2---0-----------2-----------|------------------------------------------|
D#|-0---0---0---0---0---0---2---2---2---3---3---3---|-----7------------------------8---8---8---|


D#|-------------------------------------------------|------------------------------------------|
A#|-------------------------------------------------|------------------------------------------|
F#|-------------------------------------------------|------------------------------------------|
C#|-------------------------------------------------|------------------------------------------|
G#|-10----------9-----------6-----------9-----------|-7---7---7---7---5---3---5----5-----------|
D#|-----8---8-------8---8-------7---7-------7---7---|----------------------------------0---0---|


D#|-------------------------------------------------|------------------------------------------|
A#|-------------------------------------------------|------------------------------------------|
F#|-------------------------------------------------|------------------------------------------|
C#|-2-----------------------------------------------|-7-------7---7---5---4---5----------------|
G#|-2-----------2-------2---0-----------2-----------|------------------------------------------|
D#|-0---0---0---0---0---0---2---2---2---3---3---3---|-----7------------------------8---8---8---|


D#|-------------------------------------------------|------------------------------------------|
A#|-------------------------------------------------|------------------------------------------|
F#|-------------------------------------------------|------------------------------------------|
C#|-------------------------------------------------|------------------------------------------|
G#|-10----------9-----------6-----------9-----------|-7---7---7---7---5---3---5----5-----------|
D#|-----8---8-------8---8-------7---7-------7---7---|----------------------------------0---0---|


D#|-------------------------------------------------|------------------------------------------|
A#|-------------------------------------------------|------------------------------------------|
F#|-------------------------------------------------|------------------------------------------|
C#|-2-----------------------------------------------|-7-------7---7---5---4---5----------------|
G#|-2-----------2-------2---0-----------2-----------|------------------------------------------|
D#|-0---0---0---0---0---0---2---2---2---3---3---3---|-----7------------------------8---8---8---|


D#|-------------------------------------------------|--------|--------|--------|--------|
A#|-------------------------------------------------|--------|--------|--------|--------|
F#|-------------------------------------------------|--------|--------|--------|--------|
C#|-------------------------------------------------|--------|--------|--------|--------|
G#|-10----------9-----------6-----------9-----------|--------|--------|--------|--------|
D#|-----8---8-------8---8-------7---7-------7---7---|--------|--------|--------|--------|


D#|--------|--------|--------|--------|----------------7----|-5-------------------|
A#|--------|--------|--------|--------|-5---------5---------|------7----8---------|
F#|--------|--------|--------|--------|------4--------------|----------------5----|
C#|--------|--------|--------|--------|---------------------|---------------------|
G#|--------|--------|--------|--------|---------------------|---------------------|
D#|--------|--------|--------|--------|---------------------|---------------------|


D#|----------------10---|-8----7---8---8---7-----|----------------7----|-5-------------------|
A#|-8---------8---------|------------------------|-5---------5---------|------7----8---------|
F#|------9--------------|------------------------|------4--------------|----------------5----|
C#|---------------------|------------------------|---------------------|---------------------|
G#|---------------------|------------------------|---------------------|---------------------|
D#|---------------------|------------------------|---------------------|---------------------|


D#|----------------10---|-8----7---8---8---7-----|----------------15---|-14--------15--------|
A#|-8---------8---------|------------------------|-17--------17--------|------15--------18---|
F#|------9--------------|------------------------|------16-------------|---------------------|
C#|---------------------|------------------------|---------------------|---------------------|
G#|---------------------|------------------------|---------------------|---------------------|
D#|---------------------|------------------------|---------------------|---------------------|


D#|----------------15---|-14---17---15----|----------------15---|-14--------15--------|
A#|-17--------17--------|-----------------|-17--------17--------|------15--------18---|
F#|------16-------------|-----------------|------16-------------|---------------------|
C#|---------------------|-----------------|---------------------|---------------------|
G#|---------------------|-----------------|---------------------|---------------------|
D#|---------------------|-----------------|---------------------|---------------------|


D#|----------------15---|-14---17---15----|---------------------------------------------------|
A#|-17--------17--------|-----------------|---------------------------------------------------|
F#|------16-------------|-----------------|---------------------------------------------------|
C#|---------------------|-----------------|-2-------------------------------------------------|
G#|---------------------|-----------------|-2-------------7-----------2-----------5---7---5---|
D#|---------------------|-----------------|-0---0--0--0---0---0---0---0---0---0---0---0---0---|


D#|---------------------------------------------------|---------------------------------------------------|
A#|---------------------------------------------------|---------------------------------------------------|
F#|---------------------------------------------------|---------------------------------------------------|
C#|-------------2-------------------------7-----------|-2-------------5-----------------------5-----------|
G#|-7-----------2-------------------------5---5---5---|-3---3--3--3---3---3---3---3---3---3---3---3---3---|
D#|-0---0---0---0---0--0--0---0---0---0---------------|---------------------------------------------------|


D#|---------------------------------------------------|---------------------------------------------------|
A#|---------------------------------------------------|---------------------------------------------------|
F#|---------------------------------------------------|---------------------------------------------------|
C#|-0-----------4-------------------------4-----------|-2-------------------------------------------------|
G#|-2---2---2---2---2--2--2---2---2---2---2---2---2---|-2-------------7-----------2-----------5---7---5---|
D#|---------------------------------------------------|-0---0--0--0---0---0---0---0---0---0---0---0---0---|


D#|---------------------------------------------------|---------------------------------------------------|
A#|---------------------------------------------------|---------------------------------------------------|
F#|---------------------------------------------------|---------------------------------------------------|
C#|-------------2-------------------------7-----------|-2-------------5-----------------------5-----------|
G#|-7-----------2-------------------------5---5---5---|-3---3--3--3---3---3---3---3---3---3---3---3---3---|
D#|-0---0---0---0---0--0--0---0---0---0---------------|---------------------------------------------------|


D#|---------------------------------------------------|---------------------------------------------------|
A#|---------------------------------------------------|---------------------------------------------------|
F#|---------------------------------------------------|---------------------------------------------------|
C#|-0-----------4-------------------------4-----------|-2-------------------------------------------------|
G#|-2---2---2---2---2--2--2---2---2---2---2---2---2---|-2-------------7-----------2-----------5---7---5---|
D#|---------------------------------------------------|-0---0--0--0---0---0---0---0---0---0---0---0---0---|


D#|---------------------------------------------------|---------------------------------------------------|
A#|---------------------------------------------------|---------------------------------------------------|
F#|---------------------------------------------------|---------------------------------------------------|
C#|-------------2-------------------------7-----------|-2-------------5-----------------------5-----------|
G#|-7-----------2-------------------------5---7---5---|-3---3--3--3---3---3---3---3---3---3---3---3---3---|
D#|-0---0---0---0---0--0--0---0---0---0---------------|---------------------------------------------------|


D#|---------------------------------------------------|---------------------------------------------------|
A#|---------------------------------------------------|---------------------------------------------------|
F#|---------------------------------------------------|---------------------------------------------------|
C#|-0-----------4-------------------------4-----------|-2-------------------------------------------------|
G#|-2---2---2---2---2--2--2---2---2---2---2---2---2---|-2-------------7-----------2-----------5---7---5---|
D#|---------------------------------------------------|-0---0--0--0---0---0---0---0---0---0---0---0---0---|


D#|---------------------------------------------------|---------------------------------------------------|
A#|---------------------------------------------------|---------------------------------------------------|
F#|---------------------------------------------------|---------------------------------------------------|
C#|-------------2-------------------------7-----------|-2-------------5-----------------------5-----------|
G#|-7-----------2-------------------------5---7---5---|-3---3--3--3---3---3---3---3---3---3---3---3---3---|
D#|-0---0---0---0---0--0--0---0---0---0---------------|---------------------------------------------------|


D#|---------------------------------------------------|-------------------------------------------------|
A#|---------------------------------------------------|-------------------------------------------------|
F#|---------------------------------------------------|-------------------------------------------------|
C#|-0-----------4-------------------------4-----------|-------------------------------------------------|
G#|-2---2---2---2---2--2--2---2---2---2---2---2---2---|-2-------2---------------4-------4---------------|
D#|---------------------------------------------------|-0---0---0---0---0---0---2---2---2---2---2---2---|


D#|----------------------------------------|-------------------------------------------------|
A#|----------------------------------------|-------------------------------------------------|
F#|----------------------------------------|-------------------------------------------------|
C#|------------------------------2---------|-2-----------------------5-----------5-----------|
G#|-2-------2---------------7----3----7----|-3---3---3---3---3---3---3---3---3---3---3---3---|
D#|-3---3---3---3---3---3---5---------5----|-------------------------------------------------|


D#|---------------------------------------------------|-------------------------------------------------|
A#|---------------------------------------------------|-------------------------------------------------|
F#|---------------------------------------------------|-------------------------------------------------|
C#|-0-----------4-------------------------------------|-------------------------------------------------|
G#|-2---2---2---2---2--2--2---3-----------3-----------|-2-------2---------------4-------4---------------|
D#|---------------------------5---5---5---5---5---5---|-0---0---0---0---0---0---2---2---2---2---2---2---|


D#|----------------------------------------|-------------------------------------------------|
A#|----------------------------------------|-------------------------------------------------|
F#|----------------------------------------|-------------------------------------------------|
C#|------------------------------2---------|-2-----------------------5-----------5-----------|
G#|-2-------2---------------7----3----7----|-3---3---3---3---3---3---3---3---3---3---3---3---|
D#|-3---3---3---3---3---3---5---------5----|-------------------------------------------------|


D#|---------------------------------------------------|-------------------------------------------------|
A#|---------------------------------------------------|-------------------------------------------------|
F#|---------------------------------------------------|-------------------------------------------------|
C#|-0-----------4-------------------------------------|-------------------------------------------------|
G#|-2---2---2---2---2--2--2---3-----------3-----------|-2-------2---------------4-------4---------------|
D#|---------------------------5---5---5---5---5---5---|-0---0---0---0---0---0---2---2---2---2---2---2---|


D#|----------------------------------------|-------------------------------------------------|
A#|----------------------------------------|-------------------------------------------------|
F#|----------------------------------------|-------------------------------------------------|
C#|------------------------------2---------|-2-----------------------5-----------5-----------|
G#|-2-------2---------------7----3----7----|-3---3---3---3---3---3---3---3---3---3---3---3---|
D#|-3---3---3---3---3---3---5---------5----|-------------------------------------------------|


D#|---------------------------------------------------|-------------------------------------------------|
A#|---------------------------------------------------|-------------------------------------------------|
F#|---------------------------------------------------|-------------------------------------------------|
C#|-0-----------4-------------------------------------|-------------------------------------------------|
G#|-2---2---2---2---2--2--2---3-----------3-----------|-2-------2---------------4-------4---------------|
D#|---------------------------5---5---5---5---5---5---|-0---0---0---0---0---0---2---2---2---2---2---2---|


D#|----------------------------------------|-------------------------------------------------|
A#|----------------------------------------|-------------------------------------------------|
F#|----------------------------------------|-------------------------------------------------|
C#|------------------------------2---------|-2-----------------------5-----------5-----------|
G#|-2-------2---------------7----3----7----|-3---3---3---3---3---3---3---3---3---3---3---3---|
D#|-3---3---3---3---3---3---5---------5----|-------------------------------------------------|


D#|---------------------------------------------------|--------|--------|--------|
A#|---------------------------------------------------|--------|--------|--------|
F#|---------------------------------------------------|--------|--------|--------|
C#|-0-----------4-------------------------------------|--------|--------|--------|
G#|-2---2---2---2---2--2--2---3-----------3-----------|--------|--------|--------|
D#|---------------------------5---5---5---5---5---5---|--------|--------|--------|


D#|--------|--------|--------|--------|--------|--------|--------|--------|--------|
A#|--------|--------|--------|--------|--------|--------|--------|--------|--------|
F#|--------|--------|--------|--------|--------|--------|--------|--------|--------|
C#|--------|--------|--------|--------|--------|--------|--------|--------|--------|
G#|--------|--------|--------|--------|--------|--------|--------|--------|--------|
D#|--------|--------|--------|--------|--------|--------|--------|--------|--------|


D#|--------|--------|--------|--------|-------------------------------------------------|
A#|--------|--------|--------|--------|-------------------------------------------------|
F#|--------|--------|--------|--------|-------------------------------------------------|
C#|--------|--------|--------|--------|-------------5-------------------9---7-----------|
G#|--------|--------|--------|--------|-2-----------7-----------7-------7-------5---5---|
D#|--------|--------|--------|--------|-3---0---0-------0---0---0---0---0---------------|


D#|-------------------------------------------------|-------------------------------------------------|
A#|-------------------------------------------------|-------------------------------------------------|
F#|-------------------------5-------5---------------|-------------4-----------------------------------|
C#|-2---------------------------7-------4-------4---|-------------5-------------------9---7-----------|
G#|-2-----------2---------------------------5-------|-2-----------7-----------7-------7-------5---5---|
D#|-0---0---0---3---0---0---------------------------|-3---0---0-------0---0---0---0---0---------------|


D#|---------------------------------------------------|-------------------------------------------------|
A#|---------------------------------------------------|-------------------------------------------------|
F#|---------------------------------------------------|-------------------------------------------------|
C#|-2-----------------------2-------------------------|-------------5-------------------9---7-----------|
G#|-2-----------2-----------2---------2---0---0---0---|-2-----------7-----------7-------7-------5---5---|
D#|-0---0---0---3---0---0---3---3--3--3---2---2---2---|-3---0---0-------0---0---0---0---0---------------|


D#|-------------------------------------------------|-------------------------------------------------|
A#|-------------------------------------------------|-------------------------------------------------|
F#|-------------------------5-------5---------------|-------------4-----------------------------------|
C#|-2---------------------------7-------4-------4---|-------------5-------------------9---7-----------|
G#|-2-----------2---------------------------5-------|-2-----------7-----------7-------7-------5---5---|
D#|-0---0---0---3---0---0---------------------------|-3---0---0-------0---0---0---0---0---------------|


D#|---------------------------------------------------|-------------------------------------------------|
A#|---------------------------------------------------|-------------------------------------------------|
F#|---------------------------------------------------|-------------------------------------------------|
C#|-2-----------------------2-------------------------|-2-----------------------2-----------------------|
G#|-2-----------2-----------2---------2---0---0---0---|-2---2---2---------------2---2---2---------------|
D#|-0---0---0---3---0---0---3---3--3--3---2---2---2---|-0---0---0---0---0---0---0---0---0---0---0---0---|


D#|-------------------------------------------------|-------------------------------------------------|
A#|-------------------------------------------------|-------------------------------------------------|
F#|-------------------------------------------------|-------------------------------------------------|
C#|-------------------------------------------------|-2-----------------------2-----------------------|
G#|-6---6---6---------------6---6---6---------------|-2---2---2---------------2---2---2---------------|
D#|-7---7---7---7---7---7---7---7---7---7---7---7---|-0---0---0---0---0---0---0---0---0---0---0---0---|


D#|-------------------------------------------------|-------------------------------------------------|
A#|-------------------------------------------------|-------------------------------------------------|
F#|-------------------------------------------------|-------------------------------------------------|
C#|-------------------------------------------------|-2-----------------------2-----------------------|
G#|-6---6---6---------------6---6---6---------------|-2---2---2---------------2---2---2---------------|
D#|-7---7---7---7---7---7---7---7---7---7---7---7---|-0---0---0---0---0---0---0---0---0---0---0---0---|


D#|-------------------------------------------------|-------------------------------------------------|
A#|-------------------------------------------------|-------------------------------------------------|
F#|-------------------------------------------------|-------------------------------------------------|
C#|-------------------------------------------------|-2-----------------------2-----------------------|
G#|-6---6---6---------------6---6---6---------------|-2---2---2---------------2---2---2---------------|
D#|-7---7---7---7---7---7---7---7---7---7---7---7---|-0---0---0---0---0---0---0---0---0---0---0---0---|


D#|-------------------------------------------------|------------------------------------------|
A#|-------------------------------------------------|------------------------------------------|
F#|-------------------------------------------------|------------------------------------------|
C#|-------------------------------------------------|------------------------------------------|
G#|-6---6---6---------------6---6---6---------------|-7---7---7---7---5---3---5----5-----------|
D#|-7---7---7---7---7---7---7---7---7---7---7---7---|----------------------------------0---0---|


D#|-------------------------------------------------|------------------------------------------|
A#|-------------------------------------------------|------------------------------------------|
F#|-------------------------------------------------|------------------------------------------|
C#|-2-----------------------------------------------|-7-------7---7---5---4---5----------------|
G#|-2-----------2-------2---0-----------2-----------|------------------------------------------|
D#|-0---0---0---0---0---0---2---2---2---3---3---3---|-----7------------------------8---8---8---|


D#|-------------------------------------------------|------------------------------------------|
A#|-------------------------------------------------|------------------------------------------|
F#|-------------------------------------------------|------------------------------------------|
C#|-------------------------------------------------|------------------------------------------|
G#|-10----------9-----------6-----------9-----------|-7---7---7---7---5---3---5----5-----------|
D#|-----8---8-------8---8-------7---7-------7---7---|----------------------------------0---0---|


D#|-------------------------------------------------|------------------------------------------|
A#|-------------------------------------------------|------------------------------------------|
F#|-------------------------------------------------|------------------------------------------|
C#|-2-----------------------------------------------|-7-------7---7---5---4---5----------------|
G#|-2-----------2-------2---0-----------2-----------|------------------------------------------|
D#|-0---0---0---0---0---0---2---2---2---3---3---3---|-----7------------------------8---8---8---|


D#|-------------------------------------------------|------------------------------------------|
A#|-------------------------------------------------|------------------------------------------|
F#|-------------------------------------------------|------------------------------------------|
C#|-------------------------------------------------|------------------------------------------|
G#|-10----------9-----------6-----------9-----------|-7---7---7---7---5---3---5----5-----------|
D#|-----8---8-------8---8-------7---7-------7---7---|----------------------------------0---0---|


D#|-------------------------------------------------|------------------------------------------|
A#|-------------------------------------------------|------------------------------------------|
F#|-------------------------------------------------|------------------------------------------|
C#|-2-----------------------------------------------|-7-------7---7---5---4---5----------------|
G#|-2-----------2-------2---0-----------2-----------|------------------------------------------|
D#|-0---0---0---0---0---0---2---2---2---3---3---3---|-----7------------------------8---8---8---|


D#|-------------------------------------------------|------------------------------------------|
A#|-------------------------------------------------|------------------------------------------|
F#|-------------------------------------------------|------------------------------------------|
C#|-------------------------------------------------|------------------------------------------|
G#|-10----------9-----------6-----------9-----------|-7---7---7---7---5---3---5----5-----------|
D#|-----8---8-------8---8-------7---7-------7---7---|----------------------------------0---0---|


D#|-------------------------------------------------|------------------------------------------|
A#|-------------------------------------------------|------------------------------------------|
F#|-------------------------------------------------|------------------------------------------|
C#|-2-----------------------------------------------|-7-------7---7---5---4---5----------------|
G#|-2-----------2-------2---0-----------2-----------|------------------------------------------|
D#|-0---0---0---0---0---0---2---2---2---3---3---3---|-----7------------------------8---8---8---|


D#|-------------------------------------------------|------------------------|
A#|-------------------------------------------------|------------------------|
F#|-------------------------------------------------|------------------------|
C#|-------------------------------------------------|------------------------|
G#|-10----------9-----------6-----------9-----------|-2---2---2--------------|
D#|-----8---8-------8---8-------7---7-------7---7---|-0---0---0--------------|





Track 8: Distortion Guitar 1

D#|--------|--------|--------|--------|--------|--------|--------|--------|--------|
A#|--------|--------|--------|--------|--------|--------|--------|--------|--------|
F#|--------|--------|--------|--------|--------|--------|--------|--------|--------|
C#|--------|--------|--------|--------|--------|--------|--------|--------|--------|
G#|--------|--------|--------|--------|--------|--------|--------|--------|--------|
D#|--------|--------|--------|--------|--------|--------|--------|--------|--------|


D#|--------|--------|--------|--------|--------|--------|--------|--------|--------|
A#|--------|--------|--------|--------|--------|--------|--------|--------|--------|
F#|--------|--------|--------|--------|--------|--------|--------|--------|--------|
C#|--------|--------|--------|--------|--------|--------|--------|-2------|-2------|
G#|--------|--------|--------|--------|--------|--------|--------|--------|--------|
D#|--------|--------|--------|--------|--------|--------|--------|-0------|-0------|


D#|--------|--------|--------|--------|--------|--------|--------|--------|--------|
A#|--------|--------|--------|--------|--------|--------|--------|--------|--------|
F#|--------|--------|--------|--------|--------|--------|--------|--------|--------|
C#|-2------|-2------|--------|--------|--------|--------|--------|--------|--------|
G#|--------|--------|--------|--------|--------|--------|--------|--------|--------|
D#|-0------|-0------|--------|--------|--------|--------|--------|--------|--------|


D#|--------|--------|--------|--------|--------|--------|--------|--------|--------|
A#|--------|--------|--------|--------|--------|--------|--------|--------|--------|
F#|--------|--------|--------|--------|--------|--------|--------|--------|--------|
C#|--------|--------|--------|--------|--------|--------|--------|--------|--------|
G#|--------|--------|--------|--------|--------|--------|--------|--------|--------|
D#|--------|--------|--------|--------|--------|--------|--------|--------|--------|


D#|--------|--------|--------|--------|--------|--------|--------|--------|--------|
A#|--------|--------|--------|--------|--------|--------|--------|--------|--------|
F#|--------|--------|--------|--------|--------|--------|--------|--------|--------|
C#|--------|--------|--------|--------|--------|--------|--------|--------|--------|
G#|--------|--------|--------|--------|--------|--------|--------|--------|--------|
D#|--------|--------|--------|--------|--------|--------|--------|--------|--------|


D#|--------|--------|--------|--------|--------|--------|--------|--------|--------|
A#|--------|--------|--------|--------|--------|--------|--------|--------|--------|
F#|--------|--------|--------|--------|--------|--------|--------|--------|--------|
C#|--------|--------|--------|--------|--------|--------|--------|--------|--------|
G#|--------|--------|--------|--------|--------|--------|--------|--------|--------|
D#|--------|--------|--------|--------|--------|--------|--------|--------|--------|


D#|--------|--------|--------|--------|--------|--------|--------|--------|--------|
A#|--------|--------|--------|--------|--------|--------|--------|--------|--------|
F#|--------|--------|--------|--------|--------|--------|--------|--------|--------|
C#|--------|--------|--------|--------|--------|--------|--------|--------|--------|
G#|--------|--------|--------|--------|--------|--------|--------|--------|--------|
D#|--------|--------|--------|--------|--------|--------|--------|--------|--------|


D#|--------|--------|--------|--------|--------|--------|--------|--------|--------|
A#|--------|--------|--------|--------|--------|--------|--------|--------|--------|
F#|--------|--------|--------|--------|--------|--------|--------|--------|--------|
C#|--------|--------|--------|--------|--------|--------|--------|--------|--------|
G#|--------|--------|--------|--------|--------|--------|--------|--------|--------|
D#|--------|--------|--------|--------|--------|--------|--------|--------|--------|


D#|--------|--------|--------|--------|--------|--------|--------|--------|--------|
A#|--------|--------|--------|--------|--------|--------|--------|--------|--------|
F#|--------|--------|--------|--------|--------|--------|--------|--------|--------|
C#|--------|--------|--------|--------|--------|--------|--------|--------|--------|
G#|--------|--------|--------|--------|--------|--------|--------|--------|--------|
D#|--------|--------|--------|--------|--------|--------|--------|--------|--------|


D#|--------|--------|--------|--------|--------|--------|--------|--------|--------|
A#|--------|--------|--------|--------|--------|--------|--------|--------|--------|
F#|--------|--------|--------|--------|--------|--------|--------|--------|--------|
C#|--------|--------|--------|--------|--------|--------|--------|--------|--------|
G#|--------|--------|--------|--------|--------|--------|--------|--------|--------|
D#|--------|--------|--------|--------|--------|--------|--------|--------|--------|


D#|--------|--------|--------|--------|--------|--------|--------|--------|--------|
A#|--------|--------|--------|--------|--------|--------|--------|--------|--------|
F#|--------|--------|--------|--------|--------|--------|--------|--------|--------|
C#|--------|--------|--------|--------|--------|--------|--------|--------|--------|
G#|--------|--------|--------|--------|--------|--------|--------|--------|--------|
D#|--------|--------|--------|--------|--------|--------|--------|--------|--------|


D#|--------|--------|--------|--------|--------|--------|--------|--------|--------|
A#|--------|--------|--------|--------|--------|--------|--------|--------|--------|
F#|--------|--------|--------|--------|--------|--------|--------|--------|--------|
C#|--------|--------|--------|--------|--------|--------|--------|--------|--------|
G#|--------|--------|--------|--------|--------|--------|--------|--------|--------|
D#|--------|--------|--------|--------|--------|--------|--------|--------|--------|


D#|--------|--------|--------|--------|--------|--------|--------|--------|--------|
A#|--------|--------|--------|--------|--------|--------|--------|--------|--------|
F#|--------|--------|--------|--------|--------|--------|--------|--------|--------|
C#|--------|--------|--------|--------|--------|--------|--------|--------|--------|
G#|--------|--------|--------|--------|--------|--------|--------|--------|--------|
D#|--------|--------|--------|--------|--------|--------|--------|--------|--------|


D#|--------|--------|--------|--------|--------|--------|--------|--------|--------|
A#|--------|--------|--------|--------|--------|--------|--------|--------|--------|
F#|--------|--------|--------|--------|--------|--------|--------|--------|--------|
C#|--------|--------|--------|--------|--------|--------|--------|--------|--------|
G#|--------|--------|--------|--------|--------|--------|--------|--------|--------|
D#|--------|--------|--------|--------|--------|--------|--------|--------|--------|


D#|--------|--------|--------|--------|--------|--------|--------|--------|--------|
A#|--------|--------|--------|--------|--------|--------|--------|--------|--------|
F#|--------|--------|--------|--------|--------|--------|--------|--------|--------|
C#|--------|--------|--------|--------|--------|--------|--------|--------|--------|
G#|--------|--------|--------|--------|--------|--------|--------|--------|--------|
D#|--------|--------|--------|--------|--------|--------|--------|--------|--------|


D#|--------|--------|--------|--------|--------|--------|--------|--------|--------|
A#|--------|--------|--------|--------|--------|--------|--------|--------|--------|
F#|--------|--------|--------|--------|--------|--------|--------|--------|--------|
C#|--------|--------|--------|--------|--------|--------|--------|--------|--------|
G#|--------|--------|--------|--------|--------|--------|--------|--------|--------|
D#|--------|--------|--------|--------|--------|--------|--------|--------|--------|


D#|--------|--------|--------|--------|--------|--------|--------|--------|--------|
A#|--------|--------|--------|--------|--------|--------|--------|--------|--------|
F#|--------|--------|--------|--------|--------|--------|--------|--------|--------|
C#|--------|--------|--------|--------|--------|--------|--------|--------|--------|
G#|--------|--------|--------|--------|--------|--------|--------|--------|--------|
D#|--------|--------|--------|--------|--------|--------|--------|--------|--------|


D#|--------|--------|--------|--------|--------|--------|--------|--------|--------|
A#|--------|--------|--------|--------|--------|--------|--------|--------|--------|
F#|--------|--------|--------|--------|--------|--------|--------|--------|--------|
C#|--------|--------|--------|--------|--------|--------|--------|--------|--------|
G#|--------|--------|--------|--------|--------|--------|--------|--------|--------|
D#|--------|--------|--------|--------|--------|--------|--------|--------|--------|


D#|--------|--------|--------|--------|--------|--------|--------|
A#|--------|--------|--------|--------|--------|--------|--------|
F#|--------|--------|--------|--------|--------|--------|--------|
C#|--------|--------|--------|--------|--------|--------|--------|
G#|--------|--------|--------|--------|--------|--------|--------|
D#|--------|--------|--------|--------|--------|--------|--------|





Track 9: Church Organ

D#|--------|--------|--------|--------|--------|--------|--------|--------|--------|
A#|--------|--------|--------|--------|--------|--------|--------|--------|--------|
F#|--------|--------|--------|--------|--------|--------|--------|--------|--------|
C#|--------|--------|--------|--------|--------|--------|--------|--------|--------|
G#|--------|--------|--------|--------|--------|--------|--------|--------|--------|
D#|--------|--------|--------|--------|--------|--------|--------|--------|--------|


D#|--------|--------|--------|--------|--------|--------|--------|--------|--------|
A#|--------|--------|--------|--------|--------|--------|--------|--------|--------|
F#|--------|--------|--------|--------|--------|--------|--------|--------|--------|
C#|--------|--------|--------|--------|--------|--------|--------|--------|--------|
G#|--------|--------|--------|--------|--------|--------|--------|--------|--------|
D#|--------|--------|--------|--------|--------|--------|--------|--------|--------|


D#|--------|--------|-------------7-------7---12------12--10----------|-------------7-------7---8-------8---5-------5---|
A#|--------|--------|-8---5---8-------8-----------12----------7---10--|-8---5---8-------8-----------10----------7-------|
F#|--------|--------|-------------------------------------------------|-------------------------------------------------|
C#|--------|--------|-------------------------------------------------|-------------------------------------------------|
G#|--------|--------|-------------------------------------------------|-------------------------------------------------|
D#|--------|--------|-------------------------------------------------|-------------------------------------------------|


D#|-------------7-------7---12------12--10----------|-------------7-------7---8-------7---5-------5---|
A#|-8---5---8-------8-----------12----------7---10--|-8---5---8-------8-----------7-----------7-------|
F#|-------------------------------------------------|-------------------------------------------------|
C#|-------------------------------------------------|-------------------------------------------------|
G#|-------------------------------------------------|-------------------------------------------------|
D#|-------------------------------------------------|-------------------------------------------------|


D#|--------|--------|--------|--------|--------|--------|--------|--------|--------|
A#|--------|--------|--------|--------|--------|--------|--------|--------|--------|
F#|--------|--------|--------|--------|--------|--------|--------|--------|--------|
C#|--------|--------|--------|--------|--------|--------|--------|--------|--------|
G#|--------|--------|--------|--------|--------|--------|--------|--------|--------|
D#|--------|--------|--------|--------|--------|--------|--------|--------|--------|


D#|--------|--------|--------|-------------7-------7---12------12--10----------|-------------7-------7---8-------8---5-------5---|
A#|--------|--------|--------|-8---5---8-------8-----------12----------7---10--|-8---5---8-------8-----------10----------7-------|
F#|--------|--------|--------|-------------------------------------------------|-------------------------------------------------|
C#|--------|--------|--------|-------------------------------------------------|-------------------------------------------------|
G#|--------|--------|--------|-------------------------------------------------|-------------------------------------------------|
D#|--------|--------|--------|-------------------------------------------------|-------------------------------------------------|


D#|-------------7-------7---12------12--10----------|-------------7-------7---8-------7---5-------5---|
A#|-8---5---8-------8-----------12----------7---10--|-8---5---8-------8-----------7-----------7-------|
F#|-------------------------------------------------|-------------------------------------------------|
C#|-------------------------------------------------|-------------------------------------------------|
G#|-------------------------------------------------|-------------------------------------------------|
D#|-------------------------------------------------|-------------------------------------------------|


D#|--------|--------|--------|-------------|--------|--------|--------|-------------|
A#|--------|--------|--------|-------------|--------|--------|--------|-------------|
F#|--------|--------|--------|-------4-----|--------|--------|--------|-------4-----|
C#|-5------|-4------|-5------|-4-----------|-5------|-4------|-5------|-4-----------|
G#|--------|--------|--------|-------------|--------|--------|--------|-------------|
D#|--------|--------|--------|-------------|--------|--------|--------|-------------|


D#|-------------|--------|--------|--------|--------|--------|--------|--------|--------|
A#|--------5----|-5------|-5------|-5------|-5------|-5------|-5------|-5------|-5------|
F#|-------------|--------|--------|--------|--------|--------|--------|--------|--------|
C#|--------2----|-2------|-2------|-2------|-2------|-2------|-2------|-2------|-2------|
G#|-------------|--------|--------|--------|--------|--------|--------|--------|--------|
D#|-------------|--------|--------|--------|--------|--------|--------|--------|--------|


D#|--------|--------|--------|--------|--------|--------|--------|--------|--------|
A#|-5------|-5------|-5------|-5------|-5------|-5------|-5------|--------|--------|
F#|--------|--------|--------|--------|--------|--------|--------|--------|--------|
C#|-2------|-2------|-2------|-2------|-2------|-2------|-2------|--------|--------|
G#|--------|--------|--------|--------|--------|--------|--------|--------|--------|
D#|--------|--------|--------|--------|--------|--------|--------|--------|--------|


D#|--------|--------|--------|--------|--------|--------|--------|--------|--------|
A#|--------|--------|--------|--------|--------|--------|--------|--------|--------|
F#|--------|--------|--------|--------|--------|--------|--------|--------|--------|
C#|--------|--------|--------|--------|--------|--------|--------|--------|--------|
G#|--------|--------|--------|--------|--------|--------|--------|--------|--------|
D#|--------|--------|--------|--------|--------|--------|--------|--------|--------|


D#|--------|--------|--------|--------|--------|--------|--------|--------|--------|
A#|--------|--------|--------|--------|--------|--------|--------|--------|--------|
F#|--------|--------|--------|--------|--------|--------|--------|--------|--------|
C#|--------|--------|--------|--------|--------|--------|--------|--------|--------|
G#|--------|--------|--------|--------|--------|--------|--------|--------|--------|
D#|--------|--------|--------|--------|--------|--------|--------|--------|--------|


D#|--------|--------|--------|--------|--------|--------|--------|--------|--------|
A#|--------|--------|--------|--------|--------|--------|--------|--------|--------|
F#|--------|--------|--------|--------|--------|--------|--------|--------|--------|
C#|--------|--------|--------|--------|--------|--------|--------|--------|--------|
G#|--------|--------|--------|--------|--------|--------|--------|--------|--------|
D#|--------|--------|--------|--------|--------|--------|--------|--------|--------|


D#|--------|--------|--------|--------|--------|--------|--------|--------|--------|
A#|--------|--------|--------|--------|--------|--------|--------|--------|--------|
F#|--------|--------|--------|--------|--------|--------|--------|--------|--------|
C#|--------|--------|--------|--------|--------|--------|--------|--------|--------|
G#|--------|--------|--------|--------|--------|--------|--------|--------|--------|
D#|--------|--------|--------|--------|--------|--------|--------|--------|--------|


D#|--------|--------|--------|--------|--------|--------|--------|--------|--------|
A#|--------|--------|--------|--------|--------|--------|--------|--------|--------|
F#|--------|--------|--------|--------|--------|--------|--------|--------|--------|
C#|--------|--------|--------|--------|--------|--------|--------|--------|--------|
G#|--------|--------|--------|--------|--------|--------|--------|--------|--------|
D#|--------|--------|--------|--------|--------|--------|--------|--------|--------|


D#|--------|--------|--------|--------|--------|--------|--------|--------|--------|
A#|--------|--------|--------|--------|--------|--------|--------|--------|--------|
F#|--------|--------|--------|--------|--------|--------|--------|--------|--------|
C#|--------|--------|--------|--------|--------|--------|--------|--------|--------|
G#|--------|--------|--------|--------|--------|--------|--------|--------|--------|
D#|--------|--------|--------|--------|--------|--------|--------|--------|--------|


D#|--------|--------|--------|--------|--------|--------|--------|--------|--------|
A#|--------|--------|--------|--------|--------|--------|--------|--------|--------|
F#|--------|--------|--------|--------|--------|--------|--------|--------|--------|
C#|--------|--------|--------|--------|--------|--------|--------|--------|--------|
G#|--------|--------|--------|--------|--------|--------|--------|--------|--------|
D#|--------|--------|--------|--------|--------|--------|--------|--------|--------|


D#|--------|--------|--------|--------|--------|--------|--------|--------|--------|
A#|--------|--------|--------|--------|--------|--------|--------|--------|--------|
F#|--------|--------|--------|--------|--------|--------|--------|--------|--------|
C#|--------|--------|--------|--------|--------|--------|--------|--------|--------|
G#|--------|--------|--------|--------|--------|--------|--------|--------|--------|
D#|--------|--------|--------|--------|--------|--------|--------|--------|--------|


D#|--------|--------|-------------7-------7---12------12--10----------|-------------7-------7---8-------8---5-------5---|
A#|--------|--------|-8---5---8-------8-----------12----------7---10--|-8---5---8-------8-----------10----------7-------|
F#|--------|--------|-------------------------------------------------|-------------------------------------------------|
C#|--------|--------|-------------------------------------------------|-------------------------------------------------|
G#|--------|--------|-------------------------------------------------|-------------------------------------------------|
D#|--------|--------|-------------------------------------------------|-------------------------------------------------|


D#|-------------7-------7---12------12--10----------|-------------7-------7---8-------7---5-------5---|
A#|-8---5---8-------8-----------12----------7---10--|-8---5---8-------8-----------7-----------7-------|
F#|-------------------------------------------------|-------------------------------------------------|
C#|-------------------------------------------------|-------------------------------------------------|
G#|-------------------------------------------------|-------------------------------------------------|
D#|-------------------------------------------------|-------------------------------------------------|


D#|--------|--------|--------|--------|--------|--------|--------|--------|--------|
A#|--------|--------|--------|--------|--------|--------|--------|--------|--------|
F#|--------|--------|--------|--------|--------|--------|--------|--------|--------|
C#|--------|--------|--------|--------|--------|--------|--------|--------|--------|
G#|--------|--------|--------|--------|--------|--------|--------|--------|--------|
D#|--------|--------|--------|--------|--------|--------|--------|--------|--------|


D#|--------|--------|--------|--------|--------|--------|--------|--------|--------|
A#|--------|--------|--------|--------|--------|--------|--------|--------|--------|
F#|--------|--------|--------|--------|--------|--------|--------|--------|--------|
C#|--------|--------|--------|--------|--------|--------|--------|--------|--------|
G#|--------|--------|--------|--------|--------|--------|--------|--------|--------|
D#|--------|--------|--------|--------|--------|--------|--------|--------|--------|


D#|--------|--------|--------|--------|--------|--------|--------|
A#|--------|--------|--------|--------|--------|--------|--------|
F#|--------|--------|--------|--------|--------|--------|--------|
C#|--------|--------|--------|--------|--------|--------|--------|
G#|--------|--------|--------|--------|--------|--------|--------|
D#|--------|--------|--------|--------|--------|--------|--------|





Track 10: Distortion Guitar 1

D#|--------|--------|--------|--------|--------|--------|--------|--------|--------|
A#|--------|--------|--------|--------|--------|--------|--------|--------|--------|
F#|--------|--------|--------|--------|--------|--------|--------|--------|--------|
C#|--------|--------|--------|--------|--------|--------|--------|--------|--------|
G#|--------|--------|--------|--------|--------|--------|--------|--------|--------|
D#|--------|--------|--------|--------|--------|--------|--------|--------|--------|


D#|--------|--------|--------|--------|--------|--------|--------|--------|--------|
A#|--------|--------|--------|--------|--------|--------|--------|--------|--------|
F#|--------|--------|--------|--------|--------|--------|--------|--------|--------|
C#|--------|--------|--------|--------|--------|--------|--------|--------|--------|
G#|--------|--------|--------|--------|--------|--------|--------|--------|--------|
D#|--------|--------|--------|--------|--------|--------|--------|--------|--------|


D#|--------|--------|--------|--------|--------|--------|--------|--------|--------|
A#|--------|--------|--------|--------|--------|--------|--------|--------|--------|
F#|--------|--------|--------|--------|--------|--------|--------|--------|--------|
C#|--------|--------|--------|--------|--------|--------|--------|--------|--------|
G#|--------|--------|--------|--------|--------|--------|--------|--------|--------|
D#|--------|--------|--------|--------|--------|--------|--------|--------|--------|


D#|--------|--------|--------|--------|--------|--------|--------|--------|--------|
A#|--------|--------|--------|--------|--------|--------|--------|--------|--------|
F#|--------|--------|--------|--------|--------|--------|--------|--------|--------|
C#|--------|--------|--------|--------|--------|--------|--------|--------|--------|
G#|--------|--------|--------|--------|--------|--------|--------|--------|--------|
D#|--------|--------|--------|--------|--------|--------|--------|--------|--------|


D#|--------|--------|--------|--------|--------|--------|--------|--------|--------|
A#|--------|--------|--------|--------|--------|--------|--------|--------|--------|
F#|--------|--------|--------|--------|--------|--------|--------|--------|--------|
C#|--------|--------|--------|--------|--------|--------|--------|--------|--------|
G#|--------|--------|--------|--------|--------|--------|--------|--------|--------|
D#|--------|--------|--------|--------|--------|--------|--------|--------|--------|


D#|--------|--------|--------|--------|--------|--------|--------|--------|--------|
A#|--------|--------|--------|--------|--------|--------|--------|--------|--------|
F#|--------|--------|--------|--------|--------|--------|--------|--------|--------|
C#|--------|--------|--------|--------|--------|--------|--------|--------|--------|
G#|--------|--------|--------|--------|--------|--------|--------|--------|--------|
D#|--------|--------|--------|--------|--------|--------|--------|--------|--------|


D#|--------|--------|--------|--------|--------|--------|--------|--------|--------|
A#|--------|--------|--------|--------|--------|--------|--------|--------|--------|
F#|--------|--------|--------|--------|--------|--------|--------|--------|--------|
C#|--------|--------|--------|--------|--------|--------|--------|--------|--------|
G#|--------|--------|--------|--------|--------|--------|--------|--------|--------|
D#|--------|--------|--------|--------|--------|--------|--------|--------|--------|


D#|--------|--------|--------|--------|--------|--------|--------|--------|--------|
A#|--------|--------|--------|--------|--------|--------|--------|--------|--------|
F#|--------|--------|--------|--------|--------|--------|--------|--------|--------|
C#|--------|--------|--------|--------|--------|--------|--------|--------|--------|
G#|--------|--------|--------|--------|--------|--------|--------|--------|--------|
D#|--------|--------|--------|--------|--------|--------|--------|--------|--------|


D#|--------|--------|--------|--------|--------|--------|--------|--------|--------|
A#|--------|--------|--------|--------|--------|--------|--------|--------|--------|
F#|--------|--------|--------|--------|--------|--------|--------|--------|--------|
C#|--------|--------|--------|--------|--------|--------|--------|--------|--------|
G#|--------|--------|--------|--------|--------|--------|--------|--------|--------|
D#|--------|--------|--------|--------|--------|--------|--------|--------|--------|


D#|--------|--------|--------|--------|--------|--------|--------|--------|--------|
A#|--------|--------|--------|--------|--------|--------|--------|--------|--------|
F#|--------|--------|--------|--------|--------|--------|--------|--------|--------|
C#|--------|--------|--------|--------|--------|--------|--------|--------|--------|
G#|--------|--------|--------|--------|--------|--------|--------|--------|--------|
D#|--------|--------|--------|--------|--------|--------|--------|--------|--------|


D#|--------|--------|--------|--------|--------|--------|--------|--------|--------|
A#|--------|--------|--------|--------|--------|--------|--------|--------|--------|
F#|--------|--------|--------|--------|--------|--------|--------|--------|--------|
C#|--------|--------|--------|--------|--------|--------|--------|--------|--------|
G#|--------|--------|--------|--------|--------|--------|--------|--------|--------|
D#|--------|--------|--------|--------|--------|--------|--------|--------|--------|


D#|--------|--------|--------|--------|--------|--------|--------|--------|--------|
A#|--------|--------|--------|--------|--------|--------|--------|--------|--------|
F#|--------|--------|--------|--------|--------|--------|--------|--------|--------|
C#|--------|--------|--------|--------|--------|--------|--------|--------|--------|
G#|--------|--------|--------|--------|--------|--------|--------|--------|--------|
D#|--------|--------|--------|--------|--------|--------|--------|--------|--------|


D#|--------|--------|--------|--------|--------|--------|--------|--------|--------|
A#|--------|--------|--------|--------|--------|--------|--------|--------|--------|
F#|--------|--------|--------|--------|--------|--------|--------|--------|--------|
C#|--------|--------|--------|--------|--------|--------|--------|--------|--------|
G#|--------|--------|--------|--------|--------|--------|--------|--------|--------|
D#|--------|--------|--------|--------|--------|--------|--------|--------|--------|


D#|--------|--------|--------|--------|--------|--------|--------|--------|--------|
A#|--------|--------|--------|--------|--------|--------|--------|--------|--------|
F#|--------|--------|--------|--------|--------|--------|--------|--------|--------|
C#|--------|--------|--------|--------|--------|--------|--------|--------|--------|
G#|--------|--------|--------|--------|--------|--------|--------|--------|--------|
D#|--------|--------|--------|--------|--------|--------|--------|--------|--------|


D#|--------|--------|--------|--------|--------|--------|--------|--------|--------|
A#|--------|--------|--------|--------|--------|--------|--------|--------|--------|
F#|--------|--------|--------|--------|--------|--------|--------|--------|--------|
C#|--------|--------|--------|--------|--------|--------|--------|--------|--------|
G#|--------|--------|--------|--------|--------|--------|--------|--------|--------|
D#|--------|--------|--------|--------|--------|--------|--------|--------|--------|


D#|--------|--------|--------|--------|--------|--------|--------|--------|--------|
A#|--------|--------|--------|--------|--------|--------|--------|--------|--------|
F#|--------|--------|--------|--------|--------|--------|--------|--------|--------|
C#|--------|-2------|-2------|-2------|-2------|--------|--------|--------|--------|
G#|--------|--------|--------|--------|--------|--------|--------|--------|--------|
D#|--------|-0------|-0------|-0------|-0------|--------|--------|--------|--------|


D#|--------|--------|--------|--------|--------|--------|--------|--------|--------|
A#|--------|--------|--------|--------|--------|--------|--------|--------|--------|
F#|--------|--------|--------|--------|--------|--------|--------|--------|--------|
C#|--------|--------|--------|--------|--------|--------|--------|--------|--------|
G#|--------|--------|--------|--------|--------|--------|--------|--------|--------|
D#|--------|--------|--------|--------|--------|--------|--------|--------|--------|


D#|--------|--------|--------|--------|--------|--------|--------|--------|--------|
A#|--------|--------|--------|--------|--------|--------|--------|--------|--------|
F#|--------|--------|--------|--------|--------|--------|--------|--------|--------|
C#|--------|--------|--------|--------|--------|--------|--------|--------|--------|
G#|--------|--------|--------|--------|--------|--------|--------|--------|--------|
D#|--------|--------|--------|--------|--------|--------|--------|--------|--------|


D#|--------|--------|--------|--------|--------|--------|--------|
A#|--------|--------|--------|--------|--------|--------|--------|
F#|--------|--------|--------|--------|--------|--------|--------|
C#|--------|--------|--------|--------|--------|--------|--------|
G#|--------|--------|--------|--------|--------|--------|--------|
D#|--------|--------|--------|--------|--------|--------|--------|





Track 11: Electric Bass

F#|--------|--------|--------|--------|--------|--------|--------|------------------------|
C#|--------|--------|--------|--------|--------|--------|--------|------------------------|
G#|--------|--------|--------|--------|--------|--------|--------|------------------------|
D#|--------|--------|--------|--------|--------|--------|--------|------------0---0---0---|


F#|--------|--------|--------|------------------------|--------|--------|--------|
C#|--------|--------|--------|------------------------|--------|--------|--------|
G#|--------|--------|--------|------------------------|--------|--------|--------|
D#|-0------|-0------|-0------|-0----------0---0---0---|-0------|-0------|-0------|


F#|-------------------------------------------------|-------------------------------------------------|
C#|-------------------------------------------------|-------------------------------------------------|
G#|-------------------------------------------------|-------------------------7-----------------------|
D#|-2---2---2---2---2---2---2---2---2---2---2---2---|-0---0---0---3---0---0-------0---0---0---2---2---|


F#|-------------------------------------------------|-------------------------------------------------|
C#|-------------------------------------------------|-------------------------------------------------|
G#|-------------------------7---------------5-------|-------------------------7-----------------------|
D#|-0---0---0---3---0---0-------0---0---2-------2---|-0---0---0---3---0---0-------0---0---0---2---2---|


F#|---------------------------------------------------|-------------------------------------------------|
C#|---------------------------------------------------|-------------------------------------------------|
G#|---------------------------------------------------|-------------------------7-----------------------|
D#|-0---0---0---3---0---0---3---3--3--3---2---2---2---|-0---0---0---3---0---0-------0---0---0---2---2---|


F#|-------------------------------------------------|-------------------------------------------------|
C#|-------------------------------------------------|-------------------------------------------------|
G#|-------------------------7---------------5-------|-------------------------7-----------------------|
D#|-0---0---0---3---0---0-------0---0---2-------2---|-0---0---0---3---0---0-------0---0---0---2---2---|


F#|---------------------------------------------------|-------------------------------------------------|
C#|---------------------------------------------------|-------------------------------------------------|
G#|---------------------------------------------------|-------------------------------------------------|
D#|-0---0---0---3---0---0---3---3--3--3---2---2---2---|-0---0---0---0---0---0---0---0---0---0---0---0---|


F#|-------------------------------------------------|-------------------------------------------------|
C#|-------------------------------------------------|-------------------------------------------------|
G#|-------------------------------------------------|-------------------------------------------------|
D#|-7---7---7---7---7---7---7---7---7---7---7---7---|-0---0---0---0---0---0---0---0---0---0---0---0---|


F#|-------------------------------------------------|-------------------------------------------------|
C#|-------------------------------------------------|-------------------------------------------------|
G#|-------------------------------------------------|-------------------------------------------------|
D#|-7---7---7---7---7---7---7---7---7---7---7---7---|-0---0---0---0---0---0---0---0---0---0---0---0---|


F#|-------------------------------------------------|-------------------------------------------------|
C#|-------------------------------------------------|-------------------------------------------------|
G#|-------------------------------------------------|-------------------------------------------------|
D#|-7---7---7---7---7---7---7---7---7---7---7---7---|-0---0---0---0---0---0---0---0---0---0---0---0---|


F#|-------------------------------------------------|-------------------------------------------------|
C#|-------------------------------------------------|-------------------------------------------------|
G#|-------------------------------------------------|-------------------------7-----------------------|
D#|-7---7---7---7---7---7---7---7---7---7---7---7---|-0---0---0---3---0---0-------0---0---0---2---2---|


F#|-------------------------------------------------|-------------------------------------------------|
C#|-------------------------------------------------|-------------------------------------------------|
G#|-------------------------7---------------5-------|-------------------------7-----------------------|
D#|-0---0---0---3---0---0-------0---0---2-------2---|-0---0---0---3---0---0-------0---0---0---2---2---|


F#|---------------------------------------------------|-------------------------------------------------|
C#|---------------------------------------------------|-------------------------------------------------|
G#|---------------------------------------------------|-------------------------7-----------------------|
D#|-0---0---0---3---0---0---3---3--3--3---2---2---2---|-0---0---0---3---0---0-------0---0---0---2---2---|


F#|-------------------------------------------------|-------------------------------------------------|
C#|-------------------------------------------------|-------------------------------------------------|
G#|-------------------------7---------------5-------|-------------------------7-----------------------|
D#|-0---0---0---3---0---0-------0---0---2-------2---|-0---0---0---3---0---0-------0---0---0---2---2---|


F#|---------------------------------------------------|-------------------------------------------------|
C#|---------------------------------------------------|-------------------------------------------------|
G#|---------------------------------------------------|-------------------------------------------------|
D#|-0---0---0---3---0---0---3---3--3--3---2---2---2---|-0---0---0---0---0---0---0---0---0---0---0---0---|


F#|-------------------------------------------------|-------------------------------------------------|
C#|-------------------------------------------------|-------------------------------------------------|
G#|-------------------------------------------------|-------------------------------------------------|
D#|-7---7---7---7---7---7---7---7---7---7---7---7---|-0---0---0---0---0---0---0---0---0---0---0---0---|


F#|-------------------------------------------------|-------------------------------------------------|
C#|-------------------------------------------------|-------------------------------------------------|
G#|-------------------------------------------------|-------------------------------------------------|
D#|-7---7---7---7---7---7---7---7---7---7---7---7---|-0---0---0---0---0---0---0---0---0---0---0---0---|


F#|-------------------------------------------------|-------------------------------------------------|
C#|-------------------------------------------------|-------------------------------------------------|
G#|-------------------------------------------------|-------------------------------------------------|
D#|-7---7---7---7---7---7---7---7---7---7---7---7---|-0---0---0---0---0---0---0---0---0---0---0---0---|


F#|-------------------------------------------------|------------------------------------------|
C#|-------------------------------------------------|------------------------------------------|
G#|-------------------------------------------------|------------------------------------------|
D#|-7---7---7---7---7---7---7---7---7---7---7---7---|-0-----------0-----------5--------0---0---|


F#|-------------------------------------------------|------------------------------------------|
C#|-------------------------------------------------|------------------------------------------|
G#|-------------------------------------------------|------------------------------------------|
D#|-0---0---0---0---0---0---2---2---2---3---3---3---|-5---5---5---5---3---2---3----8---8---8---|


F#|-------------------------------------------------|------------------------------------------|
C#|-------------------------------------------------|------------------------------------------|
G#|-------------------------------------------------|------------------------------------------|
D#|-8---8---8---8---8---8---7---7---7---7---7---7---|-0-----------0-----------5--------0---0---|


F#|-------------------------------------------------|------------------------------------------|
C#|-------------------------------------------------|------------------------------------------|
G#|-------------------------------------------------|------------------------------------------|
D#|-0---0---0---0---0---0---2---2---2---3---3---3---|-5---5---5---5---3---2---3----8---8---8---|


F#|-------------------------------------------------|------------------------------------------|
C#|-------------------------------------------------|------------------------------------------|
G#|-------------------------------------------------|------------------------------------------|
D#|-8---8---8---8---8---8---7---7---7---7---7---7---|-0-----------0-----------5--------0---0---|


F#|-------------------------------------------------|------------------------------------------|
C#|-------------------------------------------------|------------------------------------------|
G#|-------------------------------------------------|------------------------------------------|
D#|-0---0---0---0---0---0---2---2---2---3---3---3---|-5---5---5---5---3---2---3----8---8---8---|


F#|-------------------------------------------------|------------------------------------------|
C#|-------------------------------------------------|------------------------------------------|
G#|-------------------------------------------------|------------------------------------------|
D#|-8---8---8---8---8---8---7---7---7---7---7---7---|-0-----------0-----------5--------0---0---|


F#|-------------------------------------------------|------------------------------------------|
C#|-------------------------------------------------|------------------------------------------|
G#|-------------------------------------------------|------------------------------------------|
D#|-0---0---0---0---0---0---2---2---2---3---3---3---|-5---5---5---5---3---2---3----8---8---8---|


F#|-------------------------------------------------|-------------------------------------------------|
C#|-------------------------------------------------|-------------------------------------------------|
G#|-------------------------------------------------|-------------------------------------------------|
D#|-8---8---8---8---8---8---7---7---7---7---7---7---|-0---0---0---0---0---0---0---0---0---0---0---0---|


F#|-------------------------------------------------|-------------------------------------------------|
C#|-------------------------------------------------|-------------------------------------------------|
G#|-------------------------------------------------|-------------------------------------------------|
D#|-0---0---0---0---0---0---0---0---0---0---0---0---|-0---0---0---0---0---0---0---0---0---0---0---0---|


F#|-------------------------------------------------|-------------------------------------------------|
C#|-------------------------------------------------|-------------------------------------------------|
G#|-5---5---5---5---5---5---3---3---3---3---3---3---|-------------------------------------------------|
D#|-------------------------------------------------|-0---0---0---0---0---0---0---0---0---0---0---0---|


F#|-------------------------------------------------|-------------------------------------------------|
C#|-------------------------------------------------|-------------------------------------------------|
G#|-------------------------------------------------|-------------------------------------------------|
D#|-0---0---0---0---0---0---0---0---0---0---0---0---|-0---0---0---0---0---0---0---0---0---0---0---0---|


F#|-------------------------------------------------|-------------------------------------------------|
C#|-------------------------------------------------|-------------------------------------------------|
G#|-5---5---5---5---5---5---3---3---3---3---3---3---|-------------------------------------------------|
D#|-------------------------------------------------|-0---0---0---0---0---0---0---0---0---0---0---0---|


F#|-------------------------------------------------|-------------------------------------------------|
C#|-------------------------------------------------|-------------------------------------------------|
G#|-------------------------------------------------|-------------------------------------------------|
D#|-0---0---0---0---0---0---0---0---0---0---0---0---|-0---0---0---0---0---0---0---0---0---0---0---0---|


F#|-------------------------------------------------|-------------------------------------------------|
C#|-------------------------------------------------|-------------------------------------------------|
G#|-5---5---5---5---5---5---3---3---3---3---3---3---|-------------------------------------------------|
D#|-------------------------------------------------|-0---0---0---0---0---0---0---0---0---0---0---0---|


F#|-------------------------------------------------|-------------------------------------------------|
C#|-------------------------------------------------|-------------------------------------------------|
G#|-------------------------------------------------|-------------------------------------------------|
D#|-0---0---0---0---0---0---0---0---0---0---0---0---|-0---0---0---0---0---0---0---0---0---0---0---0---|


F#|-------------------------------------------------|-------------------------------------------------|
C#|-------------------------------------------------|-------------------------------------------------|
G#|-5---5---5---5---5---5---3---3---3---3---3---3---|-------------------------------------------------|
D#|-------------------------------------------------|-0---0---0---0---0---0---0---0---0---0---0---0---|


F#|-------------------------------------------------|-------------------------------------------------|
C#|-------------------------------------------------|-------------------------------------------------|
G#|-------------------------------------------------|-------------------------------------------------|
D#|-0---0---0---0---0---0---0---0---0---0---0---0---|-0---0---0---0---0---0---0---0---0---0---0---0---|


F#|-------------------------------------------------|-------------------------------------------------|
C#|-------------------------------------------------|-------------------------------------------------|
G#|-5---5---5---5---5---5---3---3---3---3---3---3---|-------------------------------------------------|
D#|-------------------------------------------------|-0---0---0---0---0---0---0---0---0---0---0---0---|


F#|-------------------------------------------------|-------------------------------------------------|
C#|-------------------------------------------------|-------------------------------------------------|
G#|-------------------------------------------------|-------------------------------------------------|
D#|-0---0---0---0---0---0---0---0---0---0---0---0---|-0---0---0---0---0---0---0---0---0---0---0---0---|


F#|-------------------------------------------------|---------------------------------------------------|
C#|-------------------------------------------------|---------------------------------------------------|
G#|-5---5---5---5---5---5---3---3---3---3---3---3---|---------------------------------------5---7---5---|
D#|-------------------------------------------------|-0---0--0--0---0---0---0---0---0---0---------------|


F#|---------------------------------------------------|---------------------------------------------------|
C#|---------------------------------------------------|---------------------------------------------------|
G#|---------------------------------------5---5---5---|-3---3--3--3---3---3---3---3---3---3---3---3---3---|
D#|-0---0---0---0---0--0--0---0---0---0---------------|---------------------------------------------------|


F#|---------------------------------------------------|---------------------------------------------------|
C#|---------------------------------------------------|---------------------------------------------------|
G#|-2---2---2---2---2--2--2---2---2---2---2---2---2---|---------------------------------------5---7---5---|
D#|---------------------------------------------------|-0---0--0--0---0---0---0---0---0---0---------------|


F#|---------------------------------------------------|---------------------------------------------------|
C#|---------------------------------------------------|---------------------------------------------------|
G#|---------------------------------------5---5---5---|-3---3--3--3---3---3---3---3---3---3---3---3---3---|
D#|-0---0---0---0---0--0--0---0---0---0---------------|---------------------------------------------------|


F#|---------------------------------------------------|---------------------------------------------------|
C#|---------------------------------------------------|---------------------------------------------------|
G#|-2---2---2---2---2--2--2---2---2---2---2---2---2---|---------------------------------------5---7---5---|
D#|---------------------------------------------------|-0---0--0--0---0---0---0---0---0---0---------------|


F#|---------------------------------------------------|---------------------------------------------------|
C#|---------------------------------------------------|---------------------------------------------------|
G#|---------------------------------------5---7---5---|-3---3--3--3---3---3---3---3---3---3---3---3---3---|
D#|-0---0---0---0---0--0--0---0---0---0---------------|---------------------------------------------------|


F#|---------------------------------------------------|---------------------------------------------------|
C#|---------------------------------------------------|---------------------------------------------------|
G#|-2---2---2---2---2--2--2---2---2---2---2---2---2---|---------------------------------------5---7---5---|
D#|---------------------------------------------------|-0---0--0--0---0---0---0---0---0---0---------------|


F#|---------------------------------------------------|---------------------------------------------------|
C#|---------------------------------------------------|---------------------------------------------------|
G#|---------------------------------------5---7---5---|-3---3--3--3---3---3---3---3---3---3---3---3---3---|
D#|-0---0---0---0---0--0--0---0---0---0---------------|---------------------------------------------------|


F#|---------------------------------------------------|-------------------------------------------------|
C#|---------------------------------------------------|-------------------------------------------------|
G#|-2---2---2---2---2--2--2---2---2---2---2---2---2---|-------------------------------------------------|
D#|---------------------------------------------------|-0---0---0---0---0---0---2---2---2---2---2---2---|


F#|----------------------------------------|-------------------------------------------------|
C#|----------------------------------------|-------------------------------------------------|
G#|------------------------------3---------|-3---3---3---3---3---3---3---3---3---3---3---3---|
D#|-3---3---3---3---3---3---5---------5----|-------------------------------------------------|


F#|-------------------------------------------------|-------------------------------------------------|
C#|-------------------------------------------------|-------------------------------------------------|
G#|-2---2---2---2---2---2---0---0---0---0---0---0---|-------------------------------------------------|
D#|-------------------------------------------------|-0---0---0---0---0---0---2---2---2---2---2---2---|


F#|----------------------------------------|-------------------------------------------------|
C#|----------------------------------------|-------------------------------------------------|
G#|------------------------------3---------|-3---3---3---3---3---3---3---3---3---3---3---3---|
D#|-3---3---3---3---3---3---5---------5----|-------------------------------------------------|


F#|-------------------------------------------------|-------------------------------------------------|
C#|-------------------------------------------------|-------------------------------------------------|
G#|-2---2---2---2---2---2---0---0---0---0---0---0---|-------------------------------------------------|
D#|-------------------------------------------------|-0---0---0---0---0---0---2---2---2---2---2---2---|


F#|----------------------------------------|-------------------------------------------------|
C#|----------------------------------------|-------------------------------------------------|
G#|------------------------------3---------|-3---3---3---3---3---3---3---3---3---3---3---3---|
D#|-3---3---3---3---3---3---5---------5----|-------------------------------------------------|


F#|-------------------------------------------------|-------------------------------------------------|
C#|-------------------------------------------------|-------------------------------------------------|
G#|-2---2---2---2---2---2---0---0---0---0---0---0---|-------------------------------------------------|
D#|-------------------------------------------------|-0---0---0---0---0---0---2---2---2---2---2---2---|


F#|----------------------------------------|-------------------------------------------------|
C#|----------------------------------------|-------------------------------------------------|
G#|------------------------------3---------|-3---3---3---3---3---3---3---3---3---3---3---3---|
D#|-3---3---3---3---3---3---5---------5----|-------------------------------------------------|


F#|-------------------------------------------------|--------|--------|--------|--------|
C#|-------------------------------------------------|--------|--------|--------|--------|
G#|-2---2---2---2---2---2---0---0---0---0---0---0---|--------|--------|--------|--------|
D#|-------------------------------------------------|--------|--------|--------|--------|


F#|--------|--------|--------|--------|-------------------------------------------------|
C#|--------|--------|--------|--------|-------------------------------------------------|
G#|--------|--------|--------|--------|-------------------------------------------------|
D#|--------|--------|--------|--------|-0---0---0---0---0---0---0---0---0---0---0---0---|


F#|-------------------------------------------------|-------------------------------------------------|
C#|-------------------------------------------------|-------------------------------------------------|
G#|-------------------------------------------------|-------------------------------------------------|
D#|-0---0---0---0---0---0---0---0---0---0---0---0---|-8---8---8---8---8---8---8---8---8---8---8---8---|


F#|-------------------------------------------------|-------------------------------------------------|
C#|-------------------------------------------------|-------------------------------------------------|
G#|-------------------------------------------------|-------------------------------------------------|
D#|-7---7---7---7---7---7---7---7---7---7---7---7---|-0---0---0---0---0---0---0---0---0---0---0---0---|


F#|-------------------------------------------------|-------------------------------------------------|
C#|-------------------------------------------------|-------------------------------------------------|
G#|-------------------------------------------------|-------------------------------------------------|
D#|-0---0---0---0---0---0---0---0---0---0---0---0---|-8---8---8---8---8---8---8---8---8---8---8---8---|


F#|-------------------------------------------------|-------------------------------------------------|
C#|-------------------------------------------------|-------------------------------------------------|
G#|-------------------------------------------------|-------------------------7-----------------------|
D#|-7---7---7---7---7---7---7---7---7---7---7---7---|-0---0---0---3---0---0-------0---0---0---2---2---|


F#|-------------------------------------------------|-------------------------------------------------|
C#|-------------------------------------------------|-------------------------------------------------|
G#|-------------------------7---------------5-------|-------------------------7-----------------------|
D#|-0---0---0---3---0---0-------0---0---2-------2---|-0---0---0---3---0---0-------0---0---0---2---2---|


F#|---------------------------------------------------|-------------------------------------------------|
C#|---------------------------------------------------|-------------------------------------------------|
G#|---------------------------------------------------|-------------------------7-----------------------|
D#|-0---0---0---3---0---0---3---3--3--3---2---2---2---|-0---0---0---3---0---0-------0---0---0---2---2---|


F#|-------------------------------------------------|-------------------------------------------------|
C#|-------------------------------------------------|-------------------------------------------------|
G#|-------------------------7---------------5-------|-------------------------7-----------------------|
D#|-0---0---0---3---0---0-------0---0---2-------2---|-0---0---0---3---0---0-------0---0---0---2---2---|


F#|---------------------------------------------------|-------------------------------------------------|
C#|---------------------------------------------------|-------------------------------------------------|
G#|---------------------------------------------------|-------------------------------------------------|
D#|-0---0---0---3---0---0---3---3--3--3---2---2---2---|-0---0---0---0---0---0---0---0---0---0---0---0---|


F#|-------------------------------------------------|-------------------------------------------------|
C#|-------------------------------------------------|-------------------------------------------------|
G#|-------------------------------------------------|-------------------------------------------------|
D#|-7---7---7---7---7---7---7---7---7---7---7---7---|-0---0---0---0---0---0---0---0---0---0---0---0---|


F#|-------------------------------------------------|-------------------------------------------------|
C#|-------------------------------------------------|-------------------------------------------------|
G#|-------------------------------------------------|-------------------------------------------------|
D#|-7---7---7---7---7---7---7---7---7---7---7---7---|-0---0---0---0---0---0---0---0---0---0---0---0---|


F#|-------------------------------------------------|-------------------------------------------------|
C#|-------------------------------------------------|-------------------------------------------------|
G#|-------------------------------------------------|-------------------------------------------------|
D#|-7---7---7---7---7---7---7---7---7---7---7---7---|-0---0---0---0---0---0---0---0---0---0---0---0---|


F#|-------------------------------------------------|------------------------------------------|
C#|-------------------------------------------------|------------------------------------------|
G#|-------------------------------------------------|------------------------------------------|
D#|-7---7---7---7---7---7---7---7---7---7---7---7---|-0-----------0-----------5--------0---0---|


F#|-------------------------------------------------|------------------------------------------|
C#|-------------------------------------------------|------------------------------------------|
G#|-------------------------------------------------|------------------------------------------|
D#|-0---0---0---0---0---0---2---2---2---3---3---3---|-5---5---5---5---3---2---3----8---8---8---|


F#|-------------------------------------------------|------------------------------------------|
C#|-------------------------------------------------|------------------------------------------|
G#|-------------------------------------------------|------------------------------------------|
D#|-8---8---8---8---8---8---7---7---7---7---7---7---|-0-----------0-----------5--------0---0---|


F#|-------------------------------------------------|------------------------------------------|
C#|-------------------------------------------------|------------------------------------------|
G#|-------------------------------------------------|------------------------------------------|
D#|-0---0---0---0---0---0---2---2---2---3---3---3---|-5---5---5---5---3---2---3----8---8---8---|


F#|-------------------------------------------------|------------------------------------------|
C#|-------------------------------------------------|------------------------------------------|
G#|-------------------------------------------------|------------------------------------------|
D#|-8---8---8---8---8---8---7---7---7---7---7---7---|-0-----------0-----------5--------0---0---|


F#|-------------------------------------------------|------------------------------------------|
C#|-------------------------------------------------|------------------------------------------|
G#|-------------------------------------------------|------------------------------------------|
D#|-0---0---0---0---0---0---2---2---2---3---3---3---|-5---5---5---5---3---2---3----8---8---8---|


F#|-------------------------------------------------|------------------------------------------|
C#|-------------------------------------------------|------------------------------------------|
G#|-------------------------------------------------|------------------------------------------|
D#|-8---8---8---8---8---8---7---7---7---7---7---7---|-0-----------0-----------5--------0---0---|


F#|-------------------------------------------------|------------------------------------------|
C#|-------------------------------------------------|------------------------------------------|
G#|-------------------------------------------------|------------------------------------------|
D#|-0---0---0---0---0---0---2---2---2---3---3---3---|-5---5---5---5---3---2---3----8---8---8---|


F#|-------------------------------------------------|--------------------|
C#|-------------------------------------------------|--------------------|
G#|-------------------------------------------------|--------------------|
D#|-8---8---8---8---8---8---7---7---7---7---7---7---|-0---0---0----------|