Site menu:

    

Browse: 0-9 A B C D E F G H I J K L N O P Q R S T U V W X Y Z

kalmah - dance on the water:



/---------------------------------------------------------------------------
/ The following is the author's own interpretation of the song, to be used -
/ for studying or private use only, removal of any part of this ten line   -
/ header is illegal!!!  Removal of the transcribers name or anything       -
/ relevant to the transcriber is also illegal, as so is the removal of the -
/ place inwhich the tab was downloaded. Publishing as well as printing of  -
/ the tab is illegal without permission of the transcriber and copyright   -
/ owner of the song. Failure to apply to these laws result will in legal   -
/ action from the appropriate parties.                                     -
/---------------------------------------------------------------------------

downloaded from Displacer's Tablature Site at
        http://www.dsrmusic.com/metaltab
join the death/black tab emailing list by filling out the free
subscription form at http://www.dsrmusic.com/metaltab/join.htm


#----------------------------------PLEASE NOTE---------------------------------#
#This file is the author's own work and represents their interpretation of the #
#song. You may only use this file for private study, scholarship, or research. #
#------------------------------------------------------------------------------#

  Visit MetalTabs.com for more metal tablature
  
Song: Dance On The Water
Artist: Kalmah
Album: Swamplord

Tabbed by: Clint Hale
E-mail: Nacht_Brujah@Yahoo.com


Tuning-down half a step
Eb Ab Db Gb Bb Eb

Legend-
       PM.- palm mute
       *- harmonics
       ~- vibrato
       P-Pull-off
       / or \- Slide
       ?-I have no frickn' clue

Intro
Pm.......       Pm....
Eb-------------------------
Bb-------------------------
Gb-------------------------
Db-------------------------
Ab--5-4-3--2-----5-4-3--2--
Eb--3-2-1--0-----3-2-1--0--

Pre-Solo riff
Eb-------------------------------------------------------------------
Bb-------------------------------------------------------------------
Gb-------------------------------------------------------------------
Db-------------------------------------------------------------------
Ab----7-6-7-7-10-9-7-9-12-12-15-14--7-6-7-7-10-9-7-9-12-11h12p11-10-9
Eb-0-------------------------------0---------------------------------
Sorry,Still working on the higher octave for this riff...


Solo Riff
Pm..............
Eb-------------------------------------------------------------------
Bb-------------------------------------------------------------------
Gb-------------------------------------------------------------------
Db--5-5--5--5-5--5/7--7-7--7--7-7/5--5-5--5--5-5p0-------------------
Ab--7-7--7--7-7--7/9--9-9--9--9-9/7--7-7--7--7-7p0--6-6--6--6-6--6---
Eb--------------------------------------------------7-7--7--7-7--7---

Main Riff
Pm...................................................................
Eb-------------------------------------------------------------------
Bb-------------------------------------------------------------------
Gb-------------------------------------------------------------------
Db-------------------------------------------------------------------
Ab-2-2--2--2-2--2-2--2--2-2--5-5--5--5-5-5--9-9-9--7-6-5-------------
Eb-0-0--0--0-0--0-0--0--0-0--3-3--3--3-3-3--7-8-7--5-4-3-------------

Main Riff Cont.
Pm...................................................................
Eb-------------------------------------------------------------------------------------------------------------
Bb-------------------------------------------------------------------------------------------------------------
Gb-------------------------------------------------------------------------------------------------------------
Db----------------------------------------------------5--5-5--5--5-5--5--5-5-5--5-5----------------------------
Ab-2-2--2--2-2--2-2--2--2-2--5-5--5--5-5-5---5-5--3---3--3-3--3--3-3--3--3-3-3--3-3-3h5h3--5-5-5-5-5--4-4-4-4-4
Eb-0-0--0--0-0--0-0--0--0-0--3-3--3--3-3-3---3-3--3----------------------------------------3-3-3-3-3--2-2-2-2-2


Little guitar lick after main riff
Eb-------------------------------------------------------------------
Bb-------------------------------------------------------------------
Gb-------------------------------------------------------------------
Db-------------------------------------------------------------------
Ab-7-----9-10-------------12-15-12h15-12-0---7-----9-10-------?????--
Eb---0-0------0-0--12-11-----------------------0-0------0-0---?????--


2nd Solo
Eb-------------------------------------------------------------------------
Bb-------------------------------------------------------------------------
Gb------------------------------------5-4-5-5/12-5-4---4-------------------
Db---------------------------------------------------5---5-7p0-------------
Ab-7-----10-9-7-6-7-----10-9-7-6-7-6---------------------------------------
Eb---0-0------------0-0----------------------------------------------------


That's almost every riff transcribed,hope this comes in handy.
Sorry,I don't know the last riff that fades out but if I ever figure it out, I'll be sure to post it up.

  Visit MetalTabs.com for more metal tablature