Site menu:

    

Browse: 0-9 A B C D E F G H I J K L N O P Q R S T U V W X Y Z

john miles - music:



Title: Music
Artist: 
Album: Rebel
Author: John Miles


Track 1: Electric Guitar (jazz)

E|-4---------------4---------------|-4---------------4---------------|-4---------------4---5---7---9---|
B|-------------5---------------5---|-------------5---------------5---|-------------5-------------------|
G|---------4---------------4-------|---------4---------------4-------|---------4-------------------9---|
D|-----6---------------6-----------|-----6---------------6-----------|-----6---------------6---9-------|
A|---------------------------------|---------------------------------|---------------------------------|
E|---------------------------------|---------------------------------|---------------------------------|


E|-7-----------5-----------5----|-------------7---------------------|---------------------------------|
B|---------7-------5-------7----|-7-----------7---10-9--9---7---9---|-----------------10--------------|
G|-----6---------------6---6----|-8-------8-------------11--8-------|-----9-------9-------9-------9---|
D|-7----------------------------|-9---9-----------------------------|---------11--------------11------|
A|------------------------------|-----------------------------------|-----12--------------------------|
E|------------------------------|-----------------------------------|-12------------------------------|


E|---------------------12--14--16--|-16------14----------------------|-----------------17--16----------|
B|-9---------------12--------------|---------------------------------|-------------12----------17--14--|
G|---------9-------9---------------|-------------11----------11------|-14----------9---14------14------|
D|-----9-------9---9-------14------|-16------11------11------11------|---------11------14------14------|
A|-------------------------14------|-----13--------------13------13--|-----12--------------------------|
E|---------------------------------|---------------------------------|---------------------------------|


E|-14------------------------------|---------------------------------|---------------------------------|
B|-----------------12------12------|-12----------------------12--14--|-12------------------------------|
G|-11----------11------11----------|-13------13------13--14--13------|---------14--------------14------|
D|---------13--------------13------|-14------14--14--14------14------|---------16------16--------------|
A|-----14----------------------14--|-14--14----------------------14--|-----16------16------16------16--|
E|---------------------------------|---------------------------------|---------------------------------|


E|-----------------------------------|------------------------------|-----7---12--14--16-----------|
B|-12------12------12------12--------|---------5----5---------------|-----0-------0----------------|
G|-11--11--11--13--11--13--11--13-11-|-9-------6--------8---6-------|-------------------------13---|
D|-9---9---13------13----------------|-----7--------------------7---|-6---------------14--16-------|
A|---------------------14------------|------------------------------|------------------------------|
E|-----------------------------------|------------------------------|------------------------------|


E|-16--14--14----------------------|-----------------17--16----------|-14----------|
B|---------------------------------|-------------------------17------|-------------|
G|---------------------------------|-------------16--------------18--|-------------|
D|-16--16----------16--------------|-14------14------14--14--14------|-13----------|
A|-13------16------13----------16--|-16------16------16----------16--|-14----------|
E|-------------14------14--14------|-----17--------------------------|-------------|


E|------------------------|------------------------|---------------------------|---------------------|
B|-5----7----8----7---5---|-5---5---7----8----5----|-7----8----7---5---5---5---|-7----8----5----7----|
G|-0------------------0---|-0---0-------------0----|---------------0---0---0---|-----------5----7----|
D|------7----9----7-------|---------7----9---------|-7----9----7---------------|-7----9--------------|
A|------------------------|------------------------|---------------------------|---------------------|
E|------------------------|------------------------|---------------------------|---------------------|


E|---------------------------|---------------------|---------------------------|------------------------|
B|-8----10--12--12--10--8----|-8----5----7----8----|-7---5---5---5---7----8----|-5----7----8----7---5---|
G|-9----11--12--12--11--9----|-9----0--------------|-----0---0---0-------------|-0------------------0---|
D|---------------------------|-----------7----9----|-7---------------7----9----|------7----9----7-------|
A|---------------------------|---------------------|---------------------------|------------------------|
E|---------------------------|---------------------|---------------------------|------------------------|


E|------------------------|---------------------------|---------------------|---------------------------|
B|-5---5---7----8----5----|-7----8----7---5---5---5---|-7----8----5----7----|-8----10--12--12--10--8----|
G|-0---0-------------0----|---------------0---0---0---|-----------5----7----|-9----11--12--12--11--9----|
D|---------7----9---------|-7----9----7---------------|-7----9--------------|---------------------------|
A|------------------------|---------------------------|---------------------|---------------------------|
E|------------------------|---------------------------|---------------------|---------------------------|


E|---------------------|---------------------------|------------------------|------------------------|
B|-8----5----7----8----|-7---5---5---5---7----8----|-5----7----8----7---5---|-5---5---7----8----5----|
G|-9----0--------------|-----0---0---0-------------|-0------------------0---|-0---0-------------0----|
D|-----------7----9----|-7---------------7----9----|------7----9----7-------|---------7----9---------|
A|---------------------|---------------------------|------------------------|------------------------|
E|---------------------|---------------------------|------------------------|------------------------|


E|---------------------------|---------------------|---------------------------|---------------------|
B|-7----8----7---5---5---5---|-7----8----5----7----|-8----10--12--12--10--8----|-8----5----7----8----|
G|---------------0---0---0---|-----------5----7----|-9----11--12--12--11--9----|-9----0--------------|
D|-7----9----7---------------|-7----9--------------|---------------------------|-----------7----9----|
A|---------------------------|---------------------|---------------------------|---------------------|
E|---------------------------|---------------------|---------------------------|---------------------|


E|---------------------------|------------------------|------------------------|---------------------------|
B|-7---5---5---5---7----8----|-5----7----8----7---5---|-5---5---7----8----5----|-7----8----7---5---5---5---|
G|-----0---0---0-------------|-0------------------0---|-0---0-------------0----|---------------0---0---0---|
D|-7---------------7----9----|------7----9----7-------|---------7----9---------|-7----9----7---------------|
A|---------------------------|------------------------|------------------------|---------------------------|
E|---------------------------|------------------------|------------------------|---------------------------|


E|---------------------|---------------------------|---------------------|---------------------------|
B|-7----8----5----7----|-8----10--12--12--10--8----|-8----5----7----8----|-7---5---5---5---7----8----|
G|-----------5----7----|-9----11--12--12--11--9----|-9----0--------------|-----0---0---0-------------|
D|-7----9--------------|---------------------------|-----------7----9----|-7---------------7----9----|
A|---------------------|---------------------------|---------------------|---------------------------|
E|---------------------|---------------------------|---------------------|---------------------------|


E|-12--------------|----------------------------------|-14-17-14---------------|----------------------------------|
B|-12---8-----8----|-8-----8---8---7---7----7---15-17-|----------15-8-----8----|-8-----8---8----------------15-17-|
G|-12---9-----9----|-9-----9---9---7---7----7---------|-------------9-----9----|-9-----9---9---6---6----6---------|
D|------9-----9----|-9-----9---9---7---7----7---------|-------------9-----9----|-9-----9---9---7---7----7---------|
A|-----------------|----------------------------------|------------------------|----------------------------------|
E|-----------------|----------------------------------|------------------------|----------------------------------|


E|-14-17-14---------------|----------------------------------|-14-17-14----15---14--------|
B|----------15-8-----8----|-8-----8---8---7---7----7---15-17-|----------15-----------17---|
G|-------------9-----9----|-9-----9---9---7---7----7---------|----------------------------|
D|-------------9-----9----|-9-----9---9---7---7----7---------|----------------------------|
A|------------------------|----------------------------------|----------------------------|
E|------------------------|----------------------------------|----------------------------|


E|------17--------15---|-17---20----19--19---|------19--------15---|-17---20----19--19---|
B|-15---19---15--------|-19---20----20--20---|------20---15--------|------19----19--19---|
G|------19--------17---|---------------------|---------------------|---------------------|
D|---------------------|---------------------|---------------------|---------------------|
A|---------------------|---------------------|---------------------|---------------------|
E|---------------------|---------------------|---------------------|---------------------|


E|----------------19---|-17-------------17---|-19---19----17---|------17----17--------|
B|------15-------------|---------------------|------17----17---|-17---19----19--------|
G|-----------16--------|------12-------------|------17----17---|-17---19----19--2--4--|
D|---------------------|-----------14--------|-----------------|-19-------------------|
A|---------------------|---------------------|-----------------|----------------------|
E|---------------------|---------------------|-----------------|----------------------|


E|------------------3----2----|-----2---2---0---0----0---------|------------------3----2----|
B|-5--------3--5----5----3----|-----3---3---0---0----0---------|-3--------3--5----5----3----|
G|----2--4----------4----2----|-----2---2---0---0----0---2--4--|----2--4----------4----2----|
D|----------------------------|--------------------------------|----------------------------|
A|----------------------------|--------------------------------|----------------------------|
E|----------------------------|--------------------------------|----------------------------|


E|-----2---2---0---0----0---------|------------------3----2----|-----2---2---0---0----0---------|
B|-----3---3---0---0----0---------|-3--------3--5----5----3----|-----3---3---1---1----1---------|
G|-----2---2---0---0----0---2--4--|----2--4----------5----2----|-----2---2---0---0----0---2--4--|
D|--------------------------------|----------------------------|--------------------------------|
A|--------------------------------|----------------------------|--------------------------------|
E|--------------------------------|----------------------------|--------------------------------|


E|------------------3----2----|-----0---0-------------------2---|-2---------3----2----|
B|-3--------3--5----5----3----|-----0---0---4---4---5---5---0---|-0----5----5----3----|
G|----2--4----------5----2----|-----2---2---4---4---4---4---2---|-2---------4----2----|
D|----------------------------|-------------7---7---7---7-------|---------------------|
A|----------------------------|---------------------------------|---------------------|
E|----------------------------|---------------------------------|---------------------|


E|-----2---2---0---0----0---------|------------------3----2----|-----2---2---0---0----0---------|
B|-----3---3---0---0----0---------|-3--------3--5----5----3----|-----3---3---0---0----0---------|
G|-----2---2---0---0----0---2--4--|----2--4----------4----2----|-----2---2---0---0----0---2--4--|
D|--------------------------------|----------------------------|--------------------------------|
A|--------------------------------|----------------------------|--------------------------------|
E|--------------------------------|----------------------------|--------------------------------|


E|------------------3----2----|-----2---2---0---0----0---------|------------------3----2----|
B|-3--------3--5----5----3----|-----3---3---1---1----1---------|-3--------3--5----5----3----|
G|----2--4----------5----2----|-----2---2---0---0----0---2--4--|----2--4----------5----2----|
D|----------------------------|--------------------------------|----------------------------|
A|----------------------------|--------------------------------|----------------------------|
E|----------------------------|--------------------------------|----------------------------|


E|-----0---0-------------------2---|-2--------7---9---11--12--14--|-16--17------------11------|
B|-----0---0---4---4---5---5---0---|-0----------------------------|---------12---14-----------|
G|-----2---2---4---4---4---4---2---|-2--------4---6---8---9---11--|-13--14------------13--14--|
D|-------------7---7---7---7-------|------------------------------|---------------------------|
A|---------------------------------|------------------------------|---------------------------|
E|---------------------------------|------------------------------|---------------------------|


E|-12----------14--14------14--12--|-11------12---17------17--16--|-14--16--12----12--12--|
B|-12--14--12----------------------|-----14-----------------------|---------------14------|
G|---------------------11----------|------------------16----------|-----------------------|
D|---------------------------------|------------------------------|-----------------------|
A|---------------------------------|------------------------------|-----------------------|
E|---------------------------------|------------------------------|-----------------------|


E|------------------12---14------|-16--16--16--14--14-----------|-------------------17----16----|
B|----------10-12------------17--|------------------------------|-----14--14--------------------|
G|-------9---------------16------|--------------------------15--|-15------------16-----------14-|
D|----11-------------------------|----------------------16------|----------------------14-14----|
A|-12----------------------------|------------------------------|-------------------16----------|
E|-------------------------------|------------------------------|-------------------------------|


E|-------------14--------------14--14--|-16--17---------------16-17--|-19--21--19--14--14---14------|
B|-17----14-14-----12--14--16--17------|--------------14---16--------|-17-----------------------17--|
G|----14-14----------------------------|---------16------------------|---------18-------------------|
D|-14----------------------------------|-----------------------------|------------------------------|
A|-------------------------------------|-----------------------------|------------------------------|
E|-------------------------------------|-----------------------------|------------------------------|


E|---------14---17-14-16--16--16--|-14--16-----------17--17------|-19--17--16--------------------12--|
B|-16--14-------------------------|---------17-----------17--14--|-------------------------14-12-12--|
G|--------------16----------------|--------------14--------------|---------------------13------------|
D|--------------------------------|------------------------------|-----------------14----------------|
A|--------------------------------|------------------------------|-------------14--------------------|
E|--------------------------------|------------------------------|-----------------------------------|


E|-14--16--16---14-----------|----------------17--16--|---------12--------------7---4---|
B|---------------------------|------------------------|-17--17------9---7---5-----------|
G|-14--13--15-------13-------|------------16----------|---------9---------------4---1---|
D|----------------------16---|------16----------------|-------------6---4---2-----------|
A|---------------------------|------------------------|---------------------------------|
E|---------------------------|------------------------|---------------------------------|


E|-------------6---4-------9---6---|-4-----------8---7---5---12--8---|-7---5---4------|
B|-7---5---5-----------7-----------|-----7---7-----------------------|---------5------|
G|-------------3---1-------6---3---|-1-----------5---4---2---9---5---|-4---2---4------|
D|-4---2---2-----------4-----------|-----4---4-----------------------|----------------|
A|---------------------------------|---------------------------------|----------------|
E|---------------------------------|---------------------------------|----------------|


E|------4-----4----|------16--------17--16--|----------------|-------------|
B|------5-----5----|------16----------------|-17--17--17-----|------17-----|
G|------4-----4----|------16----16----------|---------14-----|------14-----|
D|-----------------|------16----------------|---------14-----|------14-----|
A|-----------------|------------------------|---------14-----|------14-----|
E|-----------------|------------------------|----------------|-------------|





Track 2: Untitled

G|--------|--------|--------|--------|--------|--------|--------|--------|--------|
D|--------|--------|--------|--------|--------|--------|--------|--------|--------|
A|--------|--------|--------|--------|--------|--------|--------|--------|--------|
E|--------|--------|--------|--------|--------|--------|--------|--------|--------|


G|--------|--------|--------|--------|--------|--------|--------|--------|--------|
D|--------|--------|--------|--------|--------|--------|--------|--------|--------|
A|--------|--------|--------|--------|--------|--------|--------|--------|--------|
E|--------|--------|--------|--------|--------|--------|--------|--------|--------|


G|--------|--------|--------|--------|--------|--------|--------|--------|--------|
D|--------|--------|--------|--------|--------|--------|--------|--------|--------|
A|--------|--------|--------|--------|--------|--------|--------|--------|--------|
E|--------|--------|--------|--------|--------|--------|--------|--------|--------|


G|--------|--------|--------|--------|--------|--------|--------|--------|--------|
D|--------|--------|--------|--------|--------|--------|--------|--------|--------|
A|--------|--------|--------|--------|--------|--------|--------|--------|--------|
E|--------|--------|--------|--------|--------|--------|--------|--------|--------|


G|--------|--------|--------|--------|--------|--------|--------|--------|--------|
D|--------|--------|--------|--------|--------|--------|--------|--------|--------|
A|--------|--------|--------|--------|--------|--------|--------|--------|--------|
E|--------|--------|--------|--------|--------|--------|--------|--------|--------|


G|--------|--------|--------|--------|--------|--------|--------|--------|--------|
D|--------|--------|--------|--------|--------|--------|--------|--------|--------|
A|--------|--------|--------|--------|--------|--------|--------|--------|--------|
E|--------|--------|--------|--------|--------|--------|--------|--------|--------|


G|--------|--------|--------|--------|--------|--------|--------|--------|--------|
D|--------|--------|--------|--------|--------|--------|--------|--------|--------|
A|--------|--------|--------|--------|--------|--------|--------|--------|--------|
E|--------|--------|--------|--------|--------|--------|--------|--------|--------|


G|--------|--------|--------|--------|--------|--------|--------|--------|--------|
D|--------|--------|--------|--------|--------|--------|--------|--------|--------|
A|--------|--------|--------|--------|--------|--------|--------|--------|--------|
E|--------|--------|--------|--------|--------|--------|--------|--------|--------|


G|--------|--------|--------|--------|--------|--------|--------|--------|--------|
D|--------|--------|--------|--------|--------|--------|--------|--------|--------|
A|--------|--------|--------|--------|--------|--------|--------|--------|--------|
E|--------|--------|--------|--------|--------|--------|--------|--------|--------|


G|--------|--------|--------|--------|--------|--------|--------|--------|--------|
D|--------|--------|--------|--------|--------|--------|--------|--------|--------|
A|--------|--------|--------|--------|--------|--------|--------|--------|--------|
E|--------|--------|--------|--------|--------|--------|--------|--------|--------|


G|--------|--------|--------|--------|--------|--------|--------|--------|--------|
D|--------|--------|--------|--------|--------|--------|--------|--------|--------|
A|--------|--------|--------|--------|--------|--------|--------|--------|--------|
E|--------|--------|--------|--------|--------|--------|--------|--------|--------|


G|--------|--------|
D|--------|--------|
A|--------|--------|
E|--------|--------|